999
DXF file: C:\Users\sesa63760\Dev\_Creo\CAD\MCADID0002084_3D-CAD\drw0001_4.dxf
999
Pro/ENGINEER 2019471 by Parametric Technology Corporation
  0
SECTION
  2
HEADER
  9
$ACADVER
  1
AC1024
  9
$DWGCODEPAGE
  3
ANSI_1252
  9
$EXTMAX
 10
545.0786966193
 20
770.8970137901
 30
0.0
  9
$EXTMIN
 10
0.0
 20
0.0
 30
0.0
  9
$LIMMIN
 10
0.0
 20
0.0
  9
$LIMMAX
 10
545.0786966193
 20
770.8970137901
  9
$VIEWCTR
 10
272.5393483096
 20
385.4485068951
  9
$VIEWSIZE
 40
770.8970137901
  9
$CLAYER
  8
0
  9
$LTSCALE
 40
50.2510646026
  9
$CELTYPE
  6
BYLAYER
  9
$DIMSCALE
 40
1.0
  9
$DIMASZ
 40
6.4890321026
  9
$DIMEXO
 40
1.0
  9
$DIMDLI
 40
34.7189173618
  9
$DIMEXE
 40
1.0
  9
$DIMCEN
 40
8.2229014804
  9
$DIMLFAC
 40
1.0
  9
$DIMBLK
  1
_FILLED
  9
$DIMALT
 70
0
  9
$DIMALTF
 40
0.0393700787
  9
$DIMTXT
 40
9.0846449437
  9
$DIMTOL
 70
1
  9
$DIMLIM
 70
0
  9
$DIMTFAC
 40
1.0
  9
$DIMTP
 40
0.01
  9
$DIMTM
 40
0.01
  9
$DIMGAP
 40
0.625
  9
$DIMDSEP
 70
46
  9
$AUNITS
 70
0
  9
$PDMODE
 70
3
  9
$PDSIZE
 40
0.3125
  9
$HANDSEED
  5
4FB
  9
$TILEMODE
 70
1
  9
$MEASUREMENT
 70
1
  9
$INSUNITS
 70
4
  0
ENDSEC
  0
SECTION
  2
CLASSES
  0
CLASS
  1
ACDBDICTIONARYWDFLT
  2
AcDbDictionaryWithDefault
  3
AutoCAD 2000
 90
0
 91
1
280
0
281
0
  0
CLASS
  1
ACDBPLACEHOLDER
  2
AcDbPlaceHolder
  3
AutoCAD 2000
 90
0
 91
1
280
0
281
0
  0
CLASS
  1
LAYOUT
  2
AcDbLayout
  3
AutoCAD 2000
 90
0
 91
0
280
0
281
0
  0
ENDSEC
  0
SECTION
  2
TABLES
  0
TABLE
  2
VPORT
  5
8
100
AcDbSymbolTable
 70
2
  0
VPORT
  5
1F4
100
AcDbSymbolTableRecord
100
AcDbViewportTableRecord
  2
*ACTIVE
 70
0
 10
0.0
 20
0.0
 11
1.0
 21
1.0
 12
272.5393483096
 22
385.4485068951
 13
0.0
 23
0.0
 14
1.0
 24
1.0
 15
0.0
 25
0.0
 16
0.0
 26
0.0
 36
1.0
 17
0.0
 27
0.0
 37
0.0
 40
770.8970137901
 41
0.7070707071
 42
50.0
 43
0.0
 44
0.0
 50
0.0
 51
0.0
 71
0
 72
100
 73
1
 74
1
 75
0
 76
0
 77
0
 78
0
  0
ENDTAB
  0
TABLE
  2
LTYPE
  5
5
100
AcDbSymbolTable
 70
6
  0
LTYPE
  5
14
100
AcDbSymbolTableRecord
100
AcDbLinetypeTableRecord
  2
BYBLOCK
 70
0
  3

 72
65
 73
0
 40
0.0
  0
LTYPE
  5
15
100
AcDbSymbolTableRecord
100
AcDbLinetypeTableRecord
  2
BYLAYER
 70
0
  3

 72
65
 73
0
 40
0.0
  0
LTYPE
  5
16
100
AcDbSymbolTableRecord
100
AcDbLinetypeTableRecord
  2
CONTINUOUS
 70
64
  3
Solid line
 72
65
 73
0
 40
0.0
  0
LTYPE
  5
1F5
100
AcDbSymbolTableRecord
100
AcDbLinetypeTableRecord
  2
CENTER
 70
64
  3
____ _ ____ _ ____ _ ____ _ ____ _ ____ _ ____
 72
65
 73
4
 40
0.6
 49
0.375
 74
0
 49
-0.075
 74
0
 49
0.075
 74
0
 49
-0.075
 74
0
  0
LTYPE
  5
1F6
100
AcDbSymbolTableRecord
100
AcDbLinetypeTableRecord
  2
HIDDEN
 70
64
  3
- - - - - - - - - - - - - - - - - - - -
 72
65
 73
2
 40
0.2
 49
0.1
 74
0
 49
-0.1
 74
0
  0
LTYPE
  5
1F7
100
AcDbSymbolTableRecord
100
AcDbLinetypeTableRecord
  2
PHANTOM
 70
64
  3
_____ _ _ _____ _ _ _____ _ _ _____
 72
65
 73
6
 40
0.8
 49
0.45
 74
0
 49
-0.05
 74
0
 49
0.1
 74
0
 49
-0.05
 74
0
 49
0.1
 74
0
 49
-0.05
 74
0
  0
LTYPE
  5
1F8
100
AcDbSymbolTableRecord
100
AcDbLinetypeTableRecord
  2
DOT
 70
64
  3
. . . . . . . . . . . . . . . . . . . .
 72
65
 73
2
 40
0.2
 49
0.1
 74
0
 49
-0.1
 74
0
  0
LTYPE
  5
1F9
100
AcDbSymbolTableRecord
100
AcDbLinetypeTableRecord
  2
DASHED
 70
64
  3
- - - - - - - - - - - - - - - - - - - -
 72
65
 73
2
 40
0.2
 49
0.1
 74
0
 49
-0.1
 74
0
  0
ENDTAB
  0
TABLE
  2
LAYER
  5
2
100
AcDbSymbolTable
 70
36
  0
LAYER
  5
10
100
AcDbSymbolTableRecord
100
AcDbLayerTableRecord
  2
0
 70
0
 62
7
  6
CONTINUOUS
370
-3
390
F
  0
LAYER
  5
1FA
100
AcDbSymbolTableRecord
100
AcDbLayerTableRecord
  2
DEFAULT_1
 70
0
 62
7
  6
CENTER
370
-3
390
F
  0
LAYER
  5
1FB
100
AcDbSymbolTableRecord
100
AcDbLayerTableRecord
  2
DEFAULT_2
 70
0
 62
8
  6
HIDDEN
370
-3
390
F
  0
LAYER
  5
1FC
100
AcDbSymbolTableRecord
100
AcDbLayerTableRecord
  2
DEFAULT_3
 70
0
 62
7
  6
PHANTOM
370
-3
390
F
  0
LAYER
  5
1FD
100
AcDbSymbolTableRecord
100
AcDbLayerTableRecord
  2
00_COMPONENTS
 70
0
 62
7
  6
CONTINUOUS
370
-3
390
F
  0
LAYER
  5
1FE
100
AcDbSymbolTableRecord
100
AcDbLayerTableRecord
  2
01_1_DEFAULT_DATUMS
 70
0
 62
7
  6
CONTINUOUS
370
-3
390
F
  0
LAYER
  5
1FF
100
AcDbSymbolTableRecord
100
AcDbLayerTableRecord
  2
01_PLANES
 70
0
 62
7
  6
CONTINUOUS
370
-3
390
F
  0
LAYER
  5
200
100
AcDbSymbolTableRecord
100
AcDbLayerTableRecord
  2
02_COORD_SYS
 70
0
 62
7
  6
CONTINUOUS
370
-3
390
F
  0
LAYER
  5
201
100
AcDbSymbolTableRecord
100
AcDbLayerTableRecord
  2
03_AXES
 70
0
 62
7
  6
CONTINUOUS
370
-3
390
F
  0
LAYER
  5
202
100
AcDbSymbolTableRecord
100
AcDbLayerTableRecord
  2
04_POINTS
 70
0
 62
7
  6
CONTINUOUS
370
-3
390
F
  0
LAYER
  5
203
100
AcDbSymbolTableRecord
100
AcDbLayerTableRecord
  2
05_CURVES
 70
0
 62
7
  6
CONTINUOUS
370
-3
390
F
  0
LAYER
  5
204
100
AcDbSymbolTableRecord
100
AcDbLayerTableRecord
  2
06_SURFS
 70
0
 62
7
  6
CONTINUOUS
370
-3
390
F
  0
LAYER
  5
205
100
AcDbSymbolTableRecord
100
AcDbLayerTableRecord
  2
07_COSMETICS
 70
0
 62
7
  6
CONTINUOUS
370
-3
390
F
  0
LAYER
  5
206
100
AcDbSymbolTableRecord
100
AcDbLayerTableRecord
  2
10_NOTES
 70
0
 62
7
  6
CONTINUOUS
370
-3
390
F
  0
LAYER
  5
207
100
AcDbSymbolTableRecord
100
AcDbLayerTableRecord
  2
11_NOTES_PUB
 70
0
 62
7
  6
CONTINUOUS
370
-3
390
F
  0
LAYER
  5
208
100
AcDbSymbolTableRecord
100
AcDbLayerTableRecord
  2
13_REF_GTOL
 70
0
 62
7
  6
CONTINUOUS
370
-3
390
F
  0
LAYER
  5
209
100
AcDbSymbolTableRecord
100
AcDbLayerTableRecord
  2
16_MISC
 70
0
 62
7
  6
CONTINUOUS
370
-3
390
F
  0
LAYER
  5
20A
100
AcDbSymbolTableRecord
100
AcDbLayerTableRecord
  2
17_NO_PRINT
 70
0
 62
7
  6
CONTINUOUS
370
-3
390
F
  0
LAYER
  5
20B
100
AcDbSymbolTableRecord
100
AcDbLayerTableRecord
  2
18_DATUM_CAMS_JOINTS
 70
0
 62
7
  6
CONTINUOUS
370
-3
390
F
  0
LAYER
  5
20C
100
AcDbSymbolTableRecord
100
AcDbLayerTableRecord
  2
19_DATUM_FUNCTIONAL
 70
0
 62
7
  6
CONTINUOUS
370
-3
390
F
  0
LAYER
  5
20D
100
AcDbSymbolTableRecord
100
AcDbLayerTableRecord
  2
20_DATUM_KINEMATIC_SCHEME
 70
0
 62
7
  6
CONTINUOUS
370
-3
390
F
  0
ENDTAB
  0
TABLE
  2
STYLE
  5
3
100
AcDbSymbolTable
 70
1
  0
STYLE
  5
11
100
AcDbSymbolTableRecord
100
AcDbTextStyleTableRecord
  2
STANDARD
 70
0
 40
0.0
 41
0.8
 50
0.0
 71
0
 42
0.2
  3
txt
  4

  0
STYLE
  5
20E
100
AcDbSymbolTableRecord
100
AcDbTextStyleTableRecord
  2
TEXTSTYLE_1
 70
0
 40
0.0
 41
0.8
 50
0.0
 71
0
 42
0.2
  3
gdt
  4

  0
ENDTAB
  0
TABLE
  2
VIEW
  5
6
100
AcDbSymbolTable
 70
0
  0
ENDTAB
  0
TABLE
  2
UCS
  5
7
100
AcDbSymbolTable
 70
0
  0
ENDTAB
  0
TABLE
  2
APPID
  5
9
100
AcDbSymbolTable
 70
1
  0
APPID
  5
20F
100
AcDbSymbolTableRecord
100
AcDbRegAppTableRecord
  2
ACAD
 70
0
  0
ENDTAB
  0
TABLE
  2
BLOCK_RECORD
  5
1
100
AcDbSymbolTable
 70
0
  0
BLOCK_RECORD
  5
210
100
AcDbSymbolTableRecord
100
AcDbBlockTableRecord
  2
*Model_Space
  0
BLOCK_RECORD
  5
211
100
AcDbSymbolTableRecord
100
AcDbBlockTableRecord
  2
*Paper_Space
  0
BLOCK_RECORD
  5
212
100
AcDbSymbolTableRecord
100
AcDbBlockTableRecord
  2
_FILLED
  0
ENDTAB
  0
TABLE
  2
DIMSTYLE
  5
A
100
AcDbSymbolTable
 70
1
100
AcDbDimStyleTable
 71
0
  0
DIMSTYLE
105
213
100
AcDbSymbolTableRecord
100
AcDbDimStyleTableRecord
  2
STANDARD
 70
0
  3

  4

 40
1.0
 41
6.4890321026
 42
1.0
 43
0.38
 44
1.0
 45
0.0
 46
0.0
 47
0.01
 48
0.01
140
9.0846449437
141
0.09
142
0.0
143
25.4
144
1.0
145
0.0
146
1.0
147
0.625
 71
1
 72
0
 73
0
 74
0
 75
0
 76
0
 77
1
 78
8
 79
2
170
0
171
1
172
0
173
0
174
0
175
0
176
0
177
0
178
0
270
2
179
2
271
2
272
2
273
2
274
2
275
0
280
0
281
0
282
0
283
1
284
8
285
0
286
0
287
3
288
0
340
11
278
46
341
212
342
212
343
212
344
212
  0
ENDTAB
  0
ENDSEC
  0
SECTION
  2
BLOCKS
  0
BLOCK
  5
20
100
AcDbEntity
  8
0
100
AcDbBlockBegin
  2
*Model_Space
 70
0
 10
0.0
 20
0.0
 30
0.0
  3
*Model_Space
  1

  0
ENDBLK
  5
21
100
AcDbEntity
  8
0
100
AcDbBlockEnd
  0
BLOCK
  5
1C
100
AcDbEntity
  8
0
100
AcDbBlockBegin
  2
*Paper_Space
 70
0
 10
0.0
 20
0.0
 30
0.0
  3
*Paper_Space
  1

  0
ENDBLK
  5
1D
100
AcDbEntity
  8
0
100
AcDbBlockEnd
  0
BLOCK
  5
214
100
AcDbEntity
  8
0
100
AcDbBlockBegin
  2
_FILLED
 70
64
 10
0.0
 20
0.0
  3
_FILLED
  1

  0
SOLID
  5
215
100
AcDbEntity
  8
0
  6
BYBLOCK
 62
0
100
AcDbTrace
 10
0.0
 20
0.0
 11
-1.0
 21
0.25
 12
-1.0
 22
-0.25
 13
-1.0
 23
-0.25
  0
ENDBLK
  5
216
100
AcDbEntity
  8
0
  6
BYBLOCK
 62
0
100
AcDbBlockEnd
  0
ENDSEC
  0
SECTION
  2
ENTITIES
  0
LINE
  5
217
100
AcDbEntity
  8
0
100
AcDbLine
 62
7
  6
CONTINUOUS
 10
62.1853321662
 20
381.8395809043
 11
62.1853321662
 21
378.8395809043
  0
LINE
  5
218
100
AcDbEntity
  8
0
100
AcDbLine
 62
7
  6
CONTINUOUS
 10
64.3118112623
 20
381.8395809043
 11
64.3118112623
 21
384.6895809043
  0
LINE
  5
219
100
AcDbEntity
  8
0
100
AcDbLine
 62
7
  6
CONTINUOUS
 10
64.6068043915
 20
384.6895809043
 11
64.6068043915
 21
381.8395809043
  0
LINE
  5
21A
100
AcDbEntity
  8
0
100
AcDbLine
 62
7
  6
CONTINUOUS
 10
64.9088761089
 20
384.6895809043
 11
64.9088761171
 21
381.8395809043
  0
LINE
  5
21B
100
AcDbEntity
  8
0
100
AcDbLine
 62
7
  6
CONTINUOUS
 10
64.9832732782
 20
381.8395809043
 11
64.9832732782
 21
378.8395808698
  0
LINE
  5
21C
100
AcDbEntity
  8
0
100
AcDbLine
 62
7
  6
CONTINUOUS
 10
74.669837228
 20
351.8688948781
 11
74.669837228
 21
352.2647828561
  0
LINE
  5
21D
100
AcDbEntity
  8
0
100
AcDbLine
 62
7
  6
CONTINUOUS
 10
62.3686261797
 20
403.14071129
 11
61.2963153181
 21
395.1645809043
  0
LWPOLYLINE
  5
21E
100
AcDbEntity
  8
0
100
AcDbPolyline
 62
7
  6
CONTINUOUS
 90
6
 70
0
 10
62.7509687449
 20
360.3521859464
 10
63.2670333753
 20
358.4860113057
 10
65.7009663717
 20
354.6532836741
 10
67.4568942234
 20
353.194604018
 10
71.6709413874
 20
351.5047397513
 10
73.5699456504
 20
351.3395809043
  0
LINE
  5
21F
100
AcDbEntity
  8
0
100
AcDbLine
 62
7
  6
CONTINUOUS
 10
78.3085228321
 20
381.8395809043
 11
78.3085228321
 21
384.6895809043
  0
LINE
  5
220
100
AcDbEntity
  8
0
100
AcDbLine
 62
7
  6
CONTINUOUS
 10
79.5985193875
 20
378.8395808353
 11
79.5985193875
 21
381.8395809043
  0
LINE
  5
221
100
AcDbEntity
  8
0
100
AcDbLine
 62
7
  6
CONTINUOUS
 10
80.6033757355
 20
400.2558129903
 11
80.6033757355
 21
409.8564051954
  0
LINE
  5
222
100
AcDbEntity
  8
0
100
AcDbLine
 62
7
  6
CONTINUOUS
 10
80.9235534155
 20
353.8235054825
 11
80.9235534155
 21
363.4241163995
  0
LINE
  5
223
100
AcDbEntity
  8
0
100
AcDbLine
 62
7
  6
CONTINUOUS
 10
92.4116049004
 20
362.8395809043
 11
92.4116049004
 21
355.4659084532
  0
LINE
  5
224
100
AcDbEntity
  8
0
100
AcDbLine
 62
7
  6
CONTINUOUS
 10
100.8116049004
 20
355.4659084532
 11
100.8116049004
 21
362.8395809043
  0
LINE
  5
225
100
AcDbEntity
  8
0
100
AcDbLine
 62
7
  6
CONTINUOUS
 10
76.4282519345
 20
350.8180256057
 11
76.4285413667
 21
350.8178065638
  0
LWPOLYLINE
  5
226
100
AcDbEntity
  8
0
100
AcDbPolyline
 62
7
  6
CONTINUOUS
 90
3
 70
0
 10
63.5848337397
 20
393.1987205756
 10
62.3110988647
 20
394.2887269123
 10
61.5489093502
 20
394.945714082
  0
LINE
  5
227
100
AcDbEntity
  8
0
100
AcDbLine
 62
7
  6
CONTINUOUS
 10
63.5848337397
 20
393.1987205756
 11
61.2959190505
 21
395.1645809043
  0
LINE
  5
228
100
AcDbEntity
  8
0
100
AcDbLine
 62
7
  6
CONTINUOUS
 10
62.3686261797
 20
403.14071129
 11
64.6820950099
 21
401.3417304733
  0
LINE
  5
229
100
AcDbEntity
  8
0
100
AcDbLine
 62
7
  6
CONTINUOUS
 10
73.9434437846
 20
351.6545547334
 11
73.5699606
 21
351.3395809043
  0
LINE
  5
22A
100
AcDbEntity
  8
0
100
AcDbLine
 62
7
  6
CONTINUOUS
 10
62.7507791735
 20
360.3532179585
 11
65.0431385852
 21
362.1550836159
  0
LINE
  5
22B
100
AcDbEntity
  8
0
100
AcDbLine
 62
7
  6
CONTINUOUS
 10
73.2196098297
 20
412.3395809043
 11
75.3382626636
 21
410.5842921744
  0
LINE
  5
22C
100
AcDbEntity
  8
0
100
AcDbLine
 62
7
  6
CONTINUOUS
 10
73.6005739544
 20
351.7678977742
 11
73.6057233373
 21
351.7663729053
  0
LINE
  5
22D
100
AcDbEntity
  8
0
100
AcDbLine
 62
7
  6
CONTINUOUS
 10
79.1828376364
 20
350.1896380759
 11
79.1494824681
 21
350.1972663613
  0
LINE
  5
22E
100
AcDbEntity
  8
0
100
AcDbLine
 62
7
  6
CONTINUOUS
 10
76.4285413667
 20
350.8178065638
 11
79.2905758995
 21
350.0931689521
  0
LINE
  5
22F
100
AcDbEntity
  8
0
100
AcDbLine
 62
7
  6
CONTINUOUS
 10
79.2905758995
 20
350.0931689521
 11
82.8043028564
 21
349.5435771806
  0
LINE
  5
230
100
AcDbEntity
  8
0
100
AcDbLine
 62
7
  6
CONTINUOUS
 10
434.0882881262
 20
375.5895804274
 11
434.4287136175
 21
375.6729143965
  0
LINE
  5
231
100
AcDbEntity
  8
0
100
AcDbLine
 62
7
  6
CONTINUOUS
 10
487.4074369051
 20
374.756247412
 11
487.8329687692
 21
374.8395813811
  0
LINE
  5
232
100
AcDbEntity
  8
0
100
AcDbLine
 62
7
  6
CONTINUOUS
 10
486.6414795496
 20
377.7562478888
 11
486.2159475662
 21
377.6729143965
  0
LINE
  5
233
100
AcDbEntity
  8
0
100
AcDbLine
 62
7
  6
CONTINUOUS
 10
82.8043028564
 20
349.5435771806
 11
86.6408047969
 21
349.3395973107
  0
LWPOLYLINE
  5
234
100
AcDbEntity
  8
0
100
AcDbPolyline
 62
7
  6
CONTINUOUS
 90
3
 70
0
 10
112.17893849
 20
410.2264831765
 10
108.2824149266
 20
412.2512591921
 10
108.1167859277
 20
412.3395807151
  0
LINE
  5
235
100
AcDbEntity
  8
0
100
AcDbLine
 62
7
  6
CONTINUOUS
 10
112.17893849
 20
410.2264831765
 11
108.1166387082
 21
412.3394611111
  0
LINE
  5
236
100
AcDbEntity
  8
0
100
AcDbLine
 62
7
  6
CONTINUOUS
 10
416.0882881262
 20
375.5895804274
 11
416.4287136175
 21
375.6729143965
  0
LINE
  5
237
100
AcDbEntity
  8
0
100
AcDbLine
 62
7
  6
CONTINUOUS
 10
416.0882881262
 20
381.0895809043
 11
416.4287136175
 21
381.1729139197
  0
LINE
  5
238
100
AcDbEntity
  8
0
100
AcDbLine
 62
7
  6
CONTINUOUS
 10
416.0882881262
 20
384.756247412
 11
416.4287136175
 21
384.8395806658
  0
LINE
  5
239
100
AcDbEntity
  8
0
100
AcDbLine
 62
7
  6
CONTINUOUS
 10
293.5689937893
 20
350.1961781147
 11
293.54038896
 21
350.1896383943
  0
LINE
  5
23A
100
AcDbEntity
  8
0
100
AcDbLine
 62
7
  6
CONTINUOUS
 10
487.8329687692
 20
375.256247412
 11
487.3223305322
 21
375.1729143966
  0
LINE
  5
23B
100
AcDbEntity
  8
0
100
AcDbLine
 62
7
  6
CONTINUOUS
 10
486.2159475662
 20
377.2562478888
 11
486.7265859224
 21
377.3395809043
  0
LINE
  5
23C
100
AcDbEntity
  8
0
100
AcDbLine
 62
7
  6
CONTINUOUS
 10
493.5373115542
 20
371.3332157133
 11
480.5116049004
 21
370.0072455749
  0
LINE
  5
23D
100
AcDbEntity
  8
0
100
AcDbLine
 62
7
  6
CONTINUOUS
 10
475.5373115542
 20
369.500880384
 11
462.5116049004
 21
368.1749102456
  0
LINE
  5
23E
100
AcDbEntity
  8
0
100
AcDbLine
 62
7
  6
CONTINUOUS
 10
457.5373115542
 20
367.6685450547
 11
444.5116049004
 21
366.3425749162
  0
LINE
  5
23F
100
AcDbEntity
  8
0
100
AcDbLine
 62
7
  6
CONTINUOUS
 10
439.5373115542
 20
365.8362097253
 11
426.5116049004
 21
364.5102395869
  0
LINE
  5
240
100
AcDbEntity
  8
0
100
AcDbLine
 62
7
  6
CONTINUOUS
 10
421.5373115542
 20
364.003874396
 11
415.3801523416
 21
363.3770977097
  0
LINE
  5
241
100
AcDbEntity
  8
0
100
AcDbLine
 62
7
  6
CONTINUOUS
 10
299.1532641505
 20
351.3395809043
 11
300.0224248224
 21
351.4151729283
  0
LINE
  5
242
100
AcDbEntity
  8
0
100
AcDbLine
 62
7
  6
CONTINUOUS
 10
414.641291797
 20
363.3294353398
 11
415.3801523416
 21
363.3770977097
  0
LINE
  5
243
100
AcDbEntity
  8
0
100
AcDbLine
 62
7
  6
CONTINUOUS
 10
300.0116049004
 20
349.8395809043
 11
304.0116049004
 21
349.8395809043
  0
LINE
  5
244
100
AcDbEntity
  8
0
100
AcDbLine
 62
7
  6
CONTINUOUS
 10
293.5071456749
 20
350.3395809043
 11
79.2165019435
 21
350.3395809043
  0
LINE
  5
245
100
AcDbEntity
  8
0
100
AcDbLine
 62
7
  6
CONTINUOUS
 10
299.1532641505
 20
351.3395809043
 11
297.9035829162
 21
351.3395809043
  0
LINE
  5
246
100
AcDbEntity
  8
0
100
AcDbLine
 62
7
  6
CONTINUOUS
 10
74.8196858131
 20
351.3395809043
 11
73.5699456504
 21
351.3395809043
  0
LINE
  5
247
100
AcDbEntity
  8
0
100
AcDbLine
 62
7
  6
CONTINUOUS
 10
304.0116049004
 20
351.5395809043
 11
300.0116049004
 21
351.5395809043
  0
LINE
  5
248
100
AcDbEntity
  8
0
100
AcDbLine
 62
7
  6
CONTINUOUS
 10
74.6698370994
 20
351.8688992207
 11
298.0533727023
 21
351.8688992204
  0
LINE
  5
249
100
AcDbEntity
  8
0
100
AcDbLine
 62
7
  6
CONTINUOUS
 10
298.0533732188
 20
352.2647828561
 11
74.669837228
 21
352.2647828561
  0
LINE
  5
24A
100
AcDbEntity
  8
0
100
AcDbLine
 62
7
  6
CONTINUOUS
 10
291.7996463235
 20
353.8235053053
 11
80.923563537
 21
353.8235053054
  0
LINE
  5
24B
100
AcDbEntity
  8
0
100
AcDbLine
 62
7
  6
CONTINUOUS
 10
286.0539288342
 20
349.3395809043
 11
86.6408074524
 21
349.3395927663
  0
LINE
  5
24C
100
AcDbEntity
  8
0
100
AcDbLine
 62
7
  6
CONTINUOUS
 10
414.7265859224
 20
374.9229143966
 11
414.1308411934
 21
374.8395804274
  0
LINE
  5
24D
100
AcDbEntity
  8
0
100
AcDbLine
 62
7
  6
CONTINUOUS
 10
414.641291797
 20
363.3294353398
 11
342.0116049005
 21
361.3395809043
  0
LINE
  5
24E
100
AcDbEntity
  8
0
100
AcDbLine
 62
7
  6
CONTINUOUS
 10
332.0639621197
 20
358.8990568806
 11
309.4612963833
 21
358.5045258827
  0
LINE
  5
24F
100
AcDbEntity
  8
0
100
AcDbLine
 62
7
  6
CONTINUOUS
 10
342.0116049004
 20
361.3395809043
 11
334.9383255697
 21
361.3395809043
  0
LINE
  5
250
100
AcDbEntity
  8
0
100
AcDbLine
 62
7
  6
CONTINUOUS
 10
92.4116049004
 20
362.8395809043
 11
100.8116049004
 21
362.8395809043
  0
LINE
  5
251
100
AcDbEntity
  8
0
100
AcDbLine
 62
7
  6
CONTINUOUS
 10
272.4116049004
 20
362.8395809043
 11
280.8116049004
 21
362.8395809043
  0
LINE
  5
252
100
AcDbEntity
  8
0
100
AcDbLine
 62
7
  6
CONTINUOUS
 10
291.7996562887
 20
363.4241163995
 11
80.9235534155
 21
363.4241163995
  0
LINE
  5
253
100
AcDbEntity
  8
0
100
AcDbLine
 62
7
  6
CONTINUOUS
 10
272.4116049004
 20
362.8395809043
 11
272.4116049004
 21
355.4659084532
  0
LINE
  5
254
100
AcDbEntity
  8
0
100
AcDbLine
 62
7
  6
CONTINUOUS
 10
280.8116049004
 20
355.4659084532
 11
280.8116049004
 21
362.8395809043
  0
LINE
  5
255
100
AcDbEntity
  8
0
100
AcDbLine
 62
7
  6
CONTINUOUS
 10
297.3849553308
 20
410.584275725
 11
299.5036018061
 21
412.3395809043
  0
LINE
  5
256
100
AcDbEntity
  8
0
100
AcDbLine
 62
7
  6
CONTINUOUS
 10
300.0116049004
 20
370.8395809043
 11
332.0639621197
 21
371.3991453567
  0
LINE
  5
257
100
AcDbEntity
  8
0
100
AcDbLine
 62
7
  6
CONTINUOUS
 10
414.5563731767
 20
371.9229143966
 11
414.1308411934
 21
371.9229143966
  0
LINE
  5
258
100
AcDbEntity
  8
0
100
AcDbLine
 62
7
  6
CONTINUOUS
 10
414.4712666847
 20
372.3395804274
 11
414.2159475662
 21
372.3395804274
  0
LINE
  5
259
100
AcDbEntity
  8
0
100
AcDbLine
 62
7
  6
CONTINUOUS
 10
453.0244582273
 20
373.9229143966
 11
452.5989263632
 21
373.9229143966
  0
LINE
  5
25A
100
AcDbEntity
  8
0
100
AcDbLine
 62
7
  6
CONTINUOUS
 10
431.0244582273
 20
373.9229143966
 11
435.0244582273
 21
373.9229143966
  0
LINE
  5
25B
100
AcDbEntity
  8
0
100
AcDbLine
 62
7
  6
CONTINUOUS
 10
434.3436072447
 20
374.4229143966
 11
431.0244582273
 21
374.4229143966
  0
LINE
  5
25C
100
AcDbEntity
  8
0
100
AcDbLine
 62
7
  6
CONTINUOUS
 10
414.4712666847
 20
374.4229143966
 11
414.2159475662
 21
374.4229143966
  0
LINE
  5
25D
100
AcDbEntity
  8
0
100
AcDbLine
 62
7
  6
CONTINUOUS
 10
415.1521177866
 20
374.506247412
 11
415.3223305322
 21
374.506247412
  0
LINE
  5
25E
100
AcDbEntity
  8
0
100
AcDbLine
 62
7
  6
CONTINUOUS
 10
468.7265859224
 20
374.756247412
 11
468.2159475662
 21
374.756247412
  0
LINE
  5
25F
100
AcDbEntity
  8
0
100
AcDbLine
 62
7
  6
CONTINUOUS
 10
486.6414795496
 20
374.756247412
 11
487.4074369051
 21
374.756247412
  0
LINE
  5
260
100
AcDbEntity
  8
0
100
AcDbLine
 62
7
  6
CONTINUOUS
 10
415.3223305322
 20
374.9229143966
 11
414.7265859224
 21
374.9229143966
  0
LINE
  5
261
100
AcDbEntity
  8
0
100
AcDbLine
 62
7
  6
CONTINUOUS
 10
433.7478623964
 20
374.9229143966
 11
434.4287136175
 21
374.9229143966
  0
LINE
  5
262
100
AcDbEntity
  8
0
100
AcDbLine
 62
7
  6
CONTINUOUS
 10
486.7265859224
 20
375.1729143966
 11
487.3223305322
 21
375.1729143966
  0
LINE
  5
263
100
AcDbEntity
  8
0
100
AcDbLine
 62
7
  6
CONTINUOUS
 10
434.0882881262
 20
375.5895804274
 11
433.9180751421
 21
375.5895804274
  0
LINE
  5
264
100
AcDbEntity
  8
0
100
AcDbLine
 62
7
  6
CONTINUOUS
 10
431.4499901511
 20
375.5895804274
 11
431.0244582273
 21
375.5895804274
  0
LINE
  5
265
100
AcDbEntity
  8
0
100
AcDbLine
 62
7
  6
CONTINUOUS
 10
416.0882881262
 20
375.5895804274
 11
415.9180751421
 21
375.5895804274
  0
LINE
  5
266
100
AcDbEntity
  8
0
100
AcDbLine
 62
7
  6
CONTINUOUS
 10
413.4499901511
 20
375.5895804274
 11
413.0244582273
 21
375.5895804274
  0
LINE
  5
267
100
AcDbEntity
  8
0
100
AcDbLine
 62
7
  6
CONTINUOUS
 10
467.0244582273
 20
375.5895813811
 11
468.2159475662
 21
375.5895813811
  0
LINE
  5
268
100
AcDbEntity
  8
0
100
AcDbLine
 62
7
  6
CONTINUOUS
 10
468.7265859224
 20
375.5895813811
 11
471.0244582273
 21
375.5895813811
  0
LINE
  5
269
100
AcDbEntity
  8
0
100
AcDbLine
 62
7
  6
CONTINUOUS
 10
434.0882881262
 20
376.0895804274
 11
433.9180751421
 21
376.0895804274
  0
LINE
  5
26A
100
AcDbEntity
  8
0
100
AcDbLine
 62
7
  6
CONTINUOUS
 10
416.0882881262
 20
376.0895804274
 11
415.9180751421
 21
376.0895804274
  0
LINE
  5
26B
100
AcDbEntity
  8
0
100
AcDbLine
 62
7
  6
CONTINUOUS
 10
470.3436072447
 20
376.0895813811
 11
468.7265859224
 21
376.0895813811
  0
LINE
  5
26C
100
AcDbEntity
  8
0
100
AcDbLine
 62
7
  6
CONTINUOUS
 10
467.0244582273
 20
376.0895813811
 11
468.2159475662
 21
376.0895813811
  0
LINE
  5
26D
100
AcDbEntity
  8
0
100
AcDbLine
 62
7
  6
CONTINUOUS
 10
452.5989263632
 20
376.9229143966
 11
453.0244582273
 21
376.9229143966
  0
LINE
  5
26E
100
AcDbEntity
  8
0
100
AcDbLine
 62
7
  6
CONTINUOUS
 10
487.3223305322
 20
377.3395809043
 11
486.7265859224
 21
377.3395809043
  0
LINE
  5
26F
100
AcDbEntity
  8
0
100
AcDbLine
 62
7
  6
CONTINUOUS
 10
449.0244582273
 20
377.5895804274
 11
453.0244582273
 21
377.5895804274
  0
LINE
  5
270
100
AcDbEntity
  8
0
100
AcDbLine
 62
7
  6
CONTINUOUS
 10
486.6414795496
 20
377.7562478888
 11
487.4074369051
 21
377.7562478888
  0
LINE
  5
271
100
AcDbEntity
  8
0
100
AcDbLine
 62
7
  6
CONTINUOUS
 10
452.3436072447
 20
378.0895809043
 11
449.0244582273
 21
378.0895809043
  0
LINE
  5
272
100
AcDbEntity
  8
0
100
AcDbLine
 62
7
  6
CONTINUOUS
 10
468.2159475662
 20
378.0895809043
 11
468.7265859224
 21
378.0895809043
  0
LINE
  5
273
100
AcDbEntity
  8
0
100
AcDbLine
 62
7
  6
CONTINUOUS
 10
485.0244582273
 20
378.4229143966
 11
489.0244582273
 21
378.4229143966
  0
LINE
  5
274
100
AcDbEntity
  8
0
100
AcDbLine
 62
7
  6
CONTINUOUS
 10
413.4499901511
 20
378.5895804274
 11
413.0244582273
 21
378.5895804274
  0
LINE
  5
275
100
AcDbEntity
  8
0
100
AcDbLine
 62
7
  6
CONTINUOUS
 10
431.0244582273
 20
378.5895809043
 11
431.4499901511
 21
378.5895809043
  0
LINE
  5
276
100
AcDbEntity
  8
0
100
AcDbLine
 62
7
  6
CONTINUOUS
 10
451.7478623964
 20
378.5895809043
 11
452.4287136175
 21
378.5895809043
  0
LINE
  5
277
100
AcDbEntity
  8
0
100
AcDbLine
 62
7
  6
CONTINUOUS
 10
471.0244582273
 20
378.7562478888
 11
467.0244582273
 21
378.7562478888
  0
LINE
  5
278
100
AcDbEntity
  8
0
100
AcDbLine
 62
7
  6
CONTINUOUS
 10
60.7077943367
 20
378.8395808009
 11
305.1079342788
 21
378.8395808009
  0
LINE
  5
279
100
AcDbEntity
  8
0
100
AcDbLine
 62
7
  6
CONTINUOUS
 10
485.0244582273
 20
378.9229143966
 11
488.3436072447
 21
378.9229143966
  0
LINE
  5
27A
100
AcDbEntity
  8
0
100
AcDbLine
 62
7
  6
CONTINUOUS
 10
450.8967986681
 20
379.256247412
 11
450.4712666847
 21
379.256247412
  0
LINE
  5
27B
100
AcDbEntity
  8
0
100
AcDbLine
 62
7
  6
CONTINUOUS
 10
432.8967986681
 20
379.256247412
 11
432.4712666847
 21
379.256247412
  0
LINE
  5
27C
100
AcDbEntity
  8
0
100
AcDbLine
 62
7
  6
CONTINUOUS
 10
414.8967986681
 20
379.256247412
 11
414.4712666847
 21
379.256247412
  0
LINE
  5
27D
100
AcDbEntity
  8
0
100
AcDbLine
 62
7
  6
CONTINUOUS
 10
467.0244582273
 20
379.2562478888
 11
470.3436072447
 21
379.2562478888
  0
LINE
  5
27E
100
AcDbEntity
  8
0
100
AcDbLine
 62
7
  6
CONTINUOUS
 10
487.7478623964
 20
379.4229143966
 11
488.4287136175
 21
379.4229143966
  0
LINE
  5
27F
100
AcDbEntity
  8
0
100
AcDbLine
 62
7
  6
CONTINUOUS
 10
469.7478623964
 20
379.7562478888
 11
470.4287136175
 21
379.7562478888
  0
LINE
  5
280
100
AcDbEntity
  8
0
100
AcDbLine
 62
7
  6
CONTINUOUS
 10
486.8967986681
 20
380.0895809043
 11
486.4712666847
 21
380.0895809043
  0
LINE
  5
281
100
AcDbEntity
  8
0
100
AcDbLine
 62
7
  6
CONTINUOUS
 10
414.4712666847
 20
380.4229139197
 11
414.8967986681
 21
380.4229139197
  0
LINE
  5
282
100
AcDbEntity
  8
0
100
AcDbLine
 62
7
  6
CONTINUOUS
 10
432.4712666847
 20
380.4229139197
 11
432.8967986681
 21
380.4229139197
  0
LINE
  5
283
100
AcDbEntity
  8
0
100
AcDbLine
 62
7
  6
CONTINUOUS
 10
450.4712666847
 20
380.4229139197
 11
450.8967986681
 21
380.4229139197
  0
LINE
  5
284
100
AcDbEntity
  8
0
100
AcDbLine
 62
7
  6
CONTINUOUS
 10
468.8967986681
 20
380.4229143966
 11
468.4712666847
 21
380.4229143966
  0
LINE
  5
285
100
AcDbEntity
  8
0
100
AcDbLine
 62
7
  6
CONTINUOUS
 10
413.0244582273
 20
381.0895809043
 11
413.4499901511
 21
381.0895809043
  0
LINE
  5
286
100
AcDbEntity
  8
0
100
AcDbLine
 62
7
  6
CONTINUOUS
 10
415.9180751421
 20
381.0895809043
 11
416.0882881262
 21
381.0895809043
  0
LINE
  5
287
100
AcDbEntity
  8
0
100
AcDbLine
 62
7
  6
CONTINUOUS
 10
432.0457348205
 20
381.0895809043
 11
432.301053939
 21
381.0895809043
  0
LINE
  5
288
100
AcDbEntity
  8
0
100
AcDbLine
 62
7
  6
CONTINUOUS
 10
450.1308411934
 20
381.0895809043
 11
450.4712666847
 21
381.0895809043
  0
LINE
  5
289
100
AcDbEntity
  8
0
100
AcDbLine
 62
7
  6
CONTINUOUS
 10
433.7478623964
 20
381.1729139197
 11
434.0031815149
 21
381.1729139197
  0
LINE
  5
28A
100
AcDbEntity
  8
0
100
AcDbLine
 62
7
  6
CONTINUOUS
 10
453.0244582273
 20
381.256247412
 11
452.5989263632
 21
381.256247412
  0
LINE
  5
28B
100
AcDbEntity
  8
0
100
AcDbLine
 62
7
  6
CONTINUOUS
 10
486.4712666847
 20
381.2562476504
 11
486.8967986681
 21
381.2562476504
  0
LINE
  5
28C
100
AcDbEntity
  8
0
100
AcDbLine
 62
7
  6
CONTINUOUS
 10
432.0457348205
 20
381.506247412
 11
432.301053939
 21
381.506247412
  0
LINE
  5
28D
100
AcDbEntity
  8
0
100
AcDbLine
 62
7
  6
CONTINUOUS
 10
450.2159475662
 20
381.506247412
 11
450.3861603119
 21
381.506247412
  0
LINE
  5
28E
100
AcDbEntity
  8
0
100
AcDbLine
 62
7
  6
CONTINUOUS
 10
415.9180751421
 20
381.5895809043
 11
416.0882881262
 21
381.5895809043
  0
LINE
  5
28F
100
AcDbEntity
  8
0
100
AcDbLine
 62
7
  6
CONTINUOUS
 10
433.8329687692
 20
381.5895809043
 11
434.0031815149
 21
381.5895809043
  0
LINE
  5
290
100
AcDbEntity
  8
0
100
AcDbLine
 62
7
  6
CONTINUOUS
 10
468.4712666847
 20
381.5895811427
 11
468.8967986681
 21
381.5895811427
  0
LINE
  5
291
100
AcDbEntity
  8
0
100
AcDbLine
 62
7
  6
CONTINUOUS
 10
62.1853462022
 20
381.8395809043
 11
303.9051911823
 21
381.8395809043
  0
LINE
  5
292
100
AcDbEntity
  8
0
100
AcDbLine
 62
7
  6
CONTINUOUS
 10
486.0457348205
 20
381.9229143966
 11
486.301053939
 21
381.9229143966
  0
LINE
  5
293
100
AcDbEntity
  8
0
100
AcDbLine
 62
7
  6
CONTINUOUS
 10
487.7478623964
 20
382.0062476504
 11
488.0031815149
 21
382.0062476504
  0
LINE
  5
294
100
AcDbEntity
  8
0
100
AcDbLine
 62
7
  6
CONTINUOUS
 10
467.0244582273
 20
382.2562476504
 11
471.0244582273
 21
382.2562476504
  0
LINE
  5
295
100
AcDbEntity
  8
0
100
AcDbLine
 62
7
  6
CONTINUOUS
 10
486.0457348205
 20
382.3395811427
 11
486.301053939
 21
382.3395811427
  0
LINE
  5
296
100
AcDbEntity
  8
0
100
AcDbLine
 62
7
  6
CONTINUOUS
 10
487.8329687692
 20
382.4229143966
 11
488.0031815149
 21
382.4229143966
  0
LINE
  5
297
100
AcDbEntity
  8
0
100
AcDbLine
 62
7
  6
CONTINUOUS
 10
470.3436072447
 20
382.7562476504
 11
467.0244582273
 21
382.7562476504
  0
LINE
  5
298
100
AcDbEntity
  8
0
100
AcDbLine
 62
7
  6
CONTINUOUS
 10
469.7478623964
 20
383.2562477696
 11
470.4287136175
 21
383.2562477696
  0
LINE
  5
299
100
AcDbEntity
  8
0
100
AcDbLine
 62
7
  6
CONTINUOUS
 10
433.8329687692
 20
383.5895806659
 11
434.0031815149
 21
383.5895806659
  0
LINE
  5
29A
100
AcDbEntity
  8
0
100
AcDbLine
 62
7
  6
CONTINUOUS
 10
432.0457348205
 20
383.6729141581
 11
432.301053939
 21
383.6729141581
  0
LINE
  5
29B
100
AcDbEntity
  8
0
100
AcDbLine
 62
7
  6
CONTINUOUS
 10
451.2372241594
 20
383.6729141581
 11
452.5989263632
 21
383.6729141581
  0
LINE
  5
29C
100
AcDbEntity
  8
0
100
AcDbLine
 62
7
  6
CONTINUOUS
 10
467.0244582273
 20
383.9229143966
 11
471.0244582273
 21
383.9229143966
  0
LINE
  5
29D
100
AcDbEntity
  8
0
100
AcDbLine
 62
7
  6
CONTINUOUS
 10
433.7478623964
 20
384.006247412
 11
434.0031815149
 21
384.006247412
  0
LINE
  5
29E
100
AcDbEntity
  8
0
100
AcDbLine
 62
7
  6
CONTINUOUS
 10
413.0244582273
 20
384.0895806659
 11
413.4499901511
 21
384.0895806659
  0
LINE
  5
29F
100
AcDbEntity
  8
0
100
AcDbLine
 62
7
  6
CONTINUOUS
 10
453.0244582273
 20
384.0895807851
 11
450.8116922952
 21
384.0895807851
  0
LINE
  5
2A0
100
AcDbEntity
  8
0
100
AcDbLine
 62
7
  6
CONTINUOUS
 10
432.0457348205
 20
384.0895807851
 11
432.301053939
 21
384.0895807851
  0
LINE
  5
2A1
100
AcDbEntity
  8
0
100
AcDbLine
 62
7
  6
CONTINUOUS
 10
470.3436072447
 20
384.4229143966
 11
467.0244582273
 21
384.4229143966
  0
LINE
  5
2A2
100
AcDbEntity
  8
0
100
AcDbLine
 62
7
  6
CONTINUOUS
 10
487.8329687692
 20
384.4229143966
 11
488.0031815149
 21
384.4229143966
  0
LINE
  5
2A3
100
AcDbEntity
  8
0
100
AcDbLine
 62
7
  6
CONTINUOUS
 10
486.0457348205
 20
384.5062477398
 11
486.301053939
 21
384.5062477398
  0
LINE
  5
2A4
100
AcDbEntity
  8
0
100
AcDbLine
 62
7
  6
CONTINUOUS
 10
306.7466032935
 20
384.6895809043
 11
63.1093019866
 21
384.6895809043
  0
LINE
  5
2A5
100
AcDbEntity
  8
0
100
AcDbLine
 62
7
  6
CONTINUOUS
 10
413.0244582273
 20
384.756247412
 11
413.4499901511
 21
384.756247412
  0
LINE
  5
2A6
100
AcDbEntity
  8
0
100
AcDbLine
 62
7
  6
CONTINUOUS
 10
415.9180751421
 20
384.756247412
 11
416.0882881262
 21
384.756247412
  0
LINE
  5
2A7
100
AcDbEntity
  8
0
100
AcDbLine
 62
7
  6
CONTINUOUS
 10
431.0244582273
 20
384.756247412
 11
435.0244582273
 21
384.756247412
  0
LINE
  5
2A8
100
AcDbEntity
  8
0
100
AcDbLine
 62
7
  6
CONTINUOUS
 10
449.0244582273
 20
384.756247412
 11
453.0244582273
 21
384.756247412
  0
LINE
  5
2A9
100
AcDbEntity
  8
0
100
AcDbLine
 62
7
  6
CONTINUOUS
 10
487.7478623964
 20
384.8395810607
 11
488.0031815149
 21
384.8395810607
  0
LINE
  5
2AA
100
AcDbEntity
  8
0
100
AcDbLine
 62
7
  6
CONTINUOUS
 10
469.7478623964
 20
384.9229143966
 11
470.4287136175
 21
384.9229143966
  0
LINE
  5
2AB
100
AcDbEntity
  8
0
100
AcDbLine
 62
7
  6
CONTINUOUS
 10
486.0457348205
 20
384.9229143966
 11
486.301053939
 21
384.9229143966
  0
LINE
  5
2AC
100
AcDbEntity
  8
0
100
AcDbLine
 62
7
  6
CONTINUOUS
 10
307.6800515934
 20
362.1551379348
 11
309.9722407183
 21
360.3521851644
  0
LINE
  5
2AD
100
AcDbEntity
  8
0
100
AcDbLine
 62
7
  6
CONTINUOUS
 10
299.1529334745
 20
351.3407065744
 11
298.777313431
 21
351.6566224732
  0
LINE
  5
2AE
100
AcDbEntity
  8
0
100
AcDbLine
 62
7
  6
CONTINUOUS
 10
291.7996562887
 20
363.4241163995
 11
291.7996562887
 21
353.8235054825
  0
LINE
  5
2AF
100
AcDbEntity
  8
0
100
AcDbLine
 62
7
  6
CONTINUOUS
 10
292.1198438817
 20
409.8564051954
 11
292.1198438817
 21
400.2558129903
  0
LINE
  5
2B0
100
AcDbEntity
  8
0
100
AcDbLine
 62
7
  6
CONTINUOUS
 10
293.1246904126
 20
381.8395809043
 11
293.1246904126
 21
378.8395808353
  0
LINE
  5
2B1
100
AcDbEntity
  8
0
100
AcDbLine
 62
7
  6
CONTINUOUS
 10
294.4146819638
 20
384.6895809043
 11
294.4146819638
 21
381.8395809043
  0
LINE
  5
2B2
100
AcDbEntity
  8
0
100
AcDbLine
 62
7
  6
CONTINUOUS
 10
308.0411115961
 20
401.3417157294
 11
310.3545856233
 21
403.1407111193
  0
LINE
  5
2B3
100
AcDbEntity
  8
0
100
AcDbLine
 62
7
  6
CONTINUOUS
 10
452.3436072447
 20
385.256247412
 11
449.0244582273
 21
385.256247412
  0
LINE
  5
2B4
100
AcDbEntity
  8
0
100
AcDbLine
 62
7
  6
CONTINUOUS
 10
434.3436072447
 20
385.256247412
 11
431.0244582273
 21
385.256247412
  0
LINE
  5
2B5
100
AcDbEntity
  8
0
100
AcDbLine
 62
7
  6
CONTINUOUS
 10
415.9180751421
 20
385.256247412
 11
416.0882881262
 21
385.256247412
  0
LINE
  5
2B6
100
AcDbEntity
  8
0
100
AcDbLine
 62
7
  6
CONTINUOUS
 10
433.7478623964
 20
385.756247412
 11
434.4287136175
 21
385.756247412
  0
LINE
  5
2B7
100
AcDbEntity
  8
0
100
AcDbLine
 62
7
  6
CONTINUOUS
 10
451.7478623964
 20
385.756247412
 11
452.4287136175
 21
385.756247412
  0
LINE
  5
2B8
100
AcDbEntity
  8
0
100
AcDbLine
 62
7
  6
CONTINUOUS
 10
413.0244582273
 20
387.756247412
 11
413.4499901511
 21
387.756247412
  0
LINE
  5
2B9
100
AcDbEntity
  8
0
100
AcDbLine
 62
7
  6
CONTINUOUS
 10
310.4461296913
 20
388.8395809043
 11
309.4485509518
 21
388.8395809043
  0
LINE
  5
2BA
100
AcDbEntity
  8
0
100
AcDbLine
 62
7
  6
CONTINUOUS
 10
335.0116049004
 20
398.1960511532
 11
334.9383255697
 21
398.1960511532
  0
LINE
  5
2BB
100
AcDbEntity
  8
0
100
AcDbLine
 62
7
  6
CONTINUOUS
 10
342.0116049004
 20
398.3395809043
 11
335.0116049004
 21
398.3395809043
  0
LINE
  5
2BC
100
AcDbEntity
  8
0
100
AcDbLine
 62
7
  6
CONTINUOUS
 10
309.140263483
 20
388.680239576
 11
332.0639621197
 21
388.2801049279
  0
LINE
  5
2BD
100
AcDbEntity
  8
0
100
AcDbLine
 62
7
  6
CONTINUOUS
 10
415.9180751421
 20
374.8395804274
 11
415.3223305322
 21
374.9229143966
  0
LINE
  5
2BE
100
AcDbEntity
  8
0
100
AcDbLine
 62
7
  6
CONTINUOUS
 10
415.3223305322
 20
374.506247412
 11
415.8329687692
 21
374.4229143966
  0
LINE
  5
2BF
100
AcDbEntity
  8
0
100
AcDbLine
 62
7
  6
CONTINUOUS
 10
298.0533732188
 20
352.2647828561
 11
298.0533732188
 21
351.8688948781
  0
LINE
  5
2C0
100
AcDbEntity
  8
0
100
AcDbLine
 62
7
  6
CONTINUOUS
 10
300.0116049004
 20
349.8395809043
 11
300.0116049004
 21
351.5395809043
  0
LINE
  5
2C1
100
AcDbEntity
  8
0
100
AcDbLine
 62
7
  6
CONTINUOUS
 10
304.0116049004
 20
351.5395809043
 11
304.0116049004
 21
349.8395809043
  0
LINE
  5
2C2
100
AcDbEntity
  8
0
100
AcDbLine
 62
7
  6
CONTINUOUS
 10
304.0116049004
 20
378.8395808009
 11
304.0116049004
 21
384.6895809043
  0
LINE
  5
2C3
100
AcDbEntity
  8
0
100
AcDbLine
 62
7
  6
CONTINUOUS
 10
304.8228019099
 20
384.4362513411
 11
304.8228019099
 21
384.6895809043
  0
LINE
  5
2C4
100
AcDbEntity
  8
0
100
AcDbLine
 62
7
  6
CONTINUOUS
 10
310.64079248
 20
401.3395809043
 11
310.6369611904
 21
401.0935871461
  0
LINE
  5
2C5
100
AcDbEntity
  8
0
100
AcDbLine
 62
7
  6
CONTINUOUS
 10
80.6033757355
 20
400.2558129903
 11
292.1198438817
 21
400.2558129903
  0
LINE
  5
2C6
100
AcDbEntity
  8
0
100
AcDbLine
 62
7
  6
CONTINUOUS
 10
329.4837319787
 20
402.8395787502
 11
320.5394759643
 21
402.8395787499
  0
LINE
  5
2C7
100
AcDbEntity
  8
0
100
AcDbLine
 62
7
  6
CONTINUOUS
 10
80.6033912131
 20
409.8564051954
 11
292.1198586854
 21
409.8564051954
  0
LINE
  5
2C8
100
AcDbEntity
  8
0
100
AcDbLine
 62
7
  6
CONTINUOUS
 10
254.0442732847
 20
410.2264831765
 11
112.17893849
 21
410.2264831765
  0
LINE
  5
2C9
100
AcDbEntity
  8
0
100
AcDbLine
 62
7
  6
CONTINUOUS
 10
299.5030450971
 20
412.3395809043
 11
258.1115729645
 21
412.3395809043
  0
LINE
  5
2CA
100
AcDbEntity
  8
0
100
AcDbLine
 62
7
  6
CONTINUOUS
 10
108.1126550137
 20
412.3395809043
 11
73.2201666775
 21
412.3395809043
  0
LINE
  5
2CB
100
AcDbEntity
  8
0
100
AcDbLine
 62
7
  6
CONTINUOUS
 10
310.9143386478
 20
401.1492729788
 11
310.6375549731
 21
401.1541042558
  0
LINE
  5
2CC
100
AcDbEntity
  8
0
100
AcDbLine
 62
7
  6
CONTINUOUS
 10
414.6412917969
 20
396.3497264688
 11
342.0116049005
 21
398.3395809043
  0
LINE
  5
2CD
100
AcDbEntity
  8
0
100
AcDbLine
 62
7
  6
CONTINUOUS
 10
414.6412917969
 20
396.3497264687
 11
415.3801523415
 21
396.3020640989
  0
LINE
  5
2CE
100
AcDbEntity
  8
0
100
AcDbLine
 62
7
  6
CONTINUOUS
 10
493.5373115542
 20
388.3459460952
 11
480.5116049004
 21
389.6719162336
  0
LINE
  5
2CF
100
AcDbEntity
  8
0
100
AcDbLine
 62
7
  6
CONTINUOUS
 10
475.5373115542
 20
390.1782814245
 11
462.5116049004
 21
391.504251563
  0
LINE
  5
2D0
100
AcDbEntity
  8
0
100
AcDbLine
 62
7
  6
CONTINUOUS
 10
457.5373115542
 20
392.0106167539
 11
444.5116049004
 21
393.3365868923
  0
LINE
  5
2D1
100
AcDbEntity
  8
0
100
AcDbLine
 62
7
  6
CONTINUOUS
 10
439.5373115542
 20
393.8429520832
 11
426.5116049004
 21
395.1689222216
  0
LINE
  5
2D2
100
AcDbEntity
  8
0
100
AcDbLine
 62
7
  6
CONTINUOUS
 10
421.5373115542
 20
395.6752874126
 11
415.3801523415
 21
396.3020640989
  0
LINE
  5
2D3
100
AcDbEntity
  8
0
100
AcDbLine
 62
7
  6
CONTINUOUS
 10
486.7265859224
 20
375.1729143966
 11
486.2159475662
 21
375.256247412
  0
LINE
  5
2D4
100
AcDbEntity
  8
0
100
AcDbLine
 62
7
  6
CONTINUOUS
 10
487.3223305322
 20
377.3395809043
 11
487.8329687692
 21
377.2562478888
  0
LINE
  5
2D5
100
AcDbEntity
  8
0
100
AcDbLine
 62
7
  6
CONTINUOUS
 10
415.5776496507
 20
375.6729143966
 11
415.9180751421
 21
375.5895804274
  0
LINE
  5
2D6
100
AcDbEntity
  8
0
100
AcDbLine
 62
7
  6
CONTINUOUS
 10
416.4287136175
 20
378.4229143966
 11
416.0882881262
 21
378.506247412
  0
LINE
  5
2D7
100
AcDbEntity
  8
0
100
AcDbLine
 62
7
  6
CONTINUOUS
 10
433.5776496507
 20
375.6729143966
 11
433.9180751421
 21
375.5895804274
  0
LINE
  5
2D8
100
AcDbEntity
  8
0
100
AcDbLine
 62
7
  6
CONTINUOUS
 10
415.5776496507
 20
381.1729139197
 11
415.9180751421
 21
381.0895809043
  0
LINE
  5
2D9
100
AcDbEntity
  8
0
100
AcDbLine
 62
7
  6
CONTINUOUS
 10
315.1116049004
 20
381.8600634547
 11
315.1116049004
 21
377.8190983538
  0
LINE
  5
2DA
100
AcDbEntity
  8
0
100
AcDbLine
 62
7
  6
CONTINUOUS
 10
320.1116049004
 20
377.8646609427
 11
320.1116049004
 21
381.8145008608
  0
LWPOLYLINE
  5
2DB
100
AcDbEntity
  8
0
100
AcDbPolyline
 62
7
  6
CONTINUOUS
 90
5
 70
0
 10
304.0116049004
 20
352.6914557079
 10
305.2663156204
 20
353.1946040467
 10
307.0222434767
 20
354.6532837228
 10
309.4561764609
 20
358.4860114001
 10
309.4612963833
 20
358.5045258827
  0
LWPOLYLINE
  5
2DC
100
AcDbEntity
  8
0
100
AcDbPolyline
 62
7
  6
CONTINUOUS
 90
3
 70
0
 10
298.7659141652
 20
351.6431006962
 10
298.9370596749
 20
351.7043393403
 10
299.0583015656
 20
351.7468505271
  0
LINE
  5
2DD
100
AcDbEntity
  8
0
100
AcDbLine
 62
7
  6
CONTINUOUS
 10
299.0583015656
 20
351.7468505271
 11
299.1125821971
 21
351.7648566094
  0
LINE
  5
2DE
100
AcDbEntity
  8
0
100
AcDbLine
 62
7
  6
CONTINUOUS
 10
299.1125821971
 20
351.7648566094
 11
299.1176155308
 21
351.7664126213
  0
LINE
  5
2DF
100
AcDbEntity
  8
0
100
AcDbLine
 62
7
  6
CONTINUOUS
 10
486.6414795496
 20
374.756247412
 11
486.2159475662
 21
374.8395813811
  0
LINE
  5
2E0
100
AcDbEntity
  8
0
100
AcDbLine
 62
7
  6
CONTINUOUS
 10
487.8329687692
 20
377.6729143966
 11
487.4074369051
 21
377.7562478888
  0
LINE
  5
2E1
100
AcDbEntity
  8
0
100
AcDbLine
 62
7
  6
CONTINUOUS
 10
434.4287136175
 20
378.4229139197
 11
434.0882881262
 21
378.506247412
  0
LINE
  5
2E2
100
AcDbEntity
  8
0
100
AcDbLine
 62
7
  6
CONTINUOUS
 10
416.4287136175
 20
383.9229141581
 11
416.0882881262
 21
384.006247412
  0
LINE
  5
2E3
100
AcDbEntity
  8
0
100
AcDbLine
 62
7
  6
CONTINUOUS
 10
415.5776496507
 20
384.8395806659
 11
415.9180751421
 21
384.756247412
  0
LINE
  5
2E4
100
AcDbEntity
  8
0
100
AcDbLine
 62
7
  6
CONTINUOUS
 10
416.4287136175
 20
387.5895807404
 11
416.0882881262
 21
387.6729140762
  0
LINE
  5
2E5
100
AcDbEntity
  8
0
100
AcDbLine
 62
7
  6
CONTINUOUS
 10
414.2159475662
 20
372.3395804274
 11
413.9606284477
 21
372.4229143966
  0
LINE
  5
2E6
100
AcDbEntity
  8
0
100
AcDbLine
 62
7
  6
CONTINUOUS
 10
414.4712666847
 20
374.4229143966
 11
414.7265859224
 21
374.3395804274
  0
LINE
  5
2E7
100
AcDbEntity
  8
0
100
AcDbLine
 62
7
  6
CONTINUOUS
 10
415.8329687692
 20
374.4229143966
 11
416.0882881262
 21
374.3395804274
  0
LINE
  5
2E8
100
AcDbEntity
  8
0
100
AcDbLine
 62
7
  6
CONTINUOUS
 10
414.1308411934
 20
371.9229143965
 11
413.7053092696
 21
372.0895804274
  0
LINE
  5
2E9
100
AcDbEntity
  8
0
100
AcDbLine
 62
7
  6
CONTINUOUS
 10
416.3436072447
 20
374.6729143966
 11
415.9180751421
 21
374.8395804274
  0
LWPOLYLINE
  5
2EA
100
AcDbEntity
  8
0
100
AcDbPolyline
 62
7
  6
CONTINUOUS
 90
6
 70
0
 10
310.3543546043
 20
403.1421019086
 10
309.8707503455
 20
405.015269664
 10
307.4676999597
 20
408.9266931921
 10
305.7089224039
 20
410.4218210899
 10
301.4616452626
 20
412.1638076811
 10
299.5030450971
 20
412.3395809008
  0
LINE
  5
2EB
100
AcDbEntity
  8
0
100
AcDbLine
 62
7
  6
CONTINUOUS
 10
310.3545856233
 20
403.1407111194
 11
310.6407854537
 21
401.3395809043
  0
LINE
  5
2EC
100
AcDbEntity
  8
0
100
AcDbLine
 62
7
  6
CONTINUOUS
 10
327.0639621197
 20
388.3673802525
 11
327.0639621197
 21
371.311781556
  0
LINE
  5
2ED
100
AcDbEntity
  8
0
100
AcDbLine
 62
7
  6
CONTINUOUS
 10
330.0116049004
 20
385.3678371671
 11
330.0116049004
 21
374.3113246415
  0
LINE
  5
2EE
100
AcDbEntity
  8
0
100
AcDbLine
 62
7
  6
CONTINUOUS
 10
332.0639626311
 20
382.658574597
 11
332.0639621197
 21
400.5640964929
  0
LINE
  5
2EF
100
AcDbEntity
  8
0
100
AcDbLine
 62
7
  6
CONTINUOUS
 10
332.0639621197
 20
358.8990568806
 11
332.0639661383
 21
377.0205872186
  0
LINE
  5
2F0
100
AcDbEntity
  8
0
100
AcDbLine
 62
7
  6
CONTINUOUS
 10
334.9383255697
 20
361.2395809043
 11
334.9383255697
 21
398.1960511532
  0
LINE
  5
2F1
100
AcDbEntity
  8
0
100
AcDbLine
 62
7
  6
CONTINUOUS
 10
335.0116049004
 20
406.8395809043
 11
335.0116049004
 21
398.1960511532
  0
LINE
  5
2F2
100
AcDbEntity
  8
0
100
AcDbLine
 62
7
  6
CONTINUOUS
 10
431.6202028968
 20
383.9229140389
 11
432.0457348205
 21
384.0895807851
  0
LINE
  5
2F3
100
AcDbEntity
  8
0
100
AcDbLine
 62
7
  6
CONTINUOUS
 10
414.1308411934
 20
374.8395804274
 11
413.7053092696
 21
374.6729143965
  0
LINE
  5
2F4
100
AcDbEntity
  8
0
100
AcDbLine
 62
7
  6
CONTINUOUS
 10
432.301053939
 20
381.0895809043
 11
432.7265859224
 21
381.256247412
  0
LINE
  5
2F5
100
AcDbEntity
  8
0
100
AcDbLine
 62
7
  6
CONTINUOUS
 10
434.0031815149
 20
381.1729139197
 11
434.4287136175
 21
381.3395809043
  0
LINE
  5
2F6
100
AcDbEntity
  8
0
100
AcDbLine
 62
7
  6
CONTINUOUS
 10
414.5563731767
 20
371.9229143966
 11
414.9819050409
 21
372.0895804274
  0
LINE
  5
2F7
100
AcDbEntity
  8
0
100
AcDbLine
 62
7
  6
CONTINUOUS
 10
413.9606284477
 20
374.3395804274
 11
414.2159475662
 21
374.4229143966
  0
LINE
  5
2F8
100
AcDbEntity
  8
0
100
AcDbLine
 62
7
  6
CONTINUOUS
 10
414.7265859224
 20
372.4229143966
 11
414.4712666847
 21
372.3395804274
  0
LINE
  5
2F9
100
AcDbEntity
  8
0
100
AcDbLine
 62
7
  6
CONTINUOUS
 10
416.0882881262
 20
372.0895804274
 11
416.3436072447
 21
372.1729143966
  0
LINE
  5
2FA
100
AcDbEntity
  8
0
100
AcDbLine
 62
7
  6
CONTINUOUS
 10
450.6414795496
 20
381.5895809043
 11
450.3861603119
 21
381.506247412
  0
LWPOLYLINE
  5
2FB
100
AcDbEntity
  8
0
100
AcDbPolyline
 62
7
  6
CONTINUOUS
 90
6
 70
0
 10
73.2201666775
 20
412.339580901
 10
71.2615664214
 20
412.163807665
 10
67.0142893669
 20
410.4218210876
 10
65.2555118419
 20
408.9266932207
 10
62.8524614714
 20
405.0152697837
 10
62.3688571703
 20
403.1421019089
  0
LINE
  5
2FC
100
AcDbEntity
  8
0
100
AcDbLine
 62
7
  6
CONTINUOUS
 10
450.2159475662
 20
381.506247412
 11
449.9606284477
 21
381.5895809043
  0
LINE
  5
2FD
100
AcDbEntity
  8
0
100
AcDbLine
 62
7
  6
CONTINUOUS
 10
486.2159475662
 20
374.8395813811
 11
485.9606284477
 21
374.9229143966
  0
LINE
  5
2FE
100
AcDbEntity
  8
0
100
AcDbLine
 62
7
  6
CONTINUOUS
 10
488.0882881262
 20
377.5895809043
 11
487.8329687692
 21
377.6729143966
  0
LINE
  5
2FF
100
AcDbEntity
  8
0
100
AcDbLine
 62
7
  6
CONTINUOUS
 10
431.6202028968
 20
381.256247412
 11
432.0457348205
 21
381.0895809043
  0
LINE
  5
300
100
AcDbEntity
  8
0
100
AcDbLine
 62
7
  6
CONTINUOUS
 10
432.7265859224
 20
383.9229140389
 11
432.301053939
 21
384.0895807851
  0
LINE
  5
301
100
AcDbEntity
  8
0
100
AcDbLine
 62
7
  6
CONTINUOUS
 10
434.4287136175
 20
383.8395807851
 11
434.0031815149
 21
384.006247412
  0
LINE
  5
302
100
AcDbEntity
  8
0
100
AcDbLine
 62
7
  6
CONTINUOUS
 10
449.7053092696
 20
381.256247412
 11
450.1308411934
 21
381.0895809043
  0
LINE
  5
303
100
AcDbEntity
  8
0
100
AcDbLine
 62
7
  6
CONTINUOUS
 10
415.9180751421
 20
376.0895804274
 11
415.5776496507
 21
376.256247412
  0
LINE
  5
304
100
AcDbEntity
  8
0
100
AcDbLine
 62
7
  6
CONTINUOUS
 10
415.9180751421
 20
381.5895809043
 11
415.5776496507
 21
381.756247412
  0
LINE
  5
305
100
AcDbEntity
  8
0
100
AcDbLine
 62
7
  6
CONTINUOUS
 10
342.0116049004
 20
398.3395809043
 11
342.0116049004
 21
361.3395809043
  0
LINE
  5
306
100
AcDbEntity
  8
0
100
AcDbLine
 62
7
  6
CONTINUOUS
 10
416.0882881262
 20
385.256247412
 11
416.3436072447
 21
385.4229141581
  0
LINE
  5
307
100
AcDbEntity
  8
0
100
AcDbLine
 62
7
  6
CONTINUOUS
 10
433.4074369051
 20
383.8395807851
 11
433.7478623964
 21
384.006247412
  0
LINE
  5
308
100
AcDbEntity
  8
0
100
AcDbLine
 62
7
  6
CONTINUOUS
 10
449.7053092696
 20
383.9229140389
 11
450.0457348205
 21
384.0895807851
  0
LINE
  5
309
100
AcDbEntity
  8
0
100
AcDbLine
 62
7
  6
CONTINUOUS
 10
449.7053092696
 20
383.4229141581
 11
450.0457348205
 21
383.5895806658
  0
LINE
  5
30A
100
AcDbEntity
  8
0
100
AcDbLine
 62
7
  6
CONTINUOUS
 10
450.4712666847
 20
381.0895809043
 11
450.8967986681
 21
381.256247412
  0
LINE
  5
30B
100
AcDbEntity
  8
0
100
AcDbLine
 62
7
  6
CONTINUOUS
 10
485.6202028968
 20
384.7562477249
 11
486.0457348205
 21
384.9229143966
  0
LINE
  5
30C
100
AcDbEntity
  8
0
100
AcDbLine
 62
7
  6
CONTINUOUS
 10
486.2159475662
 20
377.6729143966
 11
485.9606284477
 21
377.5895809043
  0
LINE
  5
30D
100
AcDbEntity
  8
0
100
AcDbLine
 62
7
  6
CONTINUOUS
 10
487.8329687692
 20
374.8395813811
 11
488.0882881262
 21
374.9229143966
  0
LINE
  5
30E
100
AcDbEntity
  8
0
100
AcDbLine
 62
7
  6
CONTINUOUS
 10
485.6202028968
 20
382.0895811427
 11
486.0457348205
 21
381.9229143966
  0
LINE
  5
30F
100
AcDbEntity
  8
0
100
AcDbLine
 62
7
  6
CONTINUOUS
 10
452.5989263632
 20
373.9229143965
 11
449.0244582273
 21
375.5895804274
  0
LINE
  5
310
100
AcDbEntity
  8
0
100
AcDbLine
 62
7
  6
CONTINUOUS
 10
452.5989263632
 20
374.4229143966
 11
449.0244582273
 21
376.0895804275
  0
LINE
  5
311
100
AcDbEntity
  8
0
100
AcDbLine
 62
7
  6
CONTINUOUS
 10
433.9180751421
 20
376.0895804274
 11
433.5776496507
 21
376.256247412
  0
LINE
  5
312
100
AcDbEntity
  8
0
100
AcDbLine
 62
7
  6
CONTINUOUS
 10
415.9180751421
 20
385.256247412
 11
415.5776496507
 21
385.4229141582
  0
LINE
  5
313
100
AcDbEntity
  8
0
100
AcDbLine
 62
7
  6
CONTINUOUS
 10
433.4074369051
 20
381.3395809043
 11
433.7478623964
 21
381.1729139197
  0
LINE
  5
314
100
AcDbEntity
  8
0
100
AcDbLine
 62
7
  6
CONTINUOUS
 10
413.9606284477
 20
372.4229143966
 11
413.7053092696
 21
372.5895804274
  0
LINE
  5
315
100
AcDbEntity
  8
0
100
AcDbLine
 62
7
  6
CONTINUOUS
 10
416.3436072447
 20
374.1729143966
 11
416.0882881262
 21
374.3395804274
  0
LINE
  5
316
100
AcDbEntity
  8
0
100
AcDbLine
 62
7
  6
CONTINUOUS
 10
415.3223305322
 20
375.8395804274
 11
415.5776496507
 21
375.6729143966
  0
LINE
  5
317
100
AcDbEntity
  8
0
100
AcDbLine
 62
7
  6
CONTINUOUS
 10
416.3436072447
 20
377.9229143966
 11
416.0882881262
 21
378.0895804274
  0
LINE
  5
318
100
AcDbEntity
  8
0
100
AcDbLine
 62
7
  6
CONTINUOUS
 10
415.3223305322
 20
381.3395809043
 11
415.5776496507
 21
381.1729139197
  0
LINE
  5
319
100
AcDbEntity
  8
0
100
AcDbLine
 62
7
  6
CONTINUOUS
 10
416.0882881262
 20
383.5895809043
 11
416.3436072447
 21
383.4229139197
  0
LINE
  5
31A
100
AcDbEntity
  8
0
100
AcDbLine
 62
7
  6
CONTINUOUS
 10
415.3223305322
 20
385.006247412
 11
415.5776496507
 21
384.8395806659
  0
LINE
  5
31B
100
AcDbEntity
  8
0
100
AcDbLine
 62
7
  6
CONTINUOUS
 10
413.7053092696
 20
372.0895804275
 11
413.3648837485
 21
372.3395804274
  0
LINE
  5
31C
100
AcDbEntity
  8
0
100
AcDbLine
 62
7
  6
CONTINUOUS
 10
416.684032736
 20
374.4229143966
 11
416.3436072447
 21
374.6729143965
  0
LINE
  5
31D
100
AcDbEntity
  8
0
100
AcDbLine
 62
7
  6
CONTINUOUS
 10
413.3648837485
 20
374.4229143966
 11
413.7053092696
 21
374.6729143966
  0
LINE
  5
31E
100
AcDbEntity
  8
0
100
AcDbLine
 62
7
  6
CONTINUOUS
 10
416.3436072447
 20
372.1729143966
 11
416.684032736
 21
372.4229143965
  0
LINE
  5
31F
100
AcDbEntity
  8
0
100
AcDbLine
 62
7
  6
CONTINUOUS
 10
431.7053092696
 20
383.4229141581
 11
432.0457348205
 21
383.6729141581
  0
LINE
  5
320
100
AcDbEntity
  8
0
100
AcDbLine
 62
7
  6
CONTINUOUS
 10
416.0882881262
 20
381.5895809043
 11
416.3436072447
 21
381.756247412
  0
LINE
  5
321
100
AcDbEntity
  8
0
100
AcDbLine
 62
7
  6
CONTINUOUS
 10
416.3436072447
 20
376.256247412
 11
416.0882881262
 21
376.0895804274
  0
LINE
  5
322
100
AcDbEntity
  8
0
100
AcDbLine
 62
7
  6
CONTINUOUS
 10
413.7053092696
 20
374.1729143966
 11
413.9606284477
 21
374.3395804274
  0
LINE
  5
323
100
AcDbEntity
  8
0
100
AcDbLine
 62
7
  6
CONTINUOUS
 10
416.0882881262
 20
372.506247412
 11
416.3436072447
 21
372.6729143966
  0
LINE
  5
324
100
AcDbEntity
  8
0
100
AcDbLine
 62
7
  6
CONTINUOUS
 10
433.5776496507
 20
383.4229141581
 11
433.8329687692
 21
383.5895806659
  0
LINE
  5
325
100
AcDbEntity
  8
0
100
AcDbLine
 62
7
  6
CONTINUOUS
 10
434.0031815149
 20
381.5895809043
 11
434.2585008718
 21
381.756247412
  0
LINE
  5
326
100
AcDbEntity
  8
0
100
AcDbLine
 62
7
  6
CONTINUOUS
 10
434.3436072447
 20
376.256247412
 11
434.0882881262
 21
376.0895804274
  0
LINE
  5
327
100
AcDbEntity
  8
0
100
AcDbLine
 62
7
  6
CONTINUOUS
 10
487.4074369051
 20
384.6729143966
 11
487.7478623964
 21
384.8395810607
  0
LINE
  5
328
100
AcDbEntity
  8
0
100
AcDbLine
 62
7
  6
CONTINUOUS
 10
486.301053939
 20
381.9229143966
 11
486.7265859224
 21
382.0895811427
  0
LINE
  5
329
100
AcDbEntity
  8
0
100
AcDbLine
 62
7
  6
CONTINUOUS
 10
488.0031815149
 20
382.0062476504
 11
488.4287136175
 21
382.1729143966
  0
LINE
  5
32A
100
AcDbEntity
  8
0
100
AcDbLine
 62
7
  6
CONTINUOUS
 10
486.7265859224
 20
384.7562477249
 11
486.301053939
 21
384.9229143966
  0
LINE
  5
32B
100
AcDbEntity
  8
0
100
AcDbLine
 62
7
  6
CONTINUOUS
 10
488.4287136175
 20
384.6729143966
 11
488.0031815149
 21
384.8395810607
  0
LINE
  5
32C
100
AcDbEntity
  8
0
100
AcDbLine
 62
7
  6
CONTINUOUS
 10
485.9606284477
 20
374.9229143966
 11
485.6202028968
 21
375.0895813811
  0
LINE
  5
32D
100
AcDbEntity
  8
0
100
AcDbLine
 62
7
  6
CONTINUOUS
 10
488.4287136175
 20
377.4229143966
 11
488.0882881262
 21
377.5895809043
  0
LINE
  5
32E
100
AcDbEntity
  8
0
100
AcDbLine
 62
7
  6
CONTINUOUS
 10
487.4074369051
 20
382.1729143966
 11
487.7478623964
 21
382.0062476504
  0
LINE
  5
32F
100
AcDbEntity
  8
0
100
AcDbLine
 62
7
  6
CONTINUOUS
 10
433.5776496507
 20
375.6729143966
 11
433.3223305322
 21
375.8395804274
  0
LINE
  5
330
100
AcDbEntity
  8
0
100
AcDbLine
 62
7
  6
CONTINUOUS
 10
416.3436072447
 20
387.0895807255
 11
416.0882881262
 21
387.256247412
  0
LINE
  5
331
100
AcDbEntity
  8
0
100
AcDbLine
 62
7
  6
CONTINUOUS
 10
434.3436072447
 20
377.9229139197
 11
434.0882881262
 21
378.0895809043
  0
LINE
  5
332
100
AcDbEntity
  8
0
100
AcDbLine
 62
7
  6
CONTINUOUS
 10
433.8329687692
 20
381.5895809043
 11
433.5776496507
 21
381.756247412
  0
LINE
  5
333
100
AcDbEntity
  8
0
100
AcDbLine
 62
7
  6
CONTINUOUS
 10
434.0031815149
 20
383.5895806659
 11
434.2585008718
 21
383.4229141581
  0
LINE
  5
334
100
AcDbEntity
  8
0
100
AcDbLine
 62
7
  6
CONTINUOUS
 10
432.0457348205
 20
381.506247412
 11
431.7053092696
 21
381.756247412
  0
LINE
  5
335
100
AcDbEntity
  8
0
100
AcDbLine
 62
7
  6
CONTINUOUS
 10
414.7265859224
 20
374.3395804274
 11
414.8967986681
 21
374.1729143965
  0
LINE
  5
336
100
AcDbEntity
  8
0
100
AcDbLine
 62
7
  6
CONTINUOUS
 10
416.4287136175
 20
384.8395806659
 11
416.7691391088
 21
385.1729141581
  0
LINE
  5
337
100
AcDbEntity
  8
0
100
AcDbLine
 62
7
  6
CONTINUOUS
 10
416.4287136175
 20
381.1729139197
 11
416.7691391088
 21
381.506247412
  0
LINE
  5
338
100
AcDbEntity
  8
0
100
AcDbLine
 62
7
  6
CONTINUOUS
 10
416.4287136175
 20
375.6729143966
 11
416.7691391088
 21
376.006247412
  0
LINE
  5
339
100
AcDbEntity
  8
0
100
AcDbLine
 62
7
  6
CONTINUOUS
 10
414.8967986681
 20
372.5895804274
 11
414.7265859224
 21
372.4229143965
  0
LINE
  5
33A
100
AcDbEntity
  8
0
100
AcDbLine
 62
7
  6
CONTINUOUS
 10
414.9819050409
 20
372.0895804274
 11
415.2372241594
 21
372.3395804274
  0
LINE
  5
33B
100
AcDbEntity
  8
0
100
AcDbLine
 62
7
  6
CONTINUOUS
 10
432.301053939
 20
381.506247412
 11
432.6414795496
 21
381.756247412
  0
LINE
  5
33C
100
AcDbEntity
  8
0
100
AcDbLine
 62
7
  6
CONTINUOUS
 10
449.3648837485
 20
383.6729141582
 11
449.7053092696
 21
383.9229140389
  0
LINE
  5
33D
100
AcDbEntity
  8
0
100
AcDbLine
 62
7
  6
CONTINUOUS
 10
450.8967986681
 20
381.256247412
 11
451.2372241594
 21
381.506247412
  0
LINE
  5
33E
100
AcDbEntity
  8
0
100
AcDbLine
 62
7
  6
CONTINUOUS
 10
450.6414795496
 20
381.5895809043
 11
450.8967986681
 21
381.756247412
  0
LINE
  5
33F
100
AcDbEntity
  8
0
100
AcDbLine
 62
7
  6
CONTINUOUS
 10
485.9606284477
 20
377.5895809043
 11
485.6202028968
 21
377.4229143966
  0
LINE
  5
340
100
AcDbEntity
  8
0
100
AcDbLine
 62
7
  6
CONTINUOUS
 10
488.0882881262
 20
374.9229143966
 11
488.4287136175
 21
375.0895813811
  0
LINE
  5
341
100
AcDbEntity
  8
0
100
AcDbLine
 62
7
  6
CONTINUOUS
 10
449.9606284477
 20
381.5895809043
 11
449.7053092696
 21
381.756247412
  0
LINE
  5
342
100
AcDbEntity
  8
0
100
AcDbLine
 62
7
  6
CONTINUOUS
 10
432.6414795496
 20
383.4229141581
 11
432.301053939
 21
383.6729141581
  0
LINE
  5
343
100
AcDbEntity
  8
0
100
AcDbLine
 62
7
  6
CONTINUOUS
 10
449.3648837485
 20
381.506247412
 11
449.7053092696
 21
381.256247412
  0
LINE
  5
344
100
AcDbEntity
  8
0
100
AcDbLine
 62
7
  6
CONTINUOUS
 10
434.3436072447
 20
374.4229143965
 11
433.7478623964
 21
374.9229143966
  0
LINE
  5
345
100
AcDbEntity
  8
0
100
AcDbLine
 62
7
  6
CONTINUOUS
 10
435.0244582273
 20
374.4229143966
 11
434.4287136175
 21
374.9229143965
  0
LINE
  5
346
100
AcDbEntity
  8
0
100
AcDbLine
 62
7
  6
CONTINUOUS
 10
434.3436072447
 20
385.256247412
 11
433.7478623964
 21
385.756247412
  0
LINE
  5
347
100
AcDbEntity
  8
0
100
AcDbLine
 62
7
  6
CONTINUOUS
 10
435.0244582273
 20
385.256247412
 11
434.4287136175
 21
385.756247412
  0
LINE
  5
348
100
AcDbEntity
  8
0
100
AcDbLine
 62
7
  6
CONTINUOUS
 10
416.7691391088
 20
378.0895804274
 11
416.4287136175
 21
378.4229143965
  0
LINE
  5
349
100
AcDbEntity
  8
0
100
AcDbLine
 62
7
  6
CONTINUOUS
 10
416.7691391088
 20
383.5895809043
 11
416.4287136175
 21
383.9229141581
  0
LINE
  5
34A
100
AcDbEntity
  8
0
100
AcDbLine
 62
7
  6
CONTINUOUS
 10
416.7691391088
 20
387.256247412
 11
416.4287136175
 21
387.5895807403
  0
LINE
  5
34B
100
AcDbEntity
  8
0
100
AcDbLine
 62
7
  6
CONTINUOUS
 10
434.7691391088
 20
378.0895809043
 11
434.4287136175
 21
378.4229139197
  0
LINE
  5
34C
100
AcDbEntity
  8
0
100
AcDbLine
 62
7
  6
CONTINUOUS
 10
431.3648837485
 20
381.506247412
 11
431.6202028968
 21
381.256247412
  0
LINE
  5
34D
100
AcDbEntity
  8
0
100
AcDbLine
 62
7
  6
CONTINUOUS
 10
415.5776496507
 20
376.256247412
 11
413.4499901511
 21
378.5895804274
  0
LINE
  5
34E
100
AcDbEntity
  8
0
100
AcDbLine
 62
7
  6
CONTINUOUS
 10
415.5776496507
 20
381.756247412
 11
413.4499901511
 21
384.0895806658
  0
LINE
  5
34F
100
AcDbEntity
  8
0
100
AcDbLine
 62
7
  6
CONTINUOUS
 10
415.5776496507
 20
385.4229141581
 11
413.4499901511
 21
387.756247412
  0
LINE
  5
350
100
AcDbEntity
  8
0
100
AcDbLine
 62
7
  6
CONTINUOUS
 10
413.4499901511
 20
377.9229143966
 11
415.3223305322
 21
375.8395804275
  0
LINE
  5
351
100
AcDbEntity
  8
0
100
AcDbLine
 62
7
  6
CONTINUOUS
 10
413.4499901511
 20
383.4229139197
 11
415.3223305322
 21
381.3395809043
  0
LINE
  5
352
100
AcDbEntity
  8
0
100
AcDbLine
 62
7
  6
CONTINUOUS
 10
413.4499901511
 20
387.0895807255
 11
415.3223305322
 21
385.006247412
  0
LINE
  5
353
100
AcDbEntity
  8
0
100
AcDbLine
 62
7
  6
CONTINUOUS
 10
413.7053092696
 20
372.5895804274
 11
413.5350965239
 21
372.8395804275
  0
LINE
  5
354
100
AcDbEntity
  8
0
100
AcDbLine
 62
7
  6
CONTINUOUS
 10
413.1095646076
 20
374.006247412
 11
413.3648837485
 21
374.4229143966
  0
LINE
  5
355
100
AcDbEntity
  8
0
100
AcDbLine
 62
7
  6
CONTINUOUS
 10
416.3436072447
 20
385.4229141582
 11
416.5138199903
 21
385.6729141581
  0
LINE
  5
356
100
AcDbEntity
  8
0
100
AcDbLine
 62
7
  6
CONTINUOUS
 10
416.3436072447
 20
381.756247412
 11
416.5138199903
 21
382.006247412
  0
LINE
  5
357
100
AcDbEntity
  8
0
100
AcDbLine
 62
7
  6
CONTINUOUS
 10
413.5350965239
 20
373.9229143966
 11
413.7053092696
 21
374.1729143966
  0
LINE
  5
358
100
AcDbEntity
  8
0
100
AcDbLine
 62
7
  6
CONTINUOUS
 10
416.3436072447
 20
376.256247412
 11
416.5138199903
 21
376.506247412
  0
LINE
  5
359
100
AcDbEntity
  8
0
100
AcDbLine
 62
7
  6
CONTINUOUS
 10
415.0670114137
 20
372.8395804274
 11
414.8967986681
 21
372.5895804275
  0
LINE
  5
35A
100
AcDbEntity
  8
0
100
AcDbLine
 62
7
  6
CONTINUOUS
 10
416.3436072447
 20
372.6729143966
 11
416.5138199903
 21
372.9229143966
  0
LINE
  5
35B
100
AcDbEntity
  8
0
100
AcDbLine
 62
7
  6
CONTINUOUS
 10
431.3648837485
 20
383.6729141581
 11
431.6202028968
 21
383.9229140389
  0
LINE
  5
35C
100
AcDbEntity
  8
0
100
AcDbLine
 62
7
  6
CONTINUOUS
 10
433.1521177866
 20
383.5895806659
 11
433.4074369051
 21
383.8395807851
  0
LINE
  5
35D
100
AcDbEntity
  8
0
100
AcDbLine
 62
7
  6
CONTINUOUS
 10
434.4287136175
 20
381.3395809043
 11
434.684032736
 21
381.5895809043
  0
LINE
  5
35E
100
AcDbEntity
  8
0
100
AcDbLine
 62
7
  6
CONTINUOUS
 10
434.4287136175
 20
375.6729143966
 11
434.7691391088
 21
376.006247412
  0
LINE
  5
35F
100
AcDbEntity
  8
0
100
AcDbLine
 62
7
  6
CONTINUOUS
 10
487.5776496507
 20
384.25624771
 11
487.8329687692
 21
384.4229143966
  0
LINE
  5
360
100
AcDbEntity
  8
0
100
AcDbLine
 62
7
  6
CONTINUOUS
 10
488.0031815149
 20
382.4229143966
 11
488.2585008718
 21
382.5895811427
  0
LINE
  5
361
100
AcDbEntity
  8
0
100
AcDbLine
 62
7
  6
CONTINUOUS
 10
485.7053092696
 20
376.9229143966
 11
486.2159475662
 21
377.2562478888
  0
LINE
  5
362
100
AcDbEntity
  8
0
100
AcDbLine
 62
7
  6
CONTINUOUS
 10
486.2159475662
 20
375.256247412
 11
485.7053092696
 21
375.5895813811
  0
LINE
  5
363
100
AcDbEntity
  8
0
100
AcDbLine
 62
7
  6
CONTINUOUS
 10
488.3436072447
 20
376.9229143965
 11
487.8329687692
 21
377.2562478888
  0
LINE
  5
364
100
AcDbEntity
  8
0
100
AcDbLine
 62
7
  6
CONTINUOUS
 10
487.8329687692
 20
382.4229143966
 11
487.5776496507
 21
382.5895811427
  0
LINE
  5
365
100
AcDbEntity
  8
0
100
AcDbLine
 62
7
  6
CONTINUOUS
 10
488.2585008718
 20
384.25624771
 11
488.0031815149
 21
384.4229143966
  0
LINE
  5
366
100
AcDbEntity
  8
0
100
AcDbLine
 62
7
  6
CONTINUOUS
 10
452.3436072447
 20
378.0895809042
 11
451.7478623964
 21
378.5895809043
  0
LINE
  5
367
100
AcDbEntity
  8
0
100
AcDbLine
 62
7
  6
CONTINUOUS
 10
453.0244582273
 20
378.0895809043
 11
452.4287136175
 21
378.5895809043
  0
LINE
  5
368
100
AcDbEntity
  8
0
100
AcDbLine
 62
7
  6
CONTINUOUS
 10
452.3436072447
 20
385.256247412
 11
451.7478623964
 21
385.756247412
  0
LINE
  5
369
100
AcDbEntity
  8
0
100
AcDbLine
 62
7
  6
CONTINUOUS
 10
453.0244582273
 20
385.256247412
 11
452.4287136175
 21
385.756247412
  0
LINE
  5
36A
100
AcDbEntity
  8
0
100
AcDbLine
 62
7
  6
CONTINUOUS
 10
470.3436072447
 20
379.2562478888
 11
469.7478623964
 21
379.7562478888
  0
LINE
  5
36B
100
AcDbEntity
  8
0
100
AcDbLine
 62
7
  6
CONTINUOUS
 10
433.1521177866
 20
381.5895809043
 11
433.4074369051
 21
381.3395809043
  0
LINE
  5
36C
100
AcDbEntity
  8
0
100
AcDbLine
 62
7
  6
CONTINUOUS
 10
434.684032736
 20
383.5895806659
 11
434.4287136175
 21
383.8395807851
  0
LINE
  5
36D
100
AcDbEntity
  8
0
100
AcDbLine
 62
7
  6
CONTINUOUS
 10
433.5776496507
 20
376.256247412
 11
431.4499901511
 21
378.5895809043
  0
LINE
  5
36E
100
AcDbEntity
  8
0
100
AcDbLine
 62
7
  6
CONTINUOUS
 10
433.3223305322
 20
375.8395804275
 11
431.4499901511
 21
377.9229139197
  0
LINE
  5
36F
100
AcDbEntity
  8
0
100
AcDbLine
 62
7
  6
CONTINUOUS
 10
414.8967986681
 20
374.1729143966
 11
415.0670114138
 21
373.9229143966
  0
LINE
  5
370
100
AcDbEntity
  8
0
100
AcDbLine
 62
7
  6
CONTINUOUS
 10
415.4925432779
 20
374.006247412
 11
415.1521177866
 21
374.506247412
  0
LINE
  5
371
100
AcDbEntity
  8
0
100
AcDbLine
 62
7
  6
CONTINUOUS
 10
416.5138199904
 20
373.9229143966
 11
416.3436072447
 21
374.1729143966
  0
LINE
  5
372
100
AcDbEntity
  8
0
100
AcDbLine
 62
7
  6
CONTINUOUS
 10
416.5138199904
 20
377.6729143966
 11
416.3436072447
 21
377.9229143966
  0
LINE
  5
373
100
AcDbEntity
  8
0
100
AcDbLine
 62
7
  6
CONTINUOUS
 10
416.5138199904
 20
383.1729139197
 11
416.3436072447
 21
383.4229139197
  0
LINE
  5
374
100
AcDbEntity
  8
0
100
AcDbLine
 62
7
  6
CONTINUOUS
 10
416.5138199904
 20
386.8395807255
 11
416.3436072447
 21
387.0895807255
  0
LINE
  5
375
100
AcDbEntity
  8
0
100
AcDbLine
 62
7
  6
CONTINUOUS
 10
413.3648837485
 20
372.3395804274
 11
413.1095646076
 21
372.756247412
  0
LINE
  5
376
100
AcDbEntity
  8
0
100
AcDbLine
 62
7
  6
CONTINUOUS
 10
416.9393518545
 20
374.006247412
 11
416.684032736
 21
374.4229143966
  0
LINE
  5
377
100
AcDbEntity
  8
0
100
AcDbLine
 62
7
  6
CONTINUOUS
 10
416.9393518545
 20
377.756247412
 11
416.7691391088
 21
378.0895804275
  0
LINE
  5
378
100
AcDbEntity
  8
0
100
AcDbLine
 62
7
  6
CONTINUOUS
 10
413.0244582273
 20
373.1729143966
 11
413.0244582273
 21
373.5895804274
  0
LINE
  5
379
100
AcDbEntity
  8
0
100
AcDbLine
 62
7
  6
CONTINUOUS
 10
413.0244582273
 20
375.5895804274
 11
413.0244582273
 21
378.5895804274
  0
LINE
  5
37A
100
AcDbEntity
  8
0
100
AcDbLine
 62
7
  6
CONTINUOUS
 10
413.0244582273
 20
381.0895809043
 11
413.0244582273
 21
384.0895806659
  0
LINE
  5
37B
100
AcDbEntity
  8
0
100
AcDbLine
 62
7
  6
CONTINUOUS
 10
413.0244582273
 20
384.756247412
 11
413.0244582273
 21
387.756247412
  0
LINE
  5
37C
100
AcDbEntity
  8
0
100
AcDbLine
 62
7
  6
CONTINUOUS
 10
413.4499901511
 20
387.0895807255
 11
413.4499901511
 21
384.756247412
  0
LINE
  5
37D
100
AcDbEntity
  8
0
100
AcDbLine
 62
7
  6
CONTINUOUS
 10
413.4499901511
 20
383.4229139197
 11
413.4499901511
 21
381.0895809043
  0
LINE
  5
37E
100
AcDbEntity
  8
0
100
AcDbLine
 62
7
  6
CONTINUOUS
 10
413.4499901511
 20
377.9229143966
 11
413.4499901511
 21
375.5895804274
  0
LINE
  5
37F
100
AcDbEntity
  8
0
100
AcDbLine
 62
7
  6
CONTINUOUS
 10
413.4499901511
 20
373.6729143966
 11
413.4499901511
 21
373.0895804274
  0
LINE
  5
380
100
AcDbEntity
  8
0
100
AcDbLine
 62
7
  6
CONTINUOUS
 10
414.4712666847
 20
379.256247412
 11
414.4712666847
 21
380.4229139197
  0
LINE
  5
381
100
AcDbEntity
  8
0
100
AcDbLine
 62
7
  6
CONTINUOUS
 10
413.0244582273
 20
373.5895804274
 11
413.1095646076
 21
374.006247412
  0
LINE
  5
382
100
AcDbEntity
  8
0
100
AcDbLine
 62
7
  6
CONTINUOUS
 10
416.5138199904
 20
385.6729141581
 11
416.5989263632
 21
386.0895807851
  0
LINE
  5
383
100
AcDbEntity
  8
0
100
AcDbLine
 62
7
  6
CONTINUOUS
 10
416.5138199904
 20
382.006247412
 11
416.5989263632
 21
382.4229139197
  0
LINE
  5
384
100
AcDbEntity
  8
0
100
AcDbLine
 62
7
  6
CONTINUOUS
 10
413.4499901511
 20
373.6729143966
 11
413.5350965239
 21
373.9229143965
  0
LINE
  5
385
100
AcDbEntity
  8
0
100
AcDbLine
 62
7
  6
CONTINUOUS
 10
415.1521177866
 20
373.0895804274
 11
415.0670114138
 21
372.8395804274
  0
LINE
  5
386
100
AcDbEntity
  8
0
100
AcDbLine
 62
7
  6
CONTINUOUS
 10
416.5138199904
 20
372.9229143965
 11
416.5989263632
 21
373.1729143966
  0
LINE
  5
387
100
AcDbEntity
  8
0
100
AcDbLine
 62
7
  6
CONTINUOUS
 10
416.7691391088
 20
385.1729141581
 11
416.9393518545
 21
385.506247412
  0
LINE
  5
388
100
AcDbEntity
  8
0
100
AcDbLine
 62
7
  6
CONTINUOUS
 10
416.7691391088
 20
381.506247412
 11
416.9393518545
 21
381.8395809043
  0
LINE
  5
389
100
AcDbEntity
  8
0
100
AcDbLine
 62
7
  6
CONTINUOUS
 10
416.7691391088
 20
376.006247412
 11
416.9393518545
 21
376.3395804275
  0
LINE
  5
38A
100
AcDbEntity
  8
0
100
AcDbLine
 62
7
  6
CONTINUOUS
 10
415.2372241594
 20
372.3395804274
 11
415.4925432779
 21
372.756247412
  0
LINE
  5
38B
100
AcDbEntity
  8
0
100
AcDbLine
 62
7
  6
CONTINUOUS
 10
416.684032736
 20
372.4229143966
 11
416.9393518545
 21
372.8395804274
  0
LINE
  5
38C
100
AcDbEntity
  8
0
100
AcDbLine
 62
7
  6
CONTINUOUS
 10
431.1095646076
 20
383.256247412
 11
431.3648837485
 21
383.6729141581
  0
LINE
  5
38D
100
AcDbEntity
  8
0
100
AcDbLine
 62
7
  6
CONTINUOUS
 10
434.684032736
 20
381.5895809043
 11
434.9393518545
 21
382.006247412
  0
LINE
  5
38E
100
AcDbEntity
  8
0
100
AcDbLine
 62
7
  6
CONTINUOUS
 10
434.3436072447
 20
376.256247412
 11
434.5138199903
 21
376.506247412
  0
LINE
  5
38F
100
AcDbEntity
  8
0
100
AcDbLine
 62
7
  6
CONTINUOUS
 10
433.3223305322
 20
383.0895806659
 11
433.5776496507
 21
383.4229141581
  0
LINE
  5
390
100
AcDbEntity
  8
0
100
AcDbLine
 62
7
  6
CONTINUOUS
 10
432.7265859224
 20
381.256247412
 11
432.9819050409
 21
381.5895809043
  0
LINE
  5
391
100
AcDbEntity
  8
0
100
AcDbLine
 62
7
  6
CONTINUOUS
 10
434.2585008718
 20
381.756247412
 11
434.5138199903
 21
382.0895806659
  0
LINE
  5
392
100
AcDbEntity
  8
0
100
AcDbLine
 62
7
  6
CONTINUOUS
 10
485.7053092696
 20
384.25624771
 11
486.0457348205
 21
384.5062477398
  0
LINE
  5
393
100
AcDbEntity
  8
0
100
AcDbLine
 62
7
  6
CONTINUOUS
 10
486.301053939
 20
382.3395811427
 11
486.6414795496
 21
382.5895811427
  0
LINE
  5
394
100
AcDbEntity
  8
0
100
AcDbLine
 62
7
  6
CONTINUOUS
 10
487.8329687692
 20
375.256247412
 11
488.3436072447
 21
375.5895813811
  0
LINE
  5
395
100
AcDbEntity
  8
0
100
AcDbLine
 62
7
  6
CONTINUOUS
 10
486.0457348205
 20
382.3395811427
 11
485.7053092696
 21
382.5895811427
  0
LINE
  5
396
100
AcDbEntity
  8
0
100
AcDbLine
 62
7
  6
CONTINUOUS
 10
486.6414795496
 20
384.25624771
 11
486.301053939
 21
384.5062477398
  0
LINE
  5
397
100
AcDbEntity
  8
0
100
AcDbLine
 62
7
  6
CONTINUOUS
 10
471.0244582273
 20
379.2562478888
 11
470.4287136175
 21
379.7562478888
  0
LINE
  5
398
100
AcDbEntity
  8
0
100
AcDbLine
 62
7
  6
CONTINUOUS
 10
470.3436072447
 20
382.7562476504
 11
469.7478623964
 21
383.2562477696
  0
LINE
  5
399
100
AcDbEntity
  8
0
100
AcDbLine
 62
7
  6
CONTINUOUS
 10
471.0244582273
 20
382.7562476504
 11
470.4287136175
 21
383.2562477696
  0
LINE
  5
39A
100
AcDbEntity
  8
0
100
AcDbLine
 62
7
  6
CONTINUOUS
 10
470.3436072447
 20
384.4229143965
 11
469.7478623964
 21
384.9229143966
  0
LINE
  5
39B
100
AcDbEntity
  8
0
100
AcDbLine
 62
7
  6
CONTINUOUS
 10
471.0244582273
 20
384.4229143966
 11
470.4287136175
 21
384.9229143965
  0
LINE
  5
39C
100
AcDbEntity
  8
0
100
AcDbLine
 62
7
  6
CONTINUOUS
 10
488.3436072447
 20
378.9229143965
 11
487.7478623964
 21
379.4229143966
  0
LINE
  5
39D
100
AcDbEntity
  8
0
100
AcDbLine
 62
7
  6
CONTINUOUS
 10
489.0244582273
 20
378.9229143966
 11
488.4287136175
 21
379.4229143965
  0
LINE
  5
39E
100
AcDbEntity
  8
0
100
AcDbLine
 62
7
  6
CONTINUOUS
 10
471.0244582273
 20
376.0895813811
 11
468.7265859224
 21
378.0895809043
  0
LINE
  5
39F
100
AcDbEntity
  8
0
100
AcDbLine
 62
7
  6
CONTINUOUS
 10
470.3436072447
 20
376.0895813811
 11
468.7265859224
 21
377.5062478888
  0
LINE
  5
3A0
100
AcDbEntity
  8
0
100
AcDbLine
 62
7
  6
CONTINUOUS
 10
433.5776496507
 20
381.756247412
 11
433.3223305322
 21
382.0895806659
  0
LINE
  5
3A1
100
AcDbEntity
  8
0
100
AcDbLine
 62
7
  6
CONTINUOUS
 10
432.9819050409
 20
383.5895806659
 11
432.7265859224
 21
383.9229140389
  0
LINE
  5
3A2
100
AcDbEntity
  8
0
100
AcDbLine
 62
7
  6
CONTINUOUS
 10
434.5138199903
 20
383.0895806659
 11
434.2585008718
 21
383.4229141581
  0
LINE
  5
3A3
100
AcDbEntity
  8
0
100
AcDbLine
 62
7
  6
CONTINUOUS
 10
434.5138199904
 20
377.6729143966
 11
434.3436072447
 21
377.9229139197
  0
LINE
  5
3A4
100
AcDbEntity
  8
0
100
AcDbLine
 62
7
  6
CONTINUOUS
 10
431.3648837485
 20
381.506247412
 11
431.1095646076
 21
381.9229141581
  0
LINE
  5
3A5
100
AcDbEntity
  8
0
100
AcDbLine
 62
7
  6
CONTINUOUS
 10
434.9393518545
 20
383.1729141581
 11
434.684032736
 21
383.5895806659
  0
LINE
  5
3A6
100
AcDbEntity
  8
0
100
AcDbLine
 62
7
  6
CONTINUOUS
 10
416.9393518545
 20
383.256247412
 11
416.7691391088
 21
383.5895809043
  0
LINE
  5
3A7
100
AcDbEntity
  8
0
100
AcDbLine
 62
7
  6
CONTINUOUS
 10
416.9393518545
 20
386.9229140985
 11
416.7691391088
 21
387.256247412
  0
LINE
  5
3A8
100
AcDbEntity
  8
0
100
AcDbLine
 62
7
  6
CONTINUOUS
 10
431.7053092696
 20
381.756247412
 11
431.5350965239
 21
382.0895806659
  0
LINE
  5
3A9
100
AcDbEntity
  8
0
100
AcDbLine
 62
7
  6
CONTINUOUS
 10
413.5350965239
 20
372.8395804274
 11
413.4499901511
 21
373.0895804274
  0
LINE
  5
3AA
100
AcDbEntity
  8
0
100
AcDbLine
 62
7
  6
CONTINUOUS
 10
415.0670114137
 20
373.9229143966
 11
415.1521177866
 21
373.6729143965
  0
LINE
  5
3AB
100
AcDbEntity
  8
0
100
AcDbLine
 62
7
  6
CONTINUOUS
 10
416.5989263632
 20
373.6729143965
 11
416.5138199903
 21
373.9229143966
  0
LINE
  5
3AC
100
AcDbEntity
  8
0
100
AcDbLine
 62
7
  6
CONTINUOUS
 10
413.1095646076
 20
372.756247412
 11
413.0244582273
 21
373.1729143966
  0
LINE
  5
3AD
100
AcDbEntity
  8
0
100
AcDbLine
 62
7
  6
CONTINUOUS
 10
415.5776496507
 20
373.5895804274
 11
415.4925432779
 21
374.006247412
  0
LINE
  5
3AE
100
AcDbEntity
  8
0
100
AcDbLine
 62
7
  6
CONTINUOUS
 10
417.0244582273
 20
373.5895804274
 11
416.9393518545
 21
374.006247412
  0
LINE
  5
3AF
100
AcDbEntity
  8
0
100
AcDbLine
 62
7
  6
CONTINUOUS
 10
416.5989263631
 20
377.256247412
 11
416.5138199903
 21
377.6729143966
  0
LINE
  5
3B0
100
AcDbEntity
  8
0
100
AcDbLine
 62
7
  6
CONTINUOUS
 10
416.5989263631
 20
382.756247412
 11
416.5138199903
 21
383.1729139197
  0
LINE
  5
3B1
100
AcDbEntity
  8
0
100
AcDbLine
 62
7
  6
CONTINUOUS
 10
414.641291797
 20
396.3497264688
 11
414.641291797
 21
386.4497866056
  0
LINE
  5
3B2
100
AcDbEntity
  8
0
100
AcDbLine
 62
7
  6
CONTINUOUS
 10
414.641291797
 20
385.7640320003
 11
414.641291797
 21
382.7831198594
  0
LINE
  5
3B3
100
AcDbEntity
  8
0
100
AcDbLine
 62
7
  6
CONTINUOUS
 10
414.641291797
 20
382.0973653842
 11
414.641291797
 21
380.4228316513
  0
LINE
  5
3B4
100
AcDbEntity
  8
0
100
AcDbLine
 62
7
  6
CONTINUOUS
 10
414.641291797
 20
379.2563296805
 11
414.641291797
 21
377.2831197545
  0
LINE
  5
3B5
100
AcDbEntity
  8
0
100
AcDbLine
 62
7
  6
CONTINUOUS
 10
414.641291797
 20
376.5973652542
 11
414.641291797
 21
374.910983283
  0
LINE
  5
3B6
100
AcDbEntity
  8
0
100
AcDbLine
 62
7
  6
CONTINUOUS
 10
414.641291797
 20
374.3395804274
 11
414.641291797
 21
372.4229143965
  0
LINE
  5
3B7
100
AcDbEntity
  8
0
100
AcDbLine
 62
7
  6
CONTINUOUS
 10
414.641291797
 20
371.9561740666
 11
414.641291797
 21
363.3294353398
  0
LINE
  5
3B8
100
AcDbEntity
  8
0
100
AcDbLine
 62
7
  6
CONTINUOUS
 10
414.6522465905
 20
386.4377728487
 11
414.6522465905
 21
385.7518427176
  0
LINE
  5
3B9
100
AcDbEntity
  8
0
100
AcDbLine
 62
7
  6
CONTINUOUS
 10
414.6522465905
 20
382.7711061025
 11
414.6522465905
 21
382.0851761032
  0
LINE
  5
3BA
100
AcDbEntity
  8
0
100
AcDbLine
 62
7
  6
CONTINUOUS
 10
414.6522465905
 20
380.4229139197
 11
414.6522465905
 21
379.256247412
  0
LINE
  5
3BB
100
AcDbEntity
  8
0
100
AcDbLine
 62
7
  6
CONTINUOUS
 10
414.6522465905
 20
377.2711059988
 11
414.6522465905
 21
376.5851759677
  0
LINE
  5
3BC
100
AcDbEntity
  8
0
100
AcDbLine
 62
7
  6
CONTINUOUS
 10
414.6522465905
 20
374.9125156615
 11
414.6522465905
 21
374.3638441361
  0
LINE
  5
3BD
100
AcDbEntity
  8
0
100
AcDbLine
 62
7
  6
CONTINUOUS
 10
414.6522465905
 20
372.3986506879
 11
414.6522465905
 21
371.9604646782
  0
LINE
  5
3BE
100
AcDbEntity
  8
0
100
AcDbLine
 62
7
  6
CONTINUOUS
 10
414.8967986681
 20
380.4229139197
 11
414.8967986681
 21
379.256247412
  0
LINE
  5
3BF
100
AcDbEntity
  8
0
100
AcDbLine
 62
7
  6
CONTINUOUS
 10
415.1521177866
 20
373.0895804274
 11
415.1521177866
 21
373.6729143966
  0
LINE
  5
3C0
100
AcDbEntity
  8
0
100
AcDbLine
 62
7
  6
CONTINUOUS
 10
415.3801523416
 20
363.3770977097
 11
415.3801523415
 21
372.5728314859
  0
LINE
  5
3C1
100
AcDbEntity
  8
0
100
AcDbLine
 62
7
  6
CONTINUOUS
 10
415.3801523415
 20
374.1713216195
 11
415.3801523415
 21
374.4968112488
  0
LINE
  5
3C2
100
AcDbEntity
  8
0
100
AcDbLine
 62
7
  6
CONTINUOUS
 10
415.3801523415
 20
374.9148261641
 11
415.3801523415
 21
375.7753923569
  0
LINE
  5
3C3
100
AcDbEntity
  8
0
100
AcDbLine
 62
7
  6
CONTINUOUS
 10
415.3801523415
 20
376.4728361059
 11
415.3801523415
 21
381.2753924665
  0
LINE
  5
3C4
100
AcDbEntity
  8
0
100
AcDbLine
 62
7
  6
CONTINUOUS
 10
415.3801523415
 20
381.972836128
 11
415.3801523415
 21
384.942059066
  0
LINE
  5
3C5
100
AcDbEntity
  8
0
100
AcDbLine
 62
7
  6
CONTINUOUS
 10
415.3801523415
 20
385.6395028742
 11
415.3801523415
 21
396.3020640989
  0
LINE
  5
3C6
100
AcDbEntity
  8
0
100
AcDbLine
 62
7
  6
CONTINUOUS
 10
415.4206615568
 20
372.6389403331
 11
415.4206615568
 21
374.1118237025
  0
LINE
  5
3C7
100
AcDbEntity
  8
0
100
AcDbLine
 62
7
  6
CONTINUOUS
 10
415.4206615568
 20
374.4902003944
 11
415.4206615568
 21
374.9091596526
  0
LINE
  5
3C8
100
AcDbEntity
  8
0
100
AcDbLine
 62
7
  6
CONTINUOUS
 10
415.4206615568
 20
375.775392357
 11
415.4206615568
 21
376.4284110043
  0
LINE
  5
3C9
100
AcDbEntity
  8
0
100
AcDbLine
 62
7
  6
CONTINUOUS
 10
415.4206615568
 20
381.2753924665
 11
415.4206615568
 21
381.9284110219
  0
LINE
  5
3CA
100
AcDbEntity
  8
0
100
AcDbLine
 62
7
  6
CONTINUOUS
 10
415.4206615568
 20
384.9420590661
 11
415.4206615568
 21
385.595077768
  0
LINE
  5
3CB
100
AcDbEntity
  8
0
100
AcDbLine
 62
7
  6
CONTINUOUS
 10
415.5776496507
 20
373.5895804274
 11
415.5776496507
 21
373.1729143966
  0
LINE
  5
3CC
100
AcDbEntity
  8
0
100
AcDbLine
 62
7
  6
CONTINUOUS
 10
416.0882881262
 20
372.0895804274
 11
416.0882881262
 21
372.506247412
  0
LINE
  5
3CD
100
AcDbEntity
  8
0
100
AcDbLine
 62
7
  6
CONTINUOUS
 10
416.0882881262
 20
378.0895804274
 11
416.0882881262
 21
378.506247412
  0
LINE
  5
3CE
100
AcDbEntity
  8
0
100
AcDbLine
 62
7
  6
CONTINUOUS
 10
416.0882881262
 20
383.5895809043
 11
416.0882881262
 21
384.006247412
  0
LINE
  5
3CF
100
AcDbEntity
  8
0
100
AcDbLine
 62
7
  6
CONTINUOUS
 10
416.0882881262
 20
387.256247412
 11
416.0882881262
 21
387.6729140762
  0
LINE
  5
3D0
100
AcDbEntity
  8
0
100
AcDbLine
 62
7
  6
CONTINUOUS
 10
416.5989263632
 20
373.1729143966
 11
416.5989263632
 21
373.6729143966
  0
LINE
  5
3D1
100
AcDbEntity
  8
0
100
AcDbLine
 62
7
  6
CONTINUOUS
 10
416.5989263632
 20
376.9229143966
 11
416.5989263632
 21
377.256247412
  0
LINE
  5
3D2
100
AcDbEntity
  8
0
100
AcDbLine
 62
7
  6
CONTINUOUS
 10
416.5989263632
 20
382.4229139197
 11
416.5989263632
 21
382.756247412
  0
LINE
  5
3D3
100
AcDbEntity
  8
0
100
AcDbLine
 62
7
  6
CONTINUOUS
 10
416.5989263632
 20
386.0895807851
 11
416.5989263632
 21
386.4229140389
  0
LINE
  5
3D4
100
AcDbEntity
  8
0
100
AcDbLine
 62
7
  6
CONTINUOUS
 10
417.0244582273
 20
386.3395807851
 11
417.0244582273
 21
386.006247412
  0
LINE
  5
3D5
100
AcDbEntity
  8
0
100
AcDbLine
 62
7
  6
CONTINUOUS
 10
417.0244582273
 20
382.6729139197
 11
417.0244582273
 21
382.3395809043
  0
LINE
  5
3D6
100
AcDbEntity
  8
0
100
AcDbLine
 62
7
  6
CONTINUOUS
 10
417.0244582273
 20
377.1729143966
 11
417.0244582273
 21
376.8395804274
  0
LINE
  5
3D7
100
AcDbEntity
  8
0
100
AcDbLine
 62
7
  6
CONTINUOUS
 10
417.0244582273
 20
373.5895804274
 11
417.0244582273
 21
373.256247412
  0
LINE
  5
3D8
100
AcDbEntity
  8
0
100
AcDbLine
 62
7
  6
CONTINUOUS
 10
421.5373115543
 20
395.6752874126
 11
421.5373115543
 21
364.003874396
  0
LINE
  5
3D9
100
AcDbEntity
  8
0
100
AcDbLine
 62
7
  6
CONTINUOUS
 10
426.5244582273
 20
364.2570569914
 11
426.5244582273
 21
395.4221048171
  0
LINE
  5
3DA
100
AcDbEntity
  8
0
100
AcDbLine
 62
7
  6
CONTINUOUS
 10
416.9393518545
 20
385.506247412
 11
417.0244582273
 21
386.006247412
  0
LINE
  5
3DB
100
AcDbEntity
  8
0
100
AcDbLine
 62
7
  6
CONTINUOUS
 10
416.9393518545
 20
381.8395809043
 11
417.0244582273
 21
382.3395809043
  0
LINE
  5
3DC
100
AcDbEntity
  8
0
100
AcDbLine
 62
7
  6
CONTINUOUS
 10
416.9393518545
 20
376.3395804274
 11
417.0244582273
 21
376.8395804274
  0
LINE
  5
3DD
100
AcDbEntity
  8
0
100
AcDbLine
 62
7
  6
CONTINUOUS
 10
415.4925432779
 20
372.756247412
 11
415.5776496507
 21
373.1729143965
  0
LINE
  5
3DE
100
AcDbEntity
  8
0
100
AcDbLine
 62
7
  6
CONTINUOUS
 10
416.5138199904
 20
376.506247412
 11
416.5989263632
 21
376.9229143966
  0
LINE
  5
3DF
100
AcDbEntity
  8
0
100
AcDbLine
 62
7
  6
CONTINUOUS
 10
416.9393518545
 20
372.8395804274
 11
417.0244582273
 21
373.256247412
  0
LINE
  5
3E0
100
AcDbEntity
  8
0
100
AcDbLine
 62
7
  6
CONTINUOUS
 10
431.0244582273
 20
382.8395806659
 11
431.1095646076
 21
383.256247412
  0
LINE
  5
3E1
100
AcDbEntity
  8
0
100
AcDbLine
 62
7
  6
CONTINUOUS
 10
431.4499901511
 20
382.756247412
 11
431.5350965239
 21
383.0895806658
  0
LINE
  5
3E2
100
AcDbEntity
  8
0
100
AcDbLine
 62
7
  6
CONTINUOUS
 10
432.8116922953
 20
382.0895806658
 11
432.8967986681
 21
382.4229141581
  0
LINE
  5
3E3
100
AcDbEntity
  8
0
100
AcDbLine
 62
7
  6
CONTINUOUS
 10
433.2372241594
 20
382.756247412
 11
433.3223305322
 21
383.0895806658
  0
LINE
  5
3E4
100
AcDbEntity
  8
0
100
AcDbLine
 62
7
  6
CONTINUOUS
 10
431.5350965239
 20
383.0895806659
 11
431.7053092696
 21
383.4229141581
  0
LINE
  5
3E5
100
AcDbEntity
  8
0
100
AcDbLine
 62
7
  6
CONTINUOUS
 10
433.0670114138
 20
383.4229141581
 11
433.1521177866
 21
383.5895806659
  0
LINE
  5
3E6
100
AcDbEntity
  8
0
100
AcDbLine
 62
7
  6
CONTINUOUS
 10
432.6414795496
 20
381.756247412
 11
432.8116922952
 21
382.0895806659
  0
LINE
  5
3E7
100
AcDbEntity
  8
0
100
AcDbLine
 62
7
  6
CONTINUOUS
 10
432.9819050409
 20
381.5895809043
 11
433.0670114137
 21
381.756247412
  0
LINE
  5
3E8
100
AcDbEntity
  8
0
100
AcDbLine
 62
7
  6
CONTINUOUS
 10
434.7691391088
 20
376.006247412
 11
434.9393518545
 21
376.3395804275
  0
LINE
  5
3E9
100
AcDbEntity
  8
0
100
AcDbLine
 62
7
  6
CONTINUOUS
 10
449.1095646076
 20
383.256247412
 11
449.3648837485
 21
383.6729141581
  0
LINE
  5
3EA
100
AcDbEntity
  8
0
100
AcDbLine
 62
7
  6
CONTINUOUS
 10
451.2372241594
 20
381.506247412
 11
451.4925432779
 21
381.9229141581
  0
LINE
  5
3EB
100
AcDbEntity
  8
0
100
AcDbLine
 62
7
  6
CONTINUOUS
 10
449.5350965239
 20
383.1729141581
 11
449.7053092696
 21
383.4229141581
  0
LINE
  5
3EC
100
AcDbEntity
  8
0
100
AcDbLine
 62
7
  6
CONTINUOUS
 10
450.8967986681
 20
381.756247412
 11
451.0670114137
 21
382.006247412
  0
LINE
  5
3ED
100
AcDbEntity
  8
0
100
AcDbLine
 62
7
  6
CONTINUOUS
 10
485.3648837485
 20
384.5062477398
 11
485.6202028968
 21
384.7562477249
  0
LINE
  5
3EE
100
AcDbEntity
  8
0
100
AcDbLine
 62
7
  6
CONTINUOUS
 10
487.1521177866
 20
384.4229143966
 11
487.4074369051
 21
384.6729143966
  0
LINE
  5
3EF
100
AcDbEntity
  8
0
100
AcDbLine
 62
7
  6
CONTINUOUS
 10
488.4287136175
 20
382.1729143966
 11
488.684032736
 21
382.4229143966
  0
LINE
  5
3F0
100
AcDbEntity
  8
0
100
AcDbLine
 62
7
  6
CONTINUOUS
 10
485.3648837485
 20
377.1729143966
 11
485.6202028968
 21
377.4229143966
  0
LINE
  5
3F1
100
AcDbEntity
  8
0
100
AcDbLine
 62
7
  6
CONTINUOUS
 10
485.6202028968
 20
375.0895813811
 11
485.3648837485
 21
375.3395813811
  0
LINE
  5
3F2
100
AcDbEntity
  8
0
100
AcDbLine
 62
7
  6
CONTINUOUS
 10
488.684032736
 20
377.1729143966
 11
488.4287136175
 21
377.4229143966
  0
LINE
  5
3F3
100
AcDbEntity
  8
0
100
AcDbLine
 62
7
  6
CONTINUOUS
 10
485.6202028968
 20
382.0895811427
 11
485.3648837485
 21
382.3395811427
  0
LINE
  5
3F4
100
AcDbEntity
  8
0
100
AcDbLine
 62
7
  6
CONTINUOUS
 10
487.4074369051
 20
382.1729143966
 11
487.1521177866
 21
382.4229143966
  0
LINE
  5
3F5
100
AcDbEntity
  8
0
100
AcDbLine
 62
7
  6
CONTINUOUS
 10
488.684032736
 20
384.4229143966
 11
488.4287136175
 21
384.6729143966
  0
LINE
  5
3F6
100
AcDbEntity
  8
0
100
AcDbLine
 62
7
  6
CONTINUOUS
 10
451.0670114137
 20
383.1729141581
 11
450.8116922952
 21
383.506247412
  0
LINE
  5
3F7
100
AcDbEntity
  8
0
100
AcDbLine
 62
7
  6
CONTINUOUS
 10
449.7053092696
 20
381.756247412
 11
449.5350965239
 21
382.006247412
  0
LINE
  5
3F8
100
AcDbEntity
  8
0
100
AcDbLine
 62
7
  6
CONTINUOUS
 10
449.3648837485
 20
381.506247412
 11
449.1095646076
 21
381.9229141581
  0
LINE
  5
3F9
100
AcDbEntity
  8
0
100
AcDbLine
 62
7
  6
CONTINUOUS
 10
451.4925432779
 20
383.256247412
 11
451.2372241594
 21
383.6729141581
  0
LINE
  5
3FA
100
AcDbEntity
  8
0
100
AcDbLine
 62
7
  6
CONTINUOUS
 10
434.9393518545
 20
377.756247412
 11
434.7691391088
 21
378.0895809043
  0
LINE
  5
3FB
100
AcDbEntity
  8
0
100
AcDbLine
 62
7
  6
CONTINUOUS
 10
433.1521177866
 20
381.5895809042
 11
433.0670114137
 21
381.756247412
  0
LINE
  5
3FC
100
AcDbEntity
  8
0
100
AcDbLine
 62
7
  6
CONTINUOUS
 10
432.8116922953
 20
383.0895806659
 11
432.6414795496
 21
383.4229141581
  0
LINE
  5
3FD
100
AcDbEntity
  8
0
100
AcDbLine
 62
7
  6
CONTINUOUS
 10
433.0670114137
 20
383.4229141581
 11
432.9819050409
 21
383.5895806658
  0
LINE
  5
3FE
100
AcDbEntity
  8
0
100
AcDbLine
 62
7
  6
CONTINUOUS
 10
431.5350965239
 20
382.0895806659
 11
431.4499901511
 21
382.4229141581
  0
LINE
  5
3FF
100
AcDbEntity
  8
0
100
AcDbLine
 62
7
  6
CONTINUOUS
 10
432.896798668
 20
382.756247412
 11
432.8116922952
 21
383.0895806659
  0
LINE
  5
400
100
AcDbEntity
  8
0
100
AcDbLine
 62
7
  6
CONTINUOUS
 10
433.3223305322
 20
382.0895806659
 11
433.2372241594
 21
382.4229141581
  0
LINE
  5
401
100
AcDbEntity
  8
0
100
AcDbLine
 62
7
  6
CONTINUOUS
 10
416.5989263631
 20
386.4229140389
 11
416.5138199903
 21
386.8395807255
  0
LINE
  5
402
100
AcDbEntity
  8
0
100
AcDbLine
 62
7
  6
CONTINUOUS
 10
431.1095646076
 20
381.9229141581
 11
431.0244582273
 21
382.3395806659
  0
LINE
  5
403
100
AcDbEntity
  8
0
100
AcDbLine
 62
7
  6
CONTINUOUS
 10
417.0244582273
 20
377.1729143966
 11
416.9393518545
 21
377.756247412
  0
LINE
  5
404
100
AcDbEntity
  8
0
100
AcDbLine
 62
7
  6
CONTINUOUS
 10
417.0244582273
 20
382.6729139197
 11
416.9393518545
 21
383.256247412
  0
LINE
  5
405
100
AcDbEntity
  8
0
100
AcDbLine
 62
7
  6
CONTINUOUS
 10
417.0244582273
 20
386.3395807851
 11
416.9393518545
 21
386.9229140985
  0
LINE
  5
406
100
AcDbEntity
  8
0
100
AcDbLine
 62
7
  6
CONTINUOUS
 10
431.0244582273
 20
373.9229143966
 11
431.0244582273
 21
374.4229143966
  0
LINE
  5
407
100
AcDbEntity
  8
0
100
AcDbLine
 62
7
  6
CONTINUOUS
 10
431.0244582273
 20
375.5895804274
 11
431.0244582273
 21
378.5895809043
  0
LINE
  5
408
100
AcDbEntity
  8
0
100
AcDbLine
 62
7
  6
CONTINUOUS
 10
431.0244582273
 20
382.3395806659
 11
431.0244582273
 21
382.8395806659
  0
LINE
  5
409
100
AcDbEntity
  8
0
100
AcDbLine
 62
7
  6
CONTINUOUS
 10
431.0244582273
 20
384.756247412
 11
431.0244582273
 21
385.256247412
  0
LINE
  5
40A
100
AcDbEntity
  8
0
100
AcDbLine
 62
7
  6
CONTINUOUS
 10
431.4499901511
 20
382.756247412
 11
431.4499901511
 21
382.4229141581
  0
LINE
  5
40B
100
AcDbEntity
  8
0
100
AcDbLine
 62
7
  6
CONTINUOUS
 10
431.4499901511
 20
377.9229139197
 11
431.4499901511
 21
375.5895804274
  0
LINE
  5
40C
100
AcDbEntity
  8
0
100
AcDbLine
 62
7
  6
CONTINUOUS
 10
432.4712666847
 20
379.256247412
 11
432.4712666847
 21
380.4229139197
  0
LINE
  5
40D
100
AcDbEntity
  8
0
100
AcDbLine
 62
7
  6
CONTINUOUS
 10
432.8967986681
 20
380.4229139197
 11
432.8967986681
 21
379.256247412
  0
LINE
  5
40E
100
AcDbEntity
  8
0
100
AcDbLine
 62
7
  6
CONTINUOUS
 10
432.8967986681
 20
382.4229141581
 11
432.8967986681
 21
382.756247412
  0
LINE
  5
40F
100
AcDbEntity
  8
0
100
AcDbLine
 62
7
  6
CONTINUOUS
 10
433.2372241594
 20
382.756247412
 11
433.2372241594
 21
382.4229141581
  0
LINE
  5
410
100
AcDbEntity
  8
0
100
AcDbLine
 62
7
  6
CONTINUOUS
 10
434.0882881262
 20
378.0895809043
 11
434.0882881262
 21
378.506247412
  0
LINE
  5
411
100
AcDbEntity
  8
0
100
AcDbLine
 62
7
  6
CONTINUOUS
 10
434.5989263632
 20
376.9229143966
 11
434.5989263632
 21
377.256247412
  0
LINE
  5
412
100
AcDbEntity
  8
0
100
AcDbLine
 62
7
  6
CONTINUOUS
 10
434.5989263632
 20
382.4229141581
 11
434.5989263632
 21
382.756247412
  0
LINE
  5
413
100
AcDbEntity
  8
0
100
AcDbLine
 62
7
  6
CONTINUOUS
 10
435.0244582273
 20
385.256247412
 11
435.0244582273
 21
384.756247412
  0
LINE
  5
414
100
AcDbEntity
  8
0
100
AcDbLine
 62
7
  6
CONTINUOUS
 10
435.0244582273
 20
382.756247412
 11
435.0244582273
 21
382.4229141581
  0
LINE
  5
415
100
AcDbEntity
  8
0
100
AcDbLine
 62
7
  6
CONTINUOUS
 10
435.0244582273
 20
377.1729143966
 11
435.0244582273
 21
376.8395804274
  0
LINE
  5
416
100
AcDbEntity
  8
0
100
AcDbLine
 62
7
  6
CONTINUOUS
 10
435.0244582273
 20
374.4229143966
 11
435.0244582273
 21
373.9229143966
  0
LINE
  5
417
100
AcDbEntity
  8
0
100
AcDbLine
 62
7
  6
CONTINUOUS
 10
439.5373115543
 20
393.8429520832
 11
439.5373115543
 21
365.8362097253
  0
LINE
  5
418
100
AcDbEntity
  8
0
100
AcDbLine
 62
7
  6
CONTINUOUS
 10
434.9393518545
 20
376.3395804274
 11
435.0244582273
 21
376.8395804274
  0
LINE
  5
419
100
AcDbEntity
  8
0
100
AcDbLine
 62
7
  6
CONTINUOUS
 10
434.9393518545
 20
382.006247412
 11
435.0244582273
 21
382.4229141581
  0
LINE
  5
41A
100
AcDbEntity
  8
0
100
AcDbLine
 62
7
  6
CONTINUOUS
 10
434.5138199904
 20
376.506247412
 11
434.5989263632
 21
376.9229143966
  0
LINE
  5
41B
100
AcDbEntity
  8
0
100
AcDbLine
 62
7
  6
CONTINUOUS
 10
434.5138199904
 20
382.0895806658
 11
434.5989263632
 21
382.4229141581
  0
LINE
  5
41C
100
AcDbEntity
  8
0
100
AcDbLine
 62
7
  6
CONTINUOUS
 10
487.3223305322
 20
383.9229143966
 11
487.5776496507
 21
384.25624771
  0
LINE
  5
41D
100
AcDbEntity
  8
0
100
AcDbLine
 62
7
  6
CONTINUOUS
 10
488.4287136175
 20
375.0895813811
 11
488.684032736
 21
375.3395813811
  0
LINE
  5
41E
100
AcDbEntity
  8
0
100
AcDbLine
 62
7
  6
CONTINUOUS
 10
434.5989263631
 20
382.756247412
 11
434.5138199903
 21
383.0895806659
  0
LINE
  5
41F
100
AcDbEntity
  8
0
100
AcDbLine
 62
7
  6
CONTINUOUS
 10
449.5350965239
 20
382.006247412
 11
449.4499901511
 21
382.3395806658
  0
LINE
  5
420
100
AcDbEntity
  8
0
100
AcDbLine
 62
7
  6
CONTINUOUS
 10
434.5989263631
 20
377.256247412
 11
434.5138199903
 21
377.6729143966
  0
LINE
  5
421
100
AcDbEntity
  8
0
100
AcDbLine
 62
7
  6
CONTINUOUS
 10
435.0244582273
 20
382.756247412
 11
434.9393518545
 21
383.1729141581
  0
LINE
  5
422
100
AcDbEntity
  8
0
100
AcDbLine
 62
7
  6
CONTINUOUS
 10
435.0244582273
 20
377.1729143966
 11
434.9393518545
 21
377.756247412
  0
LINE
  5
423
100
AcDbEntity
  8
0
100
AcDbLine
 62
7
  6
CONTINUOUS
 10
444.5244582273
 20
366.0893923208
 11
444.5244582273
 21
393.5897694878
  0
LINE
  5
424
100
AcDbEntity
  8
0
100
AcDbLine
 62
7
  6
CONTINUOUS
 10
449.0244582273
 20
375.5895804274
 11
449.0244582273
 21
376.0895804274
  0
LINE
  5
425
100
AcDbEntity
  8
0
100
AcDbLine
 62
7
  6
CONTINUOUS
 10
449.0244582273
 20
377.5895804274
 11
449.0244582273
 21
378.0895809043
  0
LINE
  5
426
100
AcDbEntity
  8
0
100
AcDbLine
 62
7
  6
CONTINUOUS
 10
449.0244582273
 20
382.3395806659
 11
449.0244582273
 21
382.8395806659
  0
LINE
  5
427
100
AcDbEntity
  8
0
100
AcDbLine
 62
7
  6
CONTINUOUS
 10
449.0244582273
 20
384.756247412
 11
449.0244582273
 21
385.256247412
  0
LINE
  5
428
100
AcDbEntity
  8
0
100
AcDbLine
 62
7
  6
CONTINUOUS
 10
449.4499901511
 20
382.8395806659
 11
449.4499901511
 21
382.3395806659
  0
LINE
  5
429
100
AcDbEntity
  8
0
100
AcDbLine
 62
7
  6
CONTINUOUS
 10
450.0457348205
 20
384.0895807851
 11
450.0457348205
 21
383.5895806659
  0
LINE
  5
42A
100
AcDbEntity
  8
0
100
AcDbLine
 62
7
  6
CONTINUOUS
 10
450.4712666847
 20
379.256247412
 11
450.4712666847
 21
380.4229139197
  0
LINE
  5
42B
100
AcDbEntity
  8
0
100
AcDbLine
 62
7
  6
CONTINUOUS
 10
450.8116922952
 20
383.506247412
 11
450.8116922952
 21
384.0895807851
  0
LINE
  5
42C
100
AcDbEntity
  8
0
100
AcDbLine
 62
7
  6
CONTINUOUS
 10
450.8967986681
 20
380.4229139197
 11
450.8967986681
 21
379.256247412
  0
LINE
  5
42D
100
AcDbEntity
  8
0
100
AcDbLine
 62
7
  6
CONTINUOUS
 10
451.1521177866
 20
382.3395806659
 11
451.1521177866
 21
382.8395806659
  0
LINE
  5
42E
100
AcDbEntity
  8
0
100
AcDbLine
 62
7
  6
CONTINUOUS
 10
451.5776496507
 20
382.8395806659
 11
451.5776496507
 21
382.3395806659
  0
LINE
  5
42F
100
AcDbEntity
  8
0
100
AcDbLine
 62
7
  6
CONTINUOUS
 10
452.5989263632
 20
374.4229143966
 11
452.5989263632
 21
376.9229143966
  0
LINE
  5
430
100
AcDbEntity
  8
0
100
AcDbLine
 62
7
  6
CONTINUOUS
 10
452.5989263632
 20
381.256247412
 11
452.5989263632
 21
383.6729141581
  0
LINE
  5
431
100
AcDbEntity
  8
0
100
AcDbLine
 62
7
  6
CONTINUOUS
 10
453.0244582273
 20
385.256247412
 11
453.0244582273
 21
384.756247412
  0
LINE
  5
432
100
AcDbEntity
  8
0
100
AcDbLine
 62
7
  6
CONTINUOUS
 10
453.0244582273
 20
384.0895807851
 11
453.0244582273
 21
381.256247412
  0
LINE
  5
433
100
AcDbEntity
  8
0
100
AcDbLine
 62
7
  6
CONTINUOUS
 10
453.0244582273
 20
378.0895809043
 11
453.0244582273
 21
377.5895804274
  0
LINE
  5
434
100
AcDbEntity
  8
0
100
AcDbLine
 62
7
  6
CONTINUOUS
 10
453.0244582273
 20
376.9229143966
 11
453.0244582273
 21
373.9229143966
  0
LINE
  5
435
100
AcDbEntity
  8
0
100
AcDbLine
 62
7
  6
CONTINUOUS
 10
457.5373115543
 20
392.0106167539
 11
457.5373115543
 21
367.6685450547
  0
LINE
  5
436
100
AcDbEntity
  8
0
100
AcDbLine
 62
7
  6
CONTINUOUS
 10
449.0244582273
 20
382.8395806659
 11
449.1095646076
 21
383.256247412
  0
LINE
  5
437
100
AcDbEntity
  8
0
100
AcDbLine
 62
7
  6
CONTINUOUS
 10
451.4925432779
 20
381.9229141581
 11
451.5776496507
 21
382.3395806658
  0
LINE
  5
438
100
AcDbEntity
  8
0
100
AcDbLine
 62
7
  6
CONTINUOUS
 10
449.4499901511
 20
382.8395806659
 11
449.5350965239
 21
383.1729141581
  0
LINE
  5
439
100
AcDbEntity
  8
0
100
AcDbLine
 62
7
  6
CONTINUOUS
 10
451.0670114138
 20
382.006247412
 11
451.1521177866
 21
382.3395806659
  0
LINE
  5
43A
100
AcDbEntity
  8
0
100
AcDbLine
 62
7
  6
CONTINUOUS
 10
485.1095646076
 20
384.0895810831
 11
485.3648837485
 21
384.5062477398
  0
LINE
  5
43B
100
AcDbEntity
  8
0
100
AcDbLine
 62
7
  6
CONTINUOUS
 10
485.1095646076
 20
376.756247412
 11
485.3648837485
 21
377.1729143966
  0
LINE
  5
43C
100
AcDbEntity
  8
0
100
AcDbLine
 62
7
  6
CONTINUOUS
 10
488.684032736
 20
382.4229143966
 11
488.9393518545
 21
382.8395811427
  0
LINE
  5
43D
100
AcDbEntity
  8
0
100
AcDbLine
 62
7
  6
CONTINUOUS
 10
485.5350965239
 20
376.6729143966
 11
485.7053092696
 21
376.9229143966
  0
LINE
  5
43E
100
AcDbEntity
  8
0
100
AcDbLine
 62
7
  6
CONTINUOUS
 10
488.3436072447
 20
375.5895813811
 11
488.5138199903
 21
375.8395813811
  0
LINE
  5
43F
100
AcDbEntity
  8
0
100
AcDbLine
 62
7
  6
CONTINUOUS
 10
486.7265859224
 20
382.0895811427
 11
486.9819050409
 21
382.4229143966
  0
LINE
  5
440
100
AcDbEntity
  8
0
100
AcDbLine
 62
7
  6
CONTINUOUS
 10
488.2585008718
 20
382.5895811427
 11
488.5138199903
 21
382.9229143966
  0
LINE
  5
441
100
AcDbEntity
  8
0
100
AcDbLine
 62
7
  6
CONTINUOUS
 10
487.5776496507
 20
382.5895811427
 11
487.3223305322
 21
382.9229143966
  0
LINE
  5
442
100
AcDbEntity
  8
0
100
AcDbLine
 62
7
  6
CONTINUOUS
 10
486.9819050409
 20
384.4229143966
 11
486.7265859224
 21
384.7562477249
  0
LINE
  5
443
100
AcDbEntity
  8
0
100
AcDbLine
 62
7
  6
CONTINUOUS
 10
488.5138199903
 20
383.9229143966
 11
488.2585008718
 21
384.25624771
  0
LINE
  5
444
100
AcDbEntity
  8
0
100
AcDbLine
 62
7
  6
CONTINUOUS
 10
485.7053092696
 20
375.5895813811
 11
485.5350965239
 21
375.8395813811
  0
LINE
  5
445
100
AcDbEntity
  8
0
100
AcDbLine
 62
7
  6
CONTINUOUS
 10
488.5138199904
 20
376.6729143966
 11
488.3436072447
 21
376.9229143966
  0
LINE
  5
446
100
AcDbEntity
  8
0
100
AcDbLine
 62
7
  6
CONTINUOUS
 10
485.3648837485
 20
375.3395813811
 11
485.1095646076
 21
375.756247412
  0
LINE
  5
447
100
AcDbEntity
  8
0
100
AcDbLine
 62
7
  6
CONTINUOUS
 10
485.3648837485
 20
382.3395811427
 11
485.1095646076
 21
382.7562476504
  0
LINE
  5
448
100
AcDbEntity
  8
0
100
AcDbLine
 62
7
  6
CONTINUOUS
 10
488.9393518545
 20
376.756247412
 11
488.684032736
 21
377.1729143966
  0
LINE
  5
449
100
AcDbEntity
  8
0
100
AcDbLine
 62
7
  6
CONTINUOUS
 10
488.9393518545
 20
384.00624771
 11
488.684032736
 21
384.4229143966
  0
LINE
  5
44A
100
AcDbEntity
  8
0
100
AcDbLine
 62
7
  6
CONTINUOUS
 10
451.1521177865
 20
382.8395806658
 11
451.0670114137
 21
383.1729141581
  0
LINE
  5
44B
100
AcDbEntity
  8
0
100
AcDbLine
 62
7
  6
CONTINUOUS
 10
449.1095646076
 20
381.9229141581
 11
449.0244582273
 21
382.3395806659
  0
LINE
  5
44C
100
AcDbEntity
  8
0
100
AcDbLine
 62
7
  6
CONTINUOUS
 10
451.5776496507
 20
382.8395806659
 11
451.4925432779
 21
383.256247412
  0
LINE
  5
44D
100
AcDbEntity
  8
0
100
AcDbLine
 62
7
  6
CONTINUOUS
 10
462.5244582273
 20
367.9217276501
 11
462.5244582273
 21
391.7574341584
  0
LINE
  5
44E
100
AcDbEntity
  8
0
100
AcDbLine
 62
7
  6
CONTINUOUS
 10
467.0244582273
 20
375.5895813811
 11
467.0244582273
 21
376.0895813811
  0
LINE
  5
44F
100
AcDbEntity
  8
0
100
AcDbLine
 62
7
  6
CONTINUOUS
 10
467.0244582273
 20
378.7562478888
 11
467.0244582273
 21
379.2562478888
  0
LINE
  5
450
100
AcDbEntity
  8
0
100
AcDbLine
 62
7
  6
CONTINUOUS
 10
467.0244582273
 20
382.2562476504
 11
467.0244582273
 21
382.7562476504
  0
LINE
  5
451
100
AcDbEntity
  8
0
100
AcDbLine
 62
7
  6
CONTINUOUS
 10
467.0244582273
 20
383.9229143966
 11
467.0244582273
 21
384.4229143966
  0
LINE
  5
452
100
AcDbEntity
  8
0
100
AcDbLine
 62
7
  6
CONTINUOUS
 10
468.2159475662
 20
374.756247412
 11
468.2159475662
 21
375.5895813811
  0
LINE
  5
453
100
AcDbEntity
  8
0
100
AcDbLine
 62
7
  6
CONTINUOUS
 10
468.2159475662
 20
376.0895813811
 11
468.2159475662
 21
378.0895809043
  0
LINE
  5
454
100
AcDbEntity
  8
0
100
AcDbLine
 62
7
  6
CONTINUOUS
 10
468.4712666847
 20
380.4229143966
 11
468.4712666847
 21
381.5895811427
  0
LINE
  5
455
100
AcDbEntity
  8
0
100
AcDbLine
 62
7
  6
CONTINUOUS
 10
468.7265859224
 20
377.5062478888
 11
468.7265859224
 21
376.0895813811
  0
LINE
  5
456
100
AcDbEntity
  8
0
100
AcDbLine
 62
7
  6
CONTINUOUS
 10
468.7265859224
 20
375.5895813811
 11
468.7265859224
 21
374.756247412
  0
LINE
  5
457
100
AcDbEntity
  8
0
100
AcDbLine
 62
7
  6
CONTINUOUS
 10
468.8967986681
 20
381.5895811427
 11
468.8967986681
 21
380.4229143966
  0
LINE
  5
458
100
AcDbEntity
  8
0
100
AcDbLine
 62
7
  6
CONTINUOUS
 10
471.0244582273
 20
384.4229143966
 11
471.0244582273
 21
383.9229143966
  0
LINE
  5
459
100
AcDbEntity
  8
0
100
AcDbLine
 62
7
  6
CONTINUOUS
 10
471.0244582273
 20
382.7562476504
 11
471.0244582273
 21
382.2562476504
  0
LINE
  5
45A
100
AcDbEntity
  8
0
100
AcDbLine
 62
7
  6
CONTINUOUS
 10
471.0244582273
 20
379.2562478888
 11
471.0244582273
 21
378.7562478888
  0
LINE
  5
45B
100
AcDbEntity
  8
0
100
AcDbLine
 62
7
  6
CONTINUOUS
 10
471.0244582273
 20
376.0895813811
 11
471.0244582273
 21
375.5895813811
  0
LINE
  5
45C
100
AcDbEntity
  8
0
100
AcDbLine
 62
7
  6
CONTINUOUS
 10
485.5350965239
 20
383.9229143966
 11
485.7053092696
 21
384.25624771
  0
LINE
  5
45D
100
AcDbEntity
  8
0
100
AcDbLine
 62
7
  6
CONTINUOUS
 10
487.0670114138
 20
384.25624771
 11
487.1521177866
 21
384.4229143966
  0
LINE
  5
45E
100
AcDbEntity
  8
0
100
AcDbLine
 62
7
  6
CONTINUOUS
 10
486.6414795496
 20
382.5895811427
 11
486.8116922952
 21
382.9229143966
  0
LINE
  5
45F
100
AcDbEntity
  8
0
100
AcDbLine
 62
7
  6
CONTINUOUS
 10
486.9819050409
 20
382.4229143966
 11
487.0670114137
 21
382.5895811427
  0
LINE
  5
460
100
AcDbEntity
  8
0
100
AcDbLine
 62
7
  6
CONTINUOUS
 10
488.684032736
 20
375.3395813811
 11
488.9393518545
 21
375.756247412
  0
LINE
  5
461
100
AcDbEntity
  8
0
100
AcDbLine
 62
7
  6
CONTINUOUS
 10
485.7053092696
 20
382.5895811427
 11
485.5350965239
 21
382.9229143966
  0
LINE
  5
462
100
AcDbEntity
  8
0
100
AcDbLine
 62
7
  6
CONTINUOUS
 10
487.1521177866
 20
382.4229143965
 11
487.0670114137
 21
382.5895811427
  0
LINE
  5
463
100
AcDbEntity
  8
0
100
AcDbLine
 62
7
  6
CONTINUOUS
 10
486.8116922953
 20
383.9229143966
 11
486.6414795496
 21
384.25624771
  0
LINE
  5
464
100
AcDbEntity
  8
0
100
AcDbLine
 62
7
  6
CONTINUOUS
 10
487.0670114137
 20
384.25624771
 11
486.9819050409
 21
384.4229143965
  0
LINE
  5
465
100
AcDbEntity
  8
0
100
AcDbLine
 62
7
  6
CONTINUOUS
 10
475.5373115543
 20
390.1782814245
 11
475.5373115543
 21
369.500880384
  0
LINE
  5
466
100
AcDbEntity
  8
0
100
AcDbLine
 62
7
  6
CONTINUOUS
 10
480.5244582273
 20
369.7540629795
 11
480.5244582273
 21
389.9250988291
  0
LINE
  5
467
100
AcDbEntity
  8
0
100
AcDbLine
 62
7
  6
CONTINUOUS
 10
485.0244582273
 20
378.4229143966
 11
485.0244582273
 21
378.9229143966
  0
LINE
  5
468
100
AcDbEntity
  8
0
100
AcDbLine
 62
7
  6
CONTINUOUS
 10
485.0244582273
 20
383.1729143966
 11
485.0244582273
 21
383.6729143966
  0
LINE
  5
469
100
AcDbEntity
  8
0
100
AcDbLine
 62
7
  6
CONTINUOUS
 10
485.4499901511
 20
383.5895810235
 11
485.4499901511
 21
383.2562477696
  0
LINE
  5
46A
100
AcDbEntity
  8
0
100
AcDbLine
 62
7
  6
CONTINUOUS
 10
486.4712666847
 20
380.0895809043
 11
486.4712666847
 21
381.2562476504
  0
LINE
  5
46B
100
AcDbEntity
  8
0
100
AcDbLine
 62
7
  6
CONTINUOUS
 10
486.8967986681
 20
381.2562476504
 11
486.8967986681
 21
380.0895809043
  0
LINE
  5
46C
100
AcDbEntity
  8
0
100
AcDbLine
 62
7
  6
CONTINUOUS
 10
486.8967986681
 20
383.2562477696
 11
486.8967986681
 21
383.5895810235
  0
LINE
  5
46D
100
AcDbEntity
  8
0
100
AcDbLine
 62
7
  6
CONTINUOUS
 10
487.2372241594
 20
383.5895810235
 11
487.2372241594
 21
383.2562477696
  0
LINE
  5
46E
100
AcDbEntity
  8
0
100
AcDbLine
 62
7
  6
CONTINUOUS
 10
488.5989263632
 20
383.2562477696
 11
488.5989263632
 21
383.5895810235
  0
LINE
  5
46F
100
AcDbEntity
  8
0
100
AcDbLine
 62
7
  6
CONTINUOUS
 10
489.0244582273
 20
383.5895810235
 11
489.0244582273
 21
383.2562477696
  0
LINE
  5
470
100
AcDbEntity
  8
0
100
AcDbLine
 62
7
  6
CONTINUOUS
 10
489.0244582273
 20
378.9229143966
 11
489.0244582273
 21
378.4229143966
  0
LINE
  5
471
100
AcDbEntity
  8
0
100
AcDbLine
 62
7
  6
CONTINUOUS
 10
493.5373115543
 20
388.3459460952
 11
493.5373115543
 21
371.3332157134
  0
LINE
  5
472
100
AcDbEntity
  8
0
100
AcDbLine
 62
7
  6
CONTINUOUS
 10
498.5244582273
 20
371.5863983088
 11
498.5244582273
 21
388.0927634997
  0
LINE
  5
473
100
AcDbEntity
  8
0
100
AcDbLine
 62
7
  6
CONTINUOUS
 10
485.0244582273
 20
376.256247412
 11
485.1095646076
 21
376.756247412
  0
LINE
  5
474
100
AcDbEntity
  8
0
100
AcDbLine
 62
7
  6
CONTINUOUS
 10
488.9393518545
 20
375.756247412
 11
489.0244582273
 21
376.256247412
  0
LINE
  5
475
100
AcDbEntity
  8
0
100
AcDbLine
 62
7
  6
CONTINUOUS
 10
485.0244582273
 20
383.6729143965
 11
485.1095646076
 21
384.0895810831
  0
LINE
  5
476
100
AcDbEntity
  8
0
100
AcDbLine
 62
7
  6
CONTINUOUS
 10
485.4499901511
 20
376.256247412
 11
485.5350965239
 21
376.6729143965
  0
LINE
  5
477
100
AcDbEntity
  8
0
100
AcDbLine
 62
7
  6
CONTINUOUS
 10
488.9393518545
 20
382.8395811427
 11
489.0244582273
 21
383.2562477696
  0
LINE
  5
478
100
AcDbEntity
  8
0
100
AcDbLine
 62
7
  6
CONTINUOUS
 10
488.5138199904
 20
375.8395813811
 11
488.5989263632
 21
376.256247412
  0
LINE
  5
479
100
AcDbEntity
  8
0
100
AcDbLine
 62
7
  6
CONTINUOUS
 10
485.4499901511
 20
383.5895810235
 11
485.5350965239
 21
383.9229143965
  0
LINE
  5
47A
100
AcDbEntity
  8
0
100
AcDbLine
 62
7
  6
CONTINUOUS
 10
486.8116922953
 20
382.9229143965
 11
486.8967986681
 21
383.2562477696
  0
LINE
  5
47B
100
AcDbEntity
  8
0
100
AcDbLine
 62
7
  6
CONTINUOUS
 10
487.2372241594
 20
383.5895810235
 11
487.3223305322
 21
383.9229143965
  0
LINE
  5
47C
100
AcDbEntity
  8
0
100
AcDbLine
 62
7
  6
CONTINUOUS
 10
488.5138199904
 20
382.9229143965
 11
488.5989263632
 21
383.2562477696
  0
LINE
  5
47D
100
AcDbEntity
  8
0
100
AcDbLine
 62
7
  6
CONTINUOUS
 10
485.5350965239
 20
382.9229143966
 11
485.4499901511
 21
383.2562477696
  0
LINE
  5
47E
100
AcDbEntity
  8
0
100
AcDbLine
 62
7
  6
CONTINUOUS
 10
486.896798668
 20
383.5895810235
 11
486.8116922952
 21
383.9229143966
  0
LINE
  5
47F
100
AcDbEntity
  8
0
100
AcDbLine
 62
7
  6
CONTINUOUS
 10
487.3223305322
 20
382.9229143966
 11
487.2372241594
 21
383.2562477696
  0
LINE
  5
480
100
AcDbEntity
  8
0
100
AcDbLine
 62
7
  6
CONTINUOUS
 10
488.5989263631
 20
383.5895810235
 11
488.5138199903
 21
383.9229143966
  0
LINE
  5
481
100
AcDbEntity
  8
0
100
AcDbLine
 62
7
  6
CONTINUOUS
 10
485.5350965239
 20
375.8395813811
 11
485.4499901511
 21
376.256247412
  0
LINE
  5
482
100
AcDbEntity
  8
0
100
AcDbLine
 62
7
  6
CONTINUOUS
 10
485.1095646076
 20
382.7562476504
 11
485.0244582273
 21
383.1729143966
  0
LINE
  5
483
100
AcDbEntity
  8
0
100
AcDbLine
 62
7
  6
CONTINUOUS
 10
488.5989263631
 20
376.256247412
 11
488.5138199903
 21
376.6729143966
  0
LINE
  5
484
100
AcDbEntity
  8
0
100
AcDbLine
 62
7
  6
CONTINUOUS
 10
489.0244582273
 20
383.5895810235
 11
488.9393518545
 21
384.00624771
  0
LINE
  5
485
100
AcDbEntity
  8
0
100
AcDbLine
 62
7
  6
CONTINUOUS
 10
485.1095646076
 20
375.756247412
 11
485.0244582273
 21
376.256247412
  0
LINE
  5
486
100
AcDbEntity
  8
0
100
AcDbLine
 62
7
  6
CONTINUOUS
 10
489.0244582273
 20
376.256247412
 11
488.9393518545
 21
376.756247412
  0
ARC
  5
487
100
AcDbEntity
  8
0
100
AcDbCircle
 62
7
  6
CONTINUOUS
 10
269.6132154747
 20
119.4227098772
 40
303.6747519603
100
AcDbArc
 50
129.6919884491
 51
129.9372252384
  0
ARC
  5
488
100
AcDbEntity
  8
0
100
AcDbCircle
 62
7
  6
CONTINUOUS
 10
103.9514979013
 20
120.432190402
 40
302.3605330866
100
AcDbArc
 50
50.0622417979
 51
50.3085445177
  0
ARC
  5
489
100
AcDbEntity
  8
0
100
AcDbCircle
 62
7
  6
CONTINUOUS
 10
211.3360683102
 20
382.2402659603
 40
147.8948956053
100
AcDbArc
 50
175.7575722069
 51
179.0510705306
  0
ARC
  5
48A
100
AcDbEntity
  8
0
100
AcDbCircle
 62
7
  6
CONTINUOUS
 10
162.3667492915
 20
383.741819368
 40
146.9079325333
100
AcDbArc
 50
351.5503517624
 51
356.595994966
  0
ARC
  5
48B
100
AcDbEntity
  8
0
100
AcDbCircle
 62
7
  6
CONTINUOUS
 10
162.645506998
 20
382.322606567
 40
146.6342673107
100
AcDbArc
 50
2.4952663242
 51
7.4525108667
  0
ARC
  5
48C
100
AcDbEntity
  8
0
100
AcDbCircle
 62
7
  6
CONTINUOUS
 10
210.0205568502
 20
382.3353801104
 40
146.5759524758
100
AcDbArc
 50
172.5495371702
 51
175.7566091778
  0
ARC
  5
48D
100
AcDbEntity
  8
0
100
AcDbCircle
 62
7
  6
CONTINUOUS
 10
190.6116049004
 20
383.8395809043
 40
130.0
100
AcDbArc
 50
182.2042275496
 51
190.4084575514
  0
ARC
  5
48E
100
AcDbEntity
  8
0
100
AcDbCircle
 62
7
  6
CONTINUOUS
 10
190.6116058873
 20
381.8395809043
 40
127.5341522887
100
AcDbArc
 50
174.890040476
 51
178.7195071847
  0
ARC
  5
48F
100
AcDbEntity
  8
0
100
AcDbCircle
 62
7
  6
CONTINUOUS
 10
96.5771319055
 20
414.1044033182
 40
66.4306320514
100
AcDbArc
 50
250.261761636
 51
250.6990929481
  0
ARC
  5
490
100
AcDbEntity
  8
0
100
AcDbCircle
 62
7
  6
CONTINUOUS
 10
45.2079077953
 20
313.5972595473
 40
47.5669748364
100
AcDbArc
 50
53.3795991298
 51
54.7434762553
  0
ARC
  5
491
100
AcDbEntity
  8
0
100
AcDbCircle
 62
7
  6
CONTINUOUS
 10
86.6665462511
 20
386.0056644575
 40
36.6660544601
100
AcDbArc
 50
264.0350925656
 51
268.7865656671
  0
ARC
  5
492
100
AcDbEntity
  8
0
100
AcDbCircle
 62
7
  6
CONTINUOUS
 10
86.6183060798
 20
385.536883438
 40
36.1947984692
100
AcDbArc
 50
262.3627163143
 51
264.0339268281
  0
ARC
  5
493
100
AcDbEntity
  8
0
100
AcDbCircle
 62
7
  6
CONTINUOUS
 10
86.5160438176
 20
384.7979798272
 40
35.4488588199
100
AcDbArc
 50
258.4354232473
 51
262.3678138141
  0
ARC
  5
494
100
AcDbEntity
  8
0
100
AcDbCircle
 62
7
  6
CONTINUOUS
 10
86.4398755156
 20
384.4000625041
 40
35.0437502122
100
AcDbArc
 50
257.9690817568
 51
258.4270041769
  0
ARC
  5
495
100
AcDbEntity
  8
0
100
AcDbCircle
 62
7
  6
CONTINUOUS
 10
86.319026498
 20
383.8704814075
 40
34.5006124004
100
AcDbArc
 50
253.3404625829
 51
257.9820502774
  0
ARC
  5
496
100
AcDbEntity
  8
0
100
AcDbCircle
 62
7
  6
CONTINUOUS
 10
86.6684499827
 20
382.258676409
 40
32.9190955048
100
AcDbArc
 50
269.7940851319
 51
269.9999844918
  0
ARC
  5
497
100
AcDbEntity
  8
0
100
AcDbCircle
 62
7
  6
CONTINUOUS
 10
86.668427664
 20
377.1711442187
 40
27.8315633143
100
AcDbArc
 50
269.5076379343
 51
270.0000241694
  0
ARC
  5
498
100
AcDbEntity
  8
0
100
AcDbCircle
 62
7
  6
CONTINUOUS
 10
80.3778624491
 20
372.0413231517
 40
21.0570465516
100
AcDbArc
 50
253.1038896272
 51
253.2816235933
  0
ARC
  5
499
100
AcDbEntity
  8
0
100
AcDbCircle
 62
7
  6
CONTINUOUS
 10
80.1455641995
 20
371.2928267033
 40
20.2733462424
100
AcDbArc
 50
251.3203539958
 51
253.117256712
  0
ARC
  5
49A
100
AcDbEntity
  8
0
100
AcDbCircle
 62
7
  6
CONTINUOUS
 10
74.6672300028
 20
362.8780711817
 40
11.0091722696
100
AcDbArc
 50
268.1962589703
 51
270.0135682895
  0
ARC
  5
49B
100
AcDbEntity
  8
0
100
AcDbCircle
 62
7
  6
CONTINUOUS
 10
74.6529837172
 20
362.4520098451
 40
10.1871561537
100
AcDbArc
 50
258.735402301
 51
270.0947844198
  0
ARC
  5
49C
100
AcDbEntity
  8
0
100
AcDbCircle
 62
7
  6
CONTINUOUS
 10
327.5199726167
 20
313.5910294299
 40
47.5747624545
100
AcDbArc
 50
125.2567881647
 51
126.6204374605
  0
ARC
  5
49D
100
AcDbEntity
  8
0
100
AcDbCircle
 62
7
  6
CONTINUOUS
 10
298.0494257949
 20
363.2424118615
 40
11.3735414744
100
AcDbArc
 50
270.6067302282
 51
271.7806704886
  0
ARC
  5
49E
100
AcDbEntity
  8
0
100
AcDbCircle
 62
7
  6
CONTINUOUS
 10
298.0574031337
 20
362.2419492646
 40
10.3730508272
100
AcDbArc
 50
269.9777378213
 51
270.6211866635
  0
ARC
  5
49F
100
AcDbEntity
  8
0
100
AcDbCircle
 62
7
  6
CONTINUOUS
 10
298.0700358029
 20
362.454014687
 40
10.1891642554
100
AcDbArc
 50
269.906303883
 51
281.2634690418
  0
ARC
  5
4A0
100
AcDbEntity
  8
0
100
AcDbCircle
 62
7
  6
CONTINUOUS
 10
332.0116049004
 20
361.8985999661
 40
3.0
100
AcDbArc
 50
271.0
 51
347.3101713457
  0
ARC
  5
4A1
100
AcDbEntity
  8
0
100
AcDbCircle
 62
7
  6
CONTINUOUS
 10
276.3033534326
 20
413.6896510939
 40
65.9872077574
100
AcDbArc
 50
289.2876981995
 51
289.9072709256
  0
ARC
  5
4A2
100
AcDbEntity
  8
0
100
AcDbCircle
 62
7
  6
CONTINUOUS
 10
286.4060077808
 20
383.8631266856
 40
34.4930433744
100
AcDbArc
 50
282.0176301863
 51
286.6601365441
  0
ARC
  5
4A3
100
AcDbEntity
  8
0
100
AcDbCircle
 62
7
  6
CONTINUOUS
 10
293.3046090303
 20
368.9111676419
 40
17.7832527575
100
AcDbArc
 50
286.6595126992
 51
286.8706186914
  0
ARC
  5
4A4
100
AcDbEntity
  8
0
100
AcDbCircle
 62
7
  6
CONTINUOUS
 10
314.4841535185
 20
379.7882428855
 40
10.7212652774
100
AcDbArc
 50
152.795974873
 51
154.3080990302
  0
ARC
  5
4A5
100
AcDbEntity
  8
0
100
AcDbCircle
 62
7
  6
CONTINUOUS
 10
313.9673027774
 20
379.6114747468
 40
10.305831435
100
AcDbArc
 50
165.200171064
 51
167.3374045938
  0
ARC
  5
4A6
100
AcDbEntity
  8
0
100
AcDbCircle
 62
7
  6
CONTINUOUS
 10
313.6825196003
 20
379.6771497977
 40
10.0135783489
100
AcDbArc
 50
167.3468488581
 51
167.5287389929
  0
ARC
  5
4A7
100
AcDbEntity
  8
0
100
AcDbCircle
 62
7
  6
CONTINUOUS
 10
325.0116049004
 20
406.8395809043
 40
10.0
100
AcDbArc
 50
0.0
 51
180.0
  0
ARC
  5
4A8
100
AcDbEntity
  8
0
100
AcDbCircle
 62
7
  6
CONTINUOUS
 10
309.0116049004
 20
406.8395809043
 40
6.0
100
AcDbArc
 50
288.7263761747
 51
360.0
  0
ARC
  5
4A9
100
AcDbEntity
  8
0
100
AcDbCircle
 62
7
  6
CONTINUOUS
 10
325.0116049004
 20
406.8395809043
 40
6.0
100
AcDbArc
 50
318.1896132614
 51
221.8103749132
  0
CIRCLE
  5
4AA
100
AcDbEntity
  8
0
100
AcDbCircle
 62
7
  6
CONTINUOUS
 10
325.0116049004
 20
406.8395809043
 40
4.0
  0
ARC
  5
4AB
100
AcDbEntity
  8
0
100
AcDbCircle
 62
7
  6
CONTINUOUS
 10
327.0116049004
 20
374.3113246415
 40
3.0
100
AcDbArc
 50
271.0
 51
360.0
  0
ARC
  5
4AC
100
AcDbEntity
  8
0
100
AcDbCircle
 62
7
  6
CONTINUOUS
 10
327.0116049004
 20
385.3678371671
 40
3.0
100
AcDbArc
 50
0.0
 51
89.0
  0
ARC
  5
4AD
100
AcDbEntity
  8
0
100
AcDbCircle
 62
7
  6
CONTINUOUS
 10
460.0244582273
 20
367.9217276501
 40
2.5
100
AcDbArc
 50
185.8124823835
 51
360.0
  0
ARC
  5
4AE
100
AcDbEntity
  8
0
100
AcDbCircle
 62
7
  6
CONTINUOUS
 10
478.0244582273
 20
389.9250988291
 40
2.5
100
AcDbArc
 50
0.0
 51
174.1875176165
  0
ARC
  5
4AF
100
AcDbEntity
  8
0
100
AcDbCircle
 62
7
  6
CONTINUOUS
 10
460.0244582273
 20
391.7574341584
 40
2.5
100
AcDbArc
 50
0.0
 51
174.1875176165
  0
ARC
  5
4B0
100
AcDbEntity
  8
0
100
AcDbCircle
 62
7
  6
CONTINUOUS
 10
478.0244582273
 20
369.7540629795
 40
2.5
100
AcDbArc
 50
185.8124823835
 51
360.0
  0
ARC
  5
4B1
100
AcDbEntity
  8
0
100
AcDbCircle
 62
7
  6
CONTINUOUS
 10
442.0244582273
 20
366.0893923208
 40
2.5
100
AcDbArc
 50
185.8124823832
 51
360.0
  0
ARC
  5
4B2
100
AcDbEntity
  8
0
100
AcDbCircle
 62
7
  6
CONTINUOUS
 10
442.0244582273
 20
393.5897694878
 40
2.5
100
AcDbArc
 50
0.0
 51
174.1875176168
  0
ARC
  5
4B3
100
AcDbEntity
  8
0
100
AcDbCircle
 62
7
  6
CONTINUOUS
 10
424.0244582273
 20
364.2570569914
 40
2.5
100
AcDbArc
 50
185.8124823832
 51
360.0
  0
ARC
  5
4B4
100
AcDbEntity
  8
0
100
AcDbCircle
 62
7
  6
CONTINUOUS
 10
424.0244582273
 20
395.4221048171
 40
2.5
100
AcDbArc
 50
0.0
 51
174.1875176168
  0
ARC
  5
4B5
100
AcDbEntity
  8
0
100
AcDbCircle
 62
7
  6
CONTINUOUS
 10
496.0244582273
 20
388.0927634997
 40
2.5
100
AcDbArc
 50
0.0
 51
174.1875176167
  0
ARC
  5
4B6
100
AcDbEntity
  8
0
100
AcDbCircle
 62
7
  6
CONTINUOUS
 10
496.0244582273
 20
371.5863983088
 40
2.5
100
AcDbArc
 50
185.8124823833
 51
360.0
  0
SPLINE
  5
4B7
100
AcDbEntity
  8
0
100
AcDbSpline
 62
7
  6
CONTINUOUS
 70
0
 71
3
 72
11
 73
7
 74
0
 42
0.0000001
 43
0.0000001
 44
0.0000000001
 40
0.0
 40
0.0
 40
0.0
 40
0.0
 40
0.250048298
 40
0.500032972
 40
0.7500208542
 40
1.0
 40
1.0
 40
1.0
 40
1.0
 10
334.9383255697
 20
398.1960511532
 30
0.0
 10
334.8660469441
 20
398.5213008897
 30
0.0
 10
334.6127237981
 20
399.1528656234
 30
0.0
 10
333.9472388241
 20
399.9223866404
 30
0.0
 10
333.0664699832
 20
400.4321105294
 30
0.0
 10
332.397002201
 20
400.5582226662
 30
0.0
 10
332.0639621197
 20
400.5640964929
 30
0.0
  0
SPLINE
  5
4B8
100
AcDbEntity
  8
0
100
AcDbSpline
 62
7
  6
CONTINUOUS
 70
0
 71
3
 72
15
 73
11
 74
0
 42
0.0000001
 43
0.0000001
 44
0.0000000001
 40
0.0
 40
0.0
 40
0.0
 40
0.0
 40
0.1239192424
 40
0.2459199159
 40
0.370438267
 40
0.4988293238
 40
0.6275806136
 40
0.7529472022
 40
0.8757472625
 40
1.0
 40
1.0
 40
1.0
 40
1.0
 10
315.1116049012
 20
381.8600024936
 30
0.0
 10
315.1115973005
 20
382.1745708915
 30
0.0
 10
315.2292588344
 20
382.8085740458
 30
0.0
 10
315.7932151503
 20
383.5982221429
 30
0.0
 10
316.6398949067
 20
384.086584321
 30
0.0
 10
317.6156000531
 20
384.2412731175
 30
0.0
 10
318.5900340579
 20
384.0670321763
 30
0.0
 10
319.4327713713
 20
383.5632982334
 30
0.0
 10
319.9934413136
 20
382.7664123267
 30
0.0
 10
320.1116049004
 20
382.1299146107
 30
0.0
 10
320.1116049004
 20
381.8144996373
 30
0.0
  0
SPLINE
  5
4B9
100
AcDbEntity
  8
0
100
AcDbSpline
 62
7
  6
CONTINUOUS
 70
0
 71
3
 72
15
 73
11
 74
0
 42
0.0000001
 43
0.0000001
 44
0.0000000001
 40
0.0
 40
0.0
 40
0.0
 40
0.0
 40
0.1242579473
 40
0.2470644351
 40
0.3724331331
 40
0.5011836549
 40
0.6295741338
 40
0.7540902618
 40
0.876085046
 40
1.0
 40
1.0
 40
1.0
 40
1.0
 10
320.1116049004
 20
377.8646650323
 30
0.0
 10
320.1116049004
 20
377.5492391927
 30
0.0
 10
319.9934291323
 20
376.912717227
 30
0.0
 10
319.4327296867
 20
376.1158131551
 30
0.0
 10
318.5899596646
 20
375.6121074247
 30
0.0
 10
317.6155299382
 20
375.4378888806
 30
0.0
 10
316.6398424545
 20
375.5925943427
 30
0.0
 10
315.7932038586
 20
376.0809637999
 30
0.0
 10
315.2292676964
 20
376.8705729189
 30
0.0
 10
315.1116049014
 20
377.5045431869
 30
0.0
 10
315.1116049004
 20
377.819098346
 30
0.0
  0
SPLINE
  5
4BA
100
AcDbEntity
  8
0
100
AcDbSpline
 62
7
  6
CONTINUOUS
 70
0
 71
3
 72
12
 73
8
 74
0
 42
0.0000001
 43
0.0000001
 44
0.0000000001
 40
0.0
 40
0.0
 40
0.0
 40
0.0
 40
0.252334453
 40
0.3753157295
 40
0.4971513858
 40
0.744301342
 40
1.0
 40
1.0
 40
1.0
 40
1.0
 10
332.063962616
 20
377.0205872929
 30
0.0
 10
332.4009687429
 20
377.0280165188
 30
0.0
 10
332.911758467
 20
377.1488852421
 30
0.0
 10
333.4631420613
 20
377.5292248711
 30
0.0
 10
333.8994066715
 20
378.0297672308
 30
0.0
 10
334.2154771398
 20
378.824157993
 30
0.0
 10
334.2836621874
 20
379.4979987324
 30
0.0
 10
334.2836621874
 20
379.8395809043
 30
0.0
  0
SPLINE
  5
4BB
100
AcDbEntity
  8
0
100
AcDbSpline
 62
7
  6
CONTINUOUS
 70
0
 71
3
 72
12
 73
8
 74
0
 42
0.0000001
 43
0.0000001
 44
0.0000000001
 40
0.0
 40
0.0
 40
0.0
 40
0.0
 40
0.2511957208
 40
0.3749380642
 40
0.4980275874
 40
0.7457201421
 40
1.0
 40
1.0
 40
1.0
 40
1.0
 10
320.1116049004
 20
380.5064270682
 30
0.0
 10
320.1117092996
 20
380.8317994641
 30
0.0
 10
320.0285134496
 20
381.3260941708
 30
0.0
 10
319.7267506151
 20
381.9010611216
 30
0.0
 10
319.3106918251
 20
382.3946223433
 30
0.0
 10
318.5973412593
 20
382.8255729793
 30
0.0
 10
317.9409591561
 20
382.9361572154
 30
0.0
 10
317.6115918779
 20
382.9361536324
 30
0.0
  0
SPLINE
  5
4BC
100
AcDbEntity
  8
0
100
AcDbSpline
 62
7
  6
CONTINUOUS
 70
0
 71
3
 72
8
 73
4
 74
0
 42
0.0000001
 43
0.0000001
 44
0.0000000001
 40
0.0
 40
0.0
 40
0.0
 40
0.0
 40
1.0
 40
1.0
 40
1.0
 40
1.0
 10
330.0116049004
 20
376.9758205134
 30
0.0
 10
330.6957277544
 20
376.9905760894
 30
0.0
 10
331.3798466009
 20
377.0055179783
 30
0.0
 10
332.063962616
 20
377.0205872929
 30
0.0
  0
SPLINE
  5
4BD
100
AcDbEntity
  8
0
100
AcDbSpline
 62
7
  6
CONTINUOUS
 70
0
 71
3
 72
12
 73
8
 74
0
 42
0.0000001
 43
0.0000001
 44
0.0000000001
 40
0.0
 40
0.0
 40
0.0
 40
0.0
 40
0.255654687
 40
0.5027783578
 40
0.6246371683
 40
0.7476478199
 40
1.0
 40
1.0
 40
1.0
 40
1.0
 10
334.2836621874
 20
379.8395809043
 30
0.0
 10
334.2836621874
 20
380.18110044
 30
0.0
 10
334.2157369551
 20
380.8549541974
 30
0.0
 10
333.8991659404
 20
381.6489009366
 30
0.0
 10
333.4635072364
 20
382.1500432889
 30
0.0
 10
332.9116330759
 20
382.5298857867
 30
0.0
 10
332.400988589
 20
382.6511453494
 30
0.0
 10
332.0639626204
 20
382.6585745149
 30
0.0
  0
SPLINE
  5
4BE
100
AcDbEntity
  8
0
100
AcDbSpline
 62
7
  6
CONTINUOUS
 70
0
 71
3
 72
8
 73
4
 74
0
 42
0.0000001
 43
0.0000001
 44
0.0000000001
 40
0.0
 40
0.0
 40
0.0
 40
0.0
 40
1.0
 40
1.0
 40
1.0
 40
1.0
 10
332.0639626204
 20
382.6585745149
 30
0.0
 10
331.3798468112
 20
382.673653238
 30
0.0
 10
330.6957275618
 20
382.6885767228
 30
0.0
 10
330.0116049004
 20
382.7033412952
 30
0.0
  0
SPLINE
  5
4BF
100
AcDbEntity
  8
0
100
AcDbSpline
 62
7
  6
CONTINUOUS
 70
0
 71
3
 72
15
 73
11
 74
0
 42
0.0000001
 43
0.0000001
 44
0.0000000001
 40
0.0
 40
0.0
 40
0.0
 40
0.0
 40
0.1257864176
 40
0.2486612832
 40
0.3726908716
 40
0.5000123772
 40
0.6273331366
 40
0.7513601473
 40
0.8742244444
 40
1.0
 40
1.0
 40
1.0
 40
1.0
 10
315.1116049004
 20
379.1717722414
 30
0.0
 10
315.1116049014
 20
378.8464669727
 30
0.0
 10
315.2197731322
 20
378.1937378411
 30
0.0
 10
315.7734499014
 20
377.3666381774
 30
0.0
 10
316.6269153959
 20
376.8539814543
 30
0.0
 10
317.6117037631
 20
376.6870891055
 30
0.0
 10
318.596478204
 20
376.8540413624
 30
0.0
 10
319.4498675397
 20
377.3667527621
 30
0.0
 10
320.0034631357
 20
378.193822375
 30
0.0
 10
320.1116049004
 20
378.8464950382
 30
0.0
 10
320.1116049004
 20
379.1717722159
 30
0.0
  0
LINE
  5
4C0
100
AcDbEntity
  8
0
100
AcDbLine
 62
7
  6
CONTINUOUS
 10
332.0639621197
 20
400.5640964929
 11
310.1592322962
 21
400.9503575802
  0
SPLINE
  5
4C1
100
AcDbEntity
  8
0
100
AcDbSpline
 62
7
  6
CONTINUOUS
 70
0
 71
3
 72
11
 73
7
 74
0
 42
0.0000001
 43
0.0000001
 44
0.0000000001
 40
0.0
 40
0.0
 40
0.0
 40
0.0
 40
0.254663852
 40
0.5027174207
 40
0.7484511997
 40
1.0
 40
1.0
 40
1.0
 40
1.0
 10
317.6115918779
 20
382.9361536324
 30
0.0
 10
317.282274705
 20
382.9361500499
 30
0.0
 10
316.6259300431
 20
382.8250408101
 30
0.0
 10
315.7735112441
 20
382.3123936374
 30
0.0
 10
315.2196061448
 20
381.4852419764
 30
0.0
 10
315.1115975565
 20
380.832530079
 30
0.0
 10
315.1116049004
 20
380.5072411183
 30
0.0
  0
SPLINE
  5
4C2
100
AcDbEntity
  8
0
100
AcDbSpline
 62
7
  6
CONTINUOUS
 70
0
 71
3
 72
18
 73
14
 74
0
 42
0.0000001
 43
0.0000001
 44
0.0000000001
 40
0.0
 40
0.0
 40
0.0
 40
0.0
 40
0.0039815934
 40
0.0159343252
 40
0.0358584642
 40
0.0637493844
 40
0.0995663761
 40
0.143252594
 40
0.2540050455
 40
0.3955513622
 40
0.5674151684
 40
0.7690737924
 40
1.0
 40
1.0
 40
1.0
 40
1.0
 10
258.112817351
 20
412.3394329038
 30
0.0
 10
258.1189002426
 20
412.3392903314
 30
0.0
 10
258.0693999113
 20
412.3214258664
 30
0.0
 10
258.0478745738
 20
412.3023021432
 30
0.0
 10
257.9515888298
 20
412.2562698119
 30
0.0
 10
257.8452096733
 20
412.19850859
 30
0.0
 10
257.6972198466
 20
412.1216977388
 30
0.0
 10
257.4409225117
 20
411.9870801848
 30
0.0
 10
257.0393188079
 20
411.7772258293
 30
0.0
 10
256.4651130407
 20
411.4772477474
 30
0.0
 10
255.7668769797
 20
411.113634786
 30
0.0
 10
254.946582592
 20
410.6890602233
 30
0.0
 10
254.3584942522
 20
410.387107429
 30
0.0
 10
254.0442732847
 20
410.2264831765
 30
0.0
  0
SPLINE
  5
4C3
100
AcDbEntity
  8
0
100
AcDbSpline
 62
7
  6
CONTINUOUS
 70
0
 71
3
 72
11
 73
7
 74
0
 42
0.0000001
 43
0.0000001
 44
0.0000000001
 40
0.0
 40
0.0
 40
0.0
 40
0.0
 40
0.1489655834
 40
0.3743305556
 40
0.6622793641
 40
1.0
 40
1.0
 40
1.0
 40
1.0
 10
309.1407235976
 20
388.7065995275
 30
0.0
 10
308.9640619443
 20
388.5540255421
 30
0.0
 10
308.5905979569
 20
388.0950525903
 30
0.0
 10
308.0090939739
 20
387.2369311714
 30
0.0
 10
307.3543394329
 20
386.0724933903
 30
0.0
 10
306.9442512339
 20
385.18048869
 30
0.0
 10
306.7466002276
 20
384.6895809043
 30
0.0
  0
SPLINE
  5
4C4
100
AcDbEntity
  8
0
100
AcDbSpline
 62
7
  6
CONTINUOUS
 70
0
 71
3
 72
9
 73
5
 74
0
 42
0.0000001
 43
0.0000001
 44
0.0000000001
 40
0.0
 40
0.0
 40
0.0
 40
0.0
 40
0.227504297
 40
1.0
 40
1.0
 40
1.0
 40
1.0
 10
309.4485509517
 20
388.8395809043
 30
0.0
 10
309.4227849197
 20
388.8395809043
 30
0.0
 10
309.3092403015
 20
388.827038904
 30
0.0
 10
309.2069413159
 20
388.7637795815
 30
0.0
 10
309.1407235976
 20
388.7065995275
 30
0.0
  0
SPLINE
  5
4C5
100
AcDbEntity
  8
0
100
AcDbSpline
 62
7
  6
CONTINUOUS
 70
0
 71
3
 72
9
 73
5
 74
0
 42
0.0000001
 43
0.0000001
 44
0.0000000001
 40
0.0
 40
0.0
 40
0.0
 40
0.0
 40
0.258423392
 40
1.0
 40
1.0
 40
1.0
 40
1.0
 10
304.0033760472
 20
382.2440259203
 30
0.0
 10
304.0548881635
 20
382.4391223838
 30
0.0
 10
304.2758055418
 20
383.1883642193
 30
0.0
 10
304.5728986441
 20
383.9139162617
 30
0.0
 10
304.8228019099
 20
384.4362513411
 30
0.0
  0
SPLINE
  5
4C6
100
AcDbEntity
  8
0
100
AcDbSpline
 62
7
  6
CONTINUOUS
 70
0
 71
3
 72
11
 73
7
 74
0
 42
0.0000001
 43
0.0000001
 44
0.0000000001
 40
0.0
 40
0.0
 40
0.0
 40
0.0
 40
0.2405390864
 40
0.49847385
 40
0.757322815
 40
1.0
 40
1.0
 40
1.0
 40
1.0
 10
75.3378100485
 20
410.5844935088
 30
0.0
 10
74.1204033283
 20
410.553850829
 30
0.0
 10
71.5896751738
 20
410.0543387225
 30
0.0
 10
68.2346605999
 20
408.0418088611
 30
0.0
 10
65.7639514378
 20
404.995615562
 30
0.0
 10
64.8964349633
 20
402.5517767057
 30
0.0
 10
64.6822928896
 20
401.3419656125
 30
0.0
  0
SPLINE
  5
4C7
100
AcDbEntity
  8
0
100
AcDbSpline
 62
7
  6
CONTINUOUS
 70
0
 71
3
 72
9
 73
5
 74
0
 42
0.0000001
 43
0.0000001
 44
0.0000000001
 40
0.0
 40
0.0
 40
0.0
 40
0.0
 40
0.2506165868
 40
1.0
 40
1.0
 40
1.0
 40
1.0
 10
293.1247809389
 20
384.6895809872
 30
0.0
 10
293.10587786
 20
385.9928418117
 30
0.0
 10
292.9656819053
 20
391.1918996396
 30
0.0
 10
292.5666026185
 20
396.3841260235
 30
0.0
 10
292.1198336858
 20
400.2558008192
 30
0.0
  0
SPLINE
  5
4C8
100
AcDbEntity
  8
0
100
AcDbSpline
 62
7
  6
CONTINUOUS
 70
0
 71
3
 72
9
 73
5
 74
0
 42
0.0000001
 43
0.0000001
 44
0.0000000001
 40
0.0
 40
0.0
 40
0.0
 40
0.0
 40
0.2493199783
 40
1.0
 40
1.0
 40
1.0
 40
1.0
 10
80.6034006393
 20
400.2558019247
 30
0.0
 10
80.4547651741
 20
398.9676927872
 30
0.0
 10
79.9243529525
 20
393.793812606
 30
0.0
 10
79.6550292898
 20
388.593287448
 30
0.0
 10
79.5984308717
 20
384.6895821707
 30
0.0
  0
SPLINE
  5
4C9
100
AcDbEntity
  8
0
100
AcDbSpline
 62
7
  6
CONTINUOUS
 70
0
 71
3
 72
13
 73
9
 74
0
 42
0.0000001
 43
0.0000001
 44
0.0000000001
 40
0.0
 40
0.0
 40
0.0
 40
0.0
 40
0.0494264487
 40
0.1263939484
 40
0.228800545
 40
0.3537719168
 40
0.6565594344
 40
1.0
 40
1.0
 40
1.0
 40
1.0
 10
64.6822928896
 20
401.3419656125
 30
0.0
 10
64.9451470093
 20
401.3488402344
 30
0.0
 10
65.6177488208
 20
401.3244232414
 30
0.0
 10
66.8331696318
 20
401.2652240636
 30
0.0
 10
68.4492525649
 20
401.1635970535
 30
0.0
 10
71.2630314149
 20
400.9710800285
 30
0.0
 10
75.3546199375
 20
400.6682710749
 30
0.0
 10
78.7822259796
 20
400.4028231487
 30
0.0
 10
80.6033731382
 20
400.2558132585
 30
0.0
  0
SPLINE
  5
4CA
100
AcDbEntity
  8
0
100
AcDbSpline
 62
7
  6
CONTINUOUS
 70
0
 71
3
 72
13
 73
9
 74
0
 42
0.0000001
 43
0.0000001
 44
0.0000000001
 40
0.0
 40
0.0
 40
0.0
 40
0.0
 40
0.3433207382
 40
0.6443026778
 40
0.7682001168
 40
0.8700271549
 40
0.9474815839
 40
1.0
 40
1.0
 40
1.0
 40
1.0
 10
292.1198586704
 20
409.8564203181
 30
0.0
 10
292.7328761912
 20
409.8564420211
 30
0.0
 10
293.8834714405
 20
409.8907712047
 30
0.0
 10
295.2508415613
 20
410.0193303913
 30
0.0
 10
296.1787089848
 20
410.1733296246
 30
0.0
 10
296.7076159357
 20
410.2935495685
 30
0.0
 10
297.1006744604
 20
410.4210493877
 30
0.0
 10
297.3125210758
 20
410.5248338936
 30
0.0
 10
297.3850522078
 20
410.5842719293
 30
0.0
  0
SPLINE
  5
4CB
100
AcDbEntity
  8
0
100
AcDbSpline
 62
7
  6
CONTINUOUS
 70
0
 71
3
 72
13
 73
9
 74
0
 42
0.0000001
 43
0.0000001
 44
0.0000000001
 40
0.0
 40
0.0
 40
0.0
 40
0.0
 40
0.0525164589
 40
0.1299694944
 40
0.231795799
 40
0.3556931822
 40
0.6566766928
 40
1.0
 40
1.0
 40
1.0
 40
1.0
 10
75.338095749
 20
410.5842867222
 30
0.0
 10
75.4106229006
 20
410.5248463616
 30
0.0
 10
75.6224673225
 20
410.4210584731
 30
0.0
 10
76.0155253823
 20
410.2935548867
 30
0.0
 10
76.5444388575
 20
410.1733310106
 30
0.0
 10
77.4723259163
 20
410.0193261616
 30
0.0
 10
78.8397309037
 20
409.8907628054
 30
0.0
 10
79.9903567574
 20
409.8564332446
 30
0.0
 10
80.6033912194
 20
409.8564122069
 30
0.0
  0
SPLINE
  5
4CC
100
AcDbEntity
  8
0
100
AcDbSpline
 62
7
  6
CONTINUOUS
 70
0
 71
3
 72
13
 73
9
 74
0
 42
0.0000001
 43
0.0000001
 44
0.0000000001
 40
0.0
 40
0.0
 40
0.0
 40
0.0
 40
0.3434418715
 40
0.6462292573
 40
0.7712003392
 40
0.8736065745
 40
0.9505737235
 40
1.0
 40
1.0
 40
1.0
 40
1.0
 10
292.1198483642
 20
400.2557788965
 30
0.0
 10
293.9410091008
 20
400.4027076787
 30
0.0
 10
297.3686155337
 20
400.6682282267
 30
0.0
 10
301.4602094303
 20
400.9710323731
 30
0.0
 10
304.2739829128
 20
401.1635679697
 30
0.0
 10
305.8900592033
 20
401.2652152299
 30
0.0
 10
307.1054745635
 20
401.32443329
 30
0.0
 10
307.7780733845
 20
401.3488526689
 30
0.0
 10
308.0409266928
 20
401.3419817241
 30
0.0
  0
SPLINE
  5
4CD
100
AcDbEntity
  8
0
100
AcDbSpline
 62
7
  6
CONTINUOUS
 70
0
 71
3
 72
11
 73
7
 74
0
 42
0.0000001
 43
0.0000001
 44
0.0000000001
 40
0.0
 40
0.0
 40
0.0
 40
0.0
 40
0.2401169316
 40
0.497889409
 40
0.7568984276
 40
1.0
 40
1.0
 40
1.0
 40
1.0
 10
297.3851649811
 20
410.584471958
 30
0.0
 10
298.6004801568
 20
410.5539097371
 30
0.0
 10
301.1282924973
 20
410.0558060122
 30
0.0
 10
304.4828959618
 20
408.0467307625
 30
0.0
 10
306.9572104276
 20
405.0003478297
 30
0.0
 10
307.8265000572
 20
402.5536125658
 30
0.0
 10
308.0409904656
 20
401.3416355465
 30
0.0
  0
SPLINE
  5
4CE
100
AcDbEntity
  8
0
100
AcDbSpline
 62
7
  6
CONTINUOUS
 70
0
 71
3
 72
9
 73
5
 74
0
 42
0.0000001
 43
0.0000001
 44
0.0000000001
 40
0.0
 40
0.0
 40
0.0
 40
0.0
 40
0.2520574286
 40
1.0
 40
1.0
 40
1.0
 40
1.0
 10
293.5403888925
 20
350.1896384142
 30
0.0
 10
292.9225448101
 20
350.0486621996
 30
0.0
 10
290.4565260316
 20
349.5566286536
 30
0.0
 10
287.9352485163
 20
349.3395809043
 30
0.0
 10
286.0547688862
 20
349.3395809043
 30
0.0
  0
SPLINE
  5
4CF
100
AcDbEntity
  8
0
100
AcDbSpline
 62
7
  6
CONTINUOUS
 70
0
 71
3
 72
9
 73
5
 74
0
 42
0.0000001
 43
0.0000001
 44
0.0000000001
 40
0.0
 40
0.0
 40
0.0
 40
0.0
 40
0.5334723218
 40
1.0
 40
1.0
 40
1.0
 40
1.0
 10
74.2106333031
 20
351.7455437359
 30
0.0
 10
73.93127241
 20
351.8583588318
 30
0.0
 10
73.4117083625
 20
352.0795426232
 30
0.0
 10
72.8979627782
 20
352.3155121546
 30
0.0
 10
72.6653812917
 20
352.4393017732
 30
0.0
  0
SPLINE
  5
4D0
100
AcDbEntity
  8
0
100
AcDbSpline
 62
7
  6
CONTINUOUS
 70
0
 71
3
 72
9
 73
5
 74
0
 42
0.0000001
 43
0.0000001
 44
0.0000000001
 40
0.0
 40
0.0
 40
0.0
 40
0.0
 40
0.1822856111
 40
1.0
 40
1.0
 40
1.0
 40
1.0
 10
73.5821167879
 20
351.7747576205
 30
0.0
 10
73.6048063109
 20
351.7677504921
 30
0.0
 10
73.7283075104
 20
351.7262304658
 30
0.0
 10
73.8507214085
 20
351.6816573738
 30
0.0
 10
73.9509694461
 20
351.6456278123
 30
0.0
  0
LINE
  5
4D1
100
AcDbEntity
  8
0
100
AcDbLine
 62
7
  6
CONTINUOUS
 10
73.9509694461
 20
351.6456278123
 11
74.0088099488
 21
351.6247553506
  0
LINE
  5
4D2
100
AcDbEntity
  8
0
100
AcDbLine
 62
7
  6
CONTINUOUS
 10
74.0088099488
 20
351.6247553506
 11
74.1419458799
 21
351.576878957
  0
SPLINE
  5
4D3
100
AcDbEntity
  8
0
100
AcDbSpline
 62
7
  6
CONTINUOUS
 70
0
 71
3
 72
9
 73
5
 74
0
 42
0.0000001
 43
0.0000001
 44
0.0000000001
 40
0.0
 40
0.0
 40
0.0
 40
0.0
 40
0.2457585329
 40
1.0
 40
1.0
 40
1.0
 40
1.0
 10
74.6198593348
 20
351.4074571724
 30
0.0
 10
74.7669428996
 20
351.3560138121
 30
0.0
 10
75.366318128
 20
351.1492480014
 30
0.0
 10
75.9701975157
 20
350.9554257004
 30
0.0
 10
76.4282519345
 20
350.8180256056
 30
0.0
  0
SPLINE
  5
4D4
100
AcDbEntity
  8
0
100
AcDbSpline
 62
7
  6
CONTINUOUS
 70
0
 71
3
 72
9
 73
5
 74
0
 42
0.0000001
 43
0.0000001
 44
0.0000000001
 40
0.0
 40
0.0
 40
0.0
 40
0.0
 40
0.2487627113
 40
1.0
 40
1.0
 40
1.0
 40
1.0
 10
86.5501425493
 20
349.3397934966
 30
0.0
 10
85.934484914
 20
349.3420059486
 30
0.0
 10
83.4602482857
 20
349.4199814762
 30
0.0
 10
80.9954829671
 20
349.7760364377
 30
0.0
 10
79.1828377276
 20
350.1896381029
 30
0.0
  0
SPLINE
  5
4D5
100
AcDbEntity
  8
0
100
AcDbSpline
 62
7
  6
CONTINUOUS
 70
0
 71
3
 72
9
 73
5
 74
0
 42
0.0000001
 43
0.0000001
 44
0.0000000001
 40
0.0
 40
0.0
 40
0.0
 40
0.0
 40
0.2514072235
 40
1.0
 40
1.0
 40
1.0
 40
1.0
 10
79.1505181072
 20
350.1971015541
 30
0.0
 10
78.7274647694
 20
350.2940859185
 30
0.0
 10
77.0523958948
 20
350.7125058135
 30
0.0
 10
75.409931917
 20
351.2620765283
 30
0.0
 10
74.2113292484
 20
351.745357447
 30
0.0
  0
SPLINE
  5
4D6
100
AcDbEntity
  8
0
100
AcDbSpline
 62
7
  6
CONTINUOUS
 70
0
 71
3
 72
9
 73
5
 74
0
 42
0.0000001
 43
0.0000001
 44
0.0000000001
 40
0.0
 40
0.0
 40
0.0
 40
0.0
 40
0.2525416034
 40
1.0
 40
1.0
 40
1.0
 40
1.0
 10
296.29495797
 20
350.8180256056
 30
0.0
 10
296.4480167226
 20
350.8639387972
 30
0.0
 10
297.0529772424
 20
351.0494562074
 30
0.0
 10
297.6532504607
 20
351.2500754924
 30
0.0
 10
298.0997031415
 20
351.4061803574
 30
0.0
  0
SPLINE
  5
4D7
100
AcDbEntity
  8
0
100
AcDbSpline
 62
7
  6
CONTINUOUS
 70
0
 71
3
 72
9
 73
5
 74
0
 42
0.0000001
 43
0.0000001
 44
0.0000000001
 40
0.0
 40
0.0
 40
0.0
 40
0.0
 40
0.2487128923
 40
1.0
 40
1.0
 40
1.0
 40
1.0
 10
298.5119362425
 20
351.7452155653
 30
0.0
 10
298.1136790886
 20
351.5847251413
 30
0.0
 10
296.4996341955
 20
350.9715391893
 30
0.0
 10
294.8368992745
 20
350.4870139679
 30
0.0
 10
293.5727238906
 20
350.1969594749
 30
0.0
  0
SPLINE
  5
4D8
100
AcDbEntity
  8
0
100
AcDbSpline
 62
7
  6
CONTINUOUS
 70
0
 71
3
 72
9
 73
5
 74
0
 42
0.0000001
 43
0.0000001
 44
0.0000000001
 40
0.0
 40
0.0
 40
0.0
 40
0.0
 40
0.2489401494
 40
1.0
 40
1.0
 40
1.0
 40
1.0
 10
286.0547688862
 20
349.3395809043
 30
0.0
 10
286.6839046008
 20
349.3395809043
 30
0.0
 10
289.2106464001
 20
349.4045362374
 30
0.0
 10
291.7314658122
 20
349.7304080174
 30
0.0
 10
293.5878961513
 20
350.1260473712
 30
0.0
  0
SPLINE
  5
4D9
100
AcDbEntity
  8
0
100
AcDbSpline
 62
7
  6
CONTINUOUS
 70
0
 71
3
 72
9
 73
5
 74
0
 42
0.0000001
 43
0.0000001
 44
0.0000000001
 40
0.0
 40
0.0
 40
0.0
 40
0.0
 40
0.275980259
 40
1.0
 40
1.0
 40
1.0
 40
1.0
 10
298.7719232095
 20
351.6455139027
 30
0.0
 10
298.7995387466
 20
351.6554394283
 30
0.0
 10
298.8996321311
 20
351.6913169086
 30
0.0
 10
298.9996810439
 20
351.7273457453
 30
0.0
 10
299.0725395536
 20
351.752212838
 30
0.0
  0
SPLINE
  5
4DA
100
AcDbEntity
  8
0
100
AcDbSpline
 62
7
  6
CONTINUOUS
 70
0
 71
3
 72
9
 73
5
 74
0
 42
0.0000001
 43
0.0000001
 44
0.0000000001
 40
0.0
 40
0.0
 40
0.0
 40
0.0
 40
0.2853613783
 40
1.0
 40
1.0
 40
1.0
 40
1.0
 10
299.0725395536
 20
351.752212838
 30
0.0
 10
299.0790361376
 20
351.7544301652
 30
0.0
 10
299.1018197776
 20
351.7621477627
 30
0.0
 10
299.1246688398
 20
351.7696817008
 30
0.0
 10
299.1410934007
 20
351.7747579107
 30
0.0
  0
SPLINE
  5
4DB
100
AcDbEntity
  8
0
100
AcDbSpline
 62
7
  6
CONTINUOUS
 70
0
 71
3
 72
9
 73
5
 74
0
 42
0.0000001
 43
0.0000001
 44
0.0000000001
 40
0.0
 40
0.0
 40
0.0
 40
0.0
 40
0.1510617906
 40
1.0
 40
1.0
 40
1.0
 40
1.0
 10
73.5821184575
 20
351.7747618432
 30
0.0
 10
73.5833353824
 20
351.7738584563
 30
0.0
 10
73.5923573243
 20
351.7692840121
 30
0.0
 10
73.6023235222
 20
351.7672839965
 30
0.0
 10
73.6106655126
 20
351.7655646833
 30
0.0
  0
SPLINE
  5
4DC
100
AcDbEntity
  8
0
100
AcDbSpline
 62
7
  6
CONTINUOUS
 70
0
 71
3
 72
13
 73
9
 74
0
 42
0.0000001
 43
0.0000001
 44
0.0000000001
 40
0.0
 40
0.0
 40
0.0
 40
0.0
 40
0.3443958443
 40
0.6475906771
 40
0.7723191574
 40
0.8743580583
 40
0.9508480674
 40
1.0
 40
1.0
 40
1.0
 40
1.0
 10
291.799629473
 20
363.4241169892
 30
0.0
 10
293.6209563346
 20
363.2563815077
 30
0.0
 10
297.0466348051
 20
362.9510366833
 30
0.0
 10
301.1334727599
 20
362.6019598693
 30
0.0
 10
303.9390316261
 20
362.3776339003
 30
0.0
 10
305.5452549741
 20
362.2581377223
 30
0.0
 10
306.7519476569
 20
362.1833247412
 30
0.0
 10
307.4189679263
 20
362.1538687915
 30
0.0
 10
307.6800047957
 20
362.1547909752
 30
0.0
  0
SPLINE
  5
4DD
100
AcDbEntity
  8
0
100
AcDbSpline
 62
7
  6
CONTINUOUS
 70
0
 71
3
 72
9
 73
5
 74
0
 42
0.0000001
 43
0.0000001
 44
0.0000000001
 40
0.0
 40
0.0
 40
0.0
 40
0.0
 40
0.2506436743
 40
1.0
 40
1.0
 40
1.0
 40
1.0
 10
79.6653228052
 20
378.8395813207
 30
0.0
 10
79.7064470167
 20
377.5477243026
 30
0.0
 10
79.9342285505
 20
372.3958103956
 30
0.0
 10
80.4167776683
 20
367.2550116871
 30
0.0
 10
80.9235280589
 20
363.4241257364
 30
0.0
  0
SPLINE
  5
4DE
100
AcDbEntity
  8
0
100
AcDbSpline
 62
7
  6
CONTINUOUS
 70
0
 71
3
 72
9
 73
5
 74
0
 42
0.0000001
 43
0.0000001
 44
0.0000000001
 40
0.0
 40
0.0
 40
0.0
 40
0.0
 40
0.2493080663
 40
1.0
 40
1.0
 40
1.0
 40
1.0
 10
291.7996292126
 20
363.424115805
 30
0.0
 10
291.9682236279
 20
364.6986396266
 30
0.0
 10
292.5798228556
 20
369.8192444065
 30
0.0
 10
292.9346664565
 20
374.9703872729
 30
0.0
 10
293.0578361107
 20
378.8395788827
 30
0.0
  0
SPLINE
  5
4DF
100
AcDbEntity
  8
0
100
AcDbSpline
 62
7
  6
CONTINUOUS
 70
0
 71
3
 72
12
 73
8
 74
0
 42
0.0000001
 43
0.0000001
 44
0.0000000001
 40
0.0
 40
0.0
 40
0.0
 40
0.0
 40
0.0494605785
 40
0.1264507003
 40
0.3538231609
 40
0.6565715919
 40
1.0
 40
1.0
 40
1.0
 40
1.0
 10
65.0431828219
 20
362.1547934569
 30
0.0
 10
65.305857823
 20
362.1557694897
 30
0.0
 10
65.9771541769
 20
362.1825915838
 30
0.0
 10
67.852413501
 20
362.3014764206
 30
0.0
 10
71.0666218321
 20
362.5587161701
 30
0.0
 10
75.6891901224
 20
362.9511568066
 30
0.0
 10
79.1072305141
 20
363.2578783404
 30
0.0
 10
80.923529542
 20
363.4241145242
 30
0.0
  0
SPLINE
  5
4E0
100
AcDbEntity
  8
0
100
AcDbSpline
 62
7
  6
CONTINUOUS
 70
0
 71
3
 72
9
 73
5
 74
0
 42
0.0000001
 43
0.0000001
 44
0.0000000001
 40
0.0
 40
0.0
 40
0.0
 40
0.0
 40
0.2494004016
 40
1.0
 40
1.0
 40
1.0
 40
1.0
 10
65.0431385852
 20
362.1550836159
 30
0.0
 10
64.8380967202
 20
363.5330724273
 30
0.0
 10
64.0958048364
 20
369.069885278
 30
0.0
 10
63.6707987198
 20
374.6490793022
 30
0.0
 10
63.5296463144
 20
378.8395808009
 30
0.0
  0
SPLINE
  5
4E1
100
AcDbEntity
  8
0
100
AcDbSpline
 62
7
  6
CONTINUOUS
 70
0
 71
3
 72
14
 73
10
 74
0
 42
0.0000001
 43
0.0000001
 44
0.0000000001
 40
0.0
 40
0.0
 40
0.0
 40
0.0
 40
0.0896734252
 40
0.1754619653
 40
0.2689008774
 40
0.3799248868
 40
0.5119740756
 40
0.6629907131
 40
1.0
 40
1.0
 40
1.0
 40
1.0
 10
272.4116049004
 20
355.4659084532
 30
0.0
 10
272.4116049004
 20
355.317045374
 30
0.0
 10
272.4478864778
 20
355.0220335926
 30
0.0
 10
272.6687641102
 20
354.6204396861
 30
0.0
 10
273.0551196041
 20
354.3159742348
 30
0.0
 10
273.5768256837
 20
354.1048797919
 30
0.0
 10
274.2175109643
 20
353.964119035
 30
0.0
 10
275.2409200031
 20
353.8457601062
 30
0.0
 10
276.0521499667
 20
353.8230258259
 30
0.0
 10
276.6116049004
 20
353.8230258259
 30
0.0
  0
SPLINE
  5
4E2
100
AcDbEntity
  8
0
100
AcDbSpline
 62
7
  6
CONTINUOUS
 70
0
 71
3
 72
14
 73
10
 74
0
 42
0.0000001
 43
0.0000001
 44
0.0000000001
 40
0.0
 40
0.0
 40
0.0
 40
0.0
 40
0.3370940319
 40
0.4881063512
 40
0.6201440357
 40
0.7311337225
 40
0.8245408018
 40
0.9103132843
 40
1.0
 40
1.0
 40
1.0
 40
1.0
 10
276.6116049004
 20
353.8230008257
 30
0.0
 10
277.1712054596
 20
353.8230008257
 30
0.0
 10
277.9825841727
 20
353.8457724433
 30
0.0
 10
279.0060911232
 20
353.9642253754
 30
0.0
 10
279.6467457496
 20
354.1048673581
 30
0.0
 10
280.1682151631
 20
354.3161603408
 30
0.0
 10
280.5545657109
 20
354.6204089259
 30
0.0
 10
280.7753346389
 20
355.0220220303
 30
0.0
 10
280.8116049004
 20
355.3170219957
 30
0.0
 10
280.8116049004
 20
355.4659084532
 30
0.0
  0
SPLINE
  5
4E3
100
AcDbEntity
  8
0
100
AcDbSpline
 62
7
  6
CONTINUOUS
 70
0
 71
3
 72
10
 73
6
 74
0
 42
0.0000001
 43
0.0000001
 44
0.0000000001
 40
0.0
 40
0.0
 40
0.0
 40
0.0
 40
0.1919822386
 40
0.4460025502
 40
1.0
 40
1.0
 40
1.0
 40
1.0
 10
72.6630059198
 20
352.4610686853
 30
0.0
 10
72.7232503131
 20
352.4301730638
 30
0.0
 10
72.8704821014
 20
352.3736960256
 30
0.0
 10
73.1983152925
 20
352.2443939634
 30
0.0
 10
73.4674210498
 20
352.150014167
 30
0.0
 10
73.65248824
 20
352.0873969385
 30
0.0
  0
SPLINE
  5
4E4
100
AcDbEntity
  8
0
100
AcDbSpline
 62
7
  6
CONTINUOUS
 70
0
 71
3
 72
9
 73
5
 74
0
 42
0.0000001
 43
0.0000001
 44
0.0000000001
 40
0.0
 40
0.0
 40
0.0
 40
0.0
 40
0.3372368072
 40
1.0
 40
1.0
 40
1.0
 40
1.0
 10
74.2112967614
 20
351.7452744589
 30
0.0
 10
74.2303403715
 20
351.7422412638
 30
0.0
 10
74.2740765419
 20
351.7999798115
 30
0.0
 10
74.3025014564
 20
351.8409742888
 30
0.0
 10
74.3204337294
 20
351.8743609433
 30
0.0
  0
SPLINE
  5
4E5
100
AcDbEntity
  8
0
100
AcDbSpline
 62
7
  6
CONTINUOUS
 70
0
 71
3
 72
9
 73
5
 74
0
 42
0.0000001
 43
0.0000001
 44
0.0000000001
 40
0.0
 40
0.0
 40
0.0
 40
0.0
 40
0.3138103548
 40
1.0
 40
1.0
 40
1.0
 40
1.0
 10
79.150502387
 20
350.1970318291
 30
0.0
 10
79.1587845086
 20
350.1969684774
 30
0.0
 10
79.1732953329
 20
350.2276428082
 30
0.0
 10
79.1837340958
 20
350.2475894834
 30
0.0
 10
79.1904111981
 20
350.2644241993
 30
0.0
  0
SPLINE
  5
4E6
100
AcDbEntity
  8
0
100
AcDbSpline
 62
7
  6
CONTINUOUS
 70
0
 71
3
 72
8
 73
4
 74
0
 42
0.0000001
 43
0.0000001
 44
0.0000000001
 40
0.0
 40
0.0
 40
0.0
 40
0.0
 40
1.0
 40
1.0
 40
1.0
 40
1.0
 10
79.1904111981
 20
350.2644241993
 30
0.0
 10
79.200187492
 20
350.2890727854
 30
0.0
 10
79.2086742603
 20
350.314241922
 30
0.0
 10
79.2164204721
 20
350.3396018297
 30
0.0
  0
SPLINE
  5
4E7
100
AcDbEntity
  8
0
100
AcDbSpline
 62
7
  6
CONTINUOUS
 70
0
 71
3
 72
9
 73
5
 74
0
 42
0.0000001
 43
0.0000001
 44
0.0000000001
 40
0.0
 40
0.0
 40
0.0
 40
0.0
 40
0.2486784459
 40
1.0
 40
1.0
 40
1.0
 40
1.0
 10
74.3207050754
 20
351.8743538763
 30
0.0
 10
74.7153698932
 20
351.7151922476
 30
0.0
 10
76.3151246321
 20
351.1070679102
 30
0.0
 10
77.9633204999
 20
350.6268960075
 30
0.0
 10
79.2165019435
 20
350.3395809043
 30
0.0
  0
SPLINE
  5
4E8
100
AcDbEntity
  8
0
100
AcDbSpline
 62
7
  6
CONTINUOUS
 70
0
 71
3
 72
9
 73
5
 74
0
 42
0.0000001
 43
0.0000001
 44
0.0000000001
 40
0.0
 40
0.0
 40
0.0
 40
0.0
 40
0.2514056353
 40
1.0
 40
1.0
 40
1.0
 40
1.0
 10
293.5071456749
 20
350.3395809043
 30
0.0
 10
293.926454023
 20
350.4357978612
 30
0.0
 10
295.586708393
 20
350.8508317736
 30
0.0
 10
297.2147234377
 20
351.3954825078
 30
0.0
 10
298.40284222
 20
351.8743626665
 30
0.0
  0
SPLINE
  5
4E9
100
AcDbEntity
  8
0
100
AcDbSpline
 62
7
  6
CONTINUOUS
 70
0
 71
3
 72
9
 73
5
 74
0
 42
0.0000001
 43
0.0000001
 44
0.0000000001
 40
0.0
 40
0.0
 40
0.0
 40
0.0
 40
0.2530372186
 40
1.0
 40
1.0
 40
1.0
 40
1.0
 10
79.2164121677
 20
350.3395755825
 30
0.0
 10
79.8103299846
 20
350.1794956723
 30
0.0
 10
82.1761432056
 20
349.6186506804
 30
0.0
 10
84.6135256399
 20
349.3562116937
 30
0.0
 10
86.4292645447
 20
349.3406085156
 30
0.0
  0
SPLINE
  5
4EA
100
AcDbEntity
  8
0
100
AcDbSpline
 62
7
  6
CONTINUOUS
 70
0
 71
3
 72
11
 73
7
 74
0
 42
0.0000001
 43
0.0000001
 44
0.0000000001
 40
0.0
 40
0.0
 40
0.0
 40
0.0
 40
0.2403446104
 40
0.4979112485
 40
0.75669731
 40
1.0
 40
1.0
 40
1.0
 40
1.0
 10
75.6682294682
 20
353.0970503194
 30
0.0
 10
74.4663022207
 20
353.1270215885
 30
0.0
 10
71.9687617415
 20
353.6134965276
 30
0.0
 10
68.6442920008
 20
355.5758889505
 30
0.0
 10
66.1694604709
 20
358.5570997017
 30
0.0
 10
65.2753152133
 20
360.9603412239
 30
0.0
 10
65.04315081
 20
362.1550914731
 30
0.0
  0
SPLINE
  5
4EB
100
AcDbEntity
  8
0
100
AcDbSpline
 62
7
  6
CONTINUOUS
 70
0
 71
3
 72
9
 73
5
 74
0
 42
0.0000001
 43
0.0000001
 44
0.0000000001
 40
0.0
 40
0.0
 40
0.0
 40
0.0
 40
0.2481637548
 40
1.0
 40
1.0
 40
1.0
 40
1.0
 10
286.0547704757
 20
349.3395809043
 30
0.0
 10
286.6777607955
 20
349.3395804701
 30
0.0
 10
289.1876782732
 20
349.4235369541
 30
0.0
 10
291.6844229732
 20
349.8483873425
 30
0.0
 10
293.5067976934
 20
350.3395758335
 30
0.0
  0
SPLINE
  5
4EC
100
AcDbEntity
  8
0
100
AcDbSpline
 62
7
  6
CONTINUOUS
 70
0
 71
3
 72
9
 73
5
 74
0
 42
0.0000001
 43
0.0000001
 44
0.0000000001
 40
0.0
 40
0.0
 40
0.0
 40
0.0
 40
0.5715335209
 40
1.0
 40
1.0
 40
1.0
 40
1.0
 10
72.6653789863
 20
352.4392952082
 30
0.0
 10
72.6606357807
 20
352.4426831643
 30
0.0
 10
72.6471975194
 20
352.4504548743
 30
0.0
 10
72.6588247519
 20
352.4598379439
 30
0.0
 10
72.6630177374
 20
352.4610684467
 30
0.0
  0
SPLINE
  5
4ED
100
AcDbEntity
  8
0
100
AcDbSpline
 62
7
  6
CONTINUOUS
 70
0
 71
3
 72
9
 73
5
 74
0
 42
0.0000001
 43
0.0000001
 44
0.0000000001
 40
0.0
 40
0.0
 40
0.0
 40
0.0
 40
0.4679613578
 40
1.0
 40
1.0
 40
1.0
 40
1.0
 10
300.0577826267
 20
352.4392886674
 30
0.0
 10
299.8248721583
 20
352.3141119198
 30
0.0
 10
299.310000999
 20
352.0796657893
 30
0.0
 10
298.7905861366
 20
351.8575191768
 30
0.0
 10
298.5117324623
 20
351.7452019333
 30
0.0
  0
SPLINE
  5
4EE
100
AcDbEntity
  8
0
100
AcDbSpline
 62
7
  6
CONTINUOUS
 70
0
 71
3
 72
9
 73
5
 74
0
 42
0.0000001
 43
0.0000001
 44
0.0000000001
 40
0.0
 40
0.0
 40
0.0
 40
0.0
 40
0.3138101039
 40
1.0
 40
1.0
 40
1.0
 40
1.0
 10
293.5727075641
 20
350.1970318291
 30
0.0
 10
293.56442531
 20
350.196968477
 30
0.0
 10
293.5499143633
 20
350.2276434404
 30
0.0
 10
293.5394754436
 20
350.2475904268
 30
0.0
 10
293.5327982594
 20
350.2644254444
 30
0.0
  0
SPLINE
  5
4EF
100
AcDbEntity
  8
0
100
AcDbSpline
 62
7
  6
CONTINUOUS
 70
0
 71
3
 72
8
 73
4
 74
0
 42
0.0000001
 43
0.0000001
 44
0.0000000001
 40
0.0
 40
0.0
 40
0.0
 40
0.0
 40
1.0
 40
1.0
 40
1.0
 40
1.0
 10
293.5327982594
 20
350.2644254444
 30
0.0
 10
293.5230248648
 20
350.2890668594
 30
0.0
 10
293.5145402682
 20
350.3142285287
 30
0.0
 10
293.5067958715
 20
350.3395809032
 30
0.0
  0
SPLINE
  5
4F0
100
AcDbEntity
  8
0
100
AcDbSpline
 62
7
  6
CONTINUOUS
 70
0
 71
3
 72
9
 73
5
 74
0
 42
0.0000001
 43
0.0000001
 44
0.0000000001
 40
0.0
 40
0.0
 40
0.0
 40
0.0
 40
0.3372393274
 40
1.0
 40
1.0
 40
1.0
 40
1.0
 10
298.5119131976
 20
351.7452744648
 30
0.0
 10
298.4928718202
 20
351.742241623
 30
0.0
 10
298.4491394944
 20
351.7999705837
 30
0.0
 10
298.4207173351
 20
351.8409600214
 30
0.0
 10
298.4027864602
 20
351.8743418991
 30
0.0
  0
SPLINE
  5
4F1
100
AcDbEntity
  8
0
100
AcDbSpline
 62
7
  6
CONTINUOUS
 70
0
 71
3
 72
14
 73
10
 74
0
 42
0.0000001
 43
0.0000001
 44
0.0000000001
 40
0.0
 40
0.0
 40
0.0
 40
0.0
 40
0.3370940319
 40
0.4881063512
 40
0.6201440357
 40
0.7311337225
 40
0.8245408018
 40
0.9103132843
 40
1.0
 40
1.0
 40
1.0
 40
1.0
 10
96.6116049004
 20
353.8230008257
 30
0.0
 10
97.1712054596
 20
353.8230008257
 30
0.0
 10
97.9825841727
 20
353.8457724433
 30
0.0
 10
99.0060911232
 20
353.9642253754
 30
0.0
 10
99.6467457496
 20
354.1048673581
 30
0.0
 10
100.1682151631
 20
354.3161603408
 30
0.0
 10
100.5545657109
 20
354.6204089259
 30
0.0
 10
100.7753346388
 20
355.0220220303
 30
0.0
 10
100.8116049004
 20
355.3170219957
 30
0.0
 10
100.8116049004
 20
355.4659084532
 30
0.0
  0
SPLINE
  5
4F2
100
AcDbEntity
  8
0
100
AcDbSpline
 62
7
  6
CONTINUOUS
 70
0
 71
3
 72
14
 73
10
 74
0
 42
0.0000001
 43
0.0000001
 44
0.0000000001
 40
0.0
 40
0.0
 40
0.0
 40
0.0
 40
0.0896734252
 40
0.1754619653
 40
0.2689008774
 40
0.3799248868
 40
0.5119740756
 40
0.6629907131
 40
1.0
 40
1.0
 40
1.0
 40
1.0
 10
92.4116049004
 20
355.4659084532
 30
0.0
 10
92.4116049004
 20
355.317045374
 30
0.0
 10
92.4478864778
 20
355.0220335926
 30
0.0
 10
92.6687641102
 20
354.6204396861
 30
0.0
 10
93.0551196041
 20
354.3159742348
 30
0.0
 10
93.5768256837
 20
354.1048797919
 30
0.0
 10
94.2175109643
 20
353.964119035
 30
0.0
 10
95.2409200031
 20
353.8457601062
 30
0.0
 10
96.0521499667
 20
353.8230258259
 30
0.0
 10
96.6116049004
 20
353.8230258259
 30
0.0
  0
SPLINE
  5
4F3
100
AcDbEntity
  8
0
100
AcDbSpline
 62
7
  6
CONTINUOUS
 70
0
 71
3
 72
9
 73
5
 74
0
 42
0.0000001
 43
0.0000001
 44
0.0000000001
 40
0.0
 40
0.0
 40
0.0
 40
0.0
 40
0.142053227
 40
1.0
 40
1.0
 40
1.0
 40
1.0
 10
299.1410938417
 20
351.774759762
 30
0.0
 10
299.1395941306
 20
351.7736464024
 30
0.0
 10
299.1275811805
 20
351.7679760636
 30
0.0
 10
299.1144511755
 20
351.7658071252
 30
0.0
 10
299.1033480587
 20
351.7638126242
 30
0.0
  0
SPLINE
  5
4F4
100
AcDbEntity
  8
0
100
AcDbSpline
 62
7
  6
CONTINUOUS
 70
0
 71
3
 72
13
 73
9
 74
0
 42
0.0000001
 43
0.0000001
 44
0.0000000001
 40
0.0
 40
0.0
 40
0.0
 40
0.0
 40
0.3438340658
 40
0.6449993792
 40
0.7688466365
 40
0.8705286984
 40
0.9477592607
 40
1.0
 40
1.0
 40
1.0
 40
1.0
 10
80.9235635383
 20
353.823492678
 30
0.0
 10
80.310745486
 20
353.8234909671
 30
0.0
 10
79.1610045695
 20
353.7893137843
 30
0.0
 10
77.7949302844
 20
353.6611902626
 30
0.0
 10
76.8687794013
 20
353.5074654354
 30
0.0
 10
76.3415726597
 20
353.387464361
 30
0.0
 10
75.9504785537
 20
353.2602157316
 30
0.0
 10
75.7399490918
 20
353.156511163
 30
0.0
 10
75.668300757
 20
353.0970484524
 30
0.0
  0
SPLINE
  5
4F5
100
AcDbEntity
  8
0
100
AcDbSpline
 62
7
  6
CONTINUOUS
 70
0
 71
3
 72
11
 73
7
 74
0
 42
0.0000001
 43
0.0000001
 44
0.0000000001
 40
0.0
 40
0.0
 40
0.0
 40
0.0
 40
0.2407560119
 40
0.4984806001
 40
0.7571113617
 40
1.0
 40
1.0
 40
1.0
 40
1.0
 10
297.0549810888
 20
353.0970503349
 30
0.0
 10
298.2589412779
 20
353.1270724335
 30
0.0
 10
300.7593367007
 20
353.6148448305
 30
0.0
 10
304.0843217249
 20
355.5805142333
 30
0.0
 10
306.5557735686
 20
358.5615873168
 30
0.0
 10
307.4482026466
 20
360.9621045037
 30
0.0
 10
307.6800001315
 20
362.1547909587
 30
0.0
  0
SPLINE
  5
4F6
100
AcDbEntity
  8
0
100
AcDbSpline
 62
7
  6
CONTINUOUS
 70
0
 71
3
 72
13
 73
9
 74
0
 42
0.0000001
 43
0.0000001
 44
0.0000000001
 40
0.0
 40
0.0
 40
0.0
 40
0.0
 40
0.3524221293
 40
0.6559225504
 40
0.7778081421
 40
0.8761851231
 40
0.9501230062
 40
1.0
 40
1.0
 40
1.0
 40
1.0
 10
291.7996463235
 20
353.8235053053
 30
0.0
 10
292.4277834906
 20
353.8234941787
 30
0.0
 10
293.597035905
 20
353.7879005977
 30
0.0
 10
294.9788360583
 20
353.6552446635
 30
0.0
 10
295.8992735488
 20
353.4986586006
 30
0.0
 10
296.4108802596
 20
353.3791580705
 30
0.0
 10
296.7861873777
 20
353.2544795448
 30
0.0
 10
296.9865733272
 20
353.1538232023
 30
0.0
 10
297.0549813657
 20
353.0970501442
 30
0.0
  0
SPLINE
  5
4F7
100
AcDbEntity
  8
0
100
AcDbSpline
 62
7
  6
CONTINUOUS
 70
0
 71
3
 72
10
 73
6
 74
0
 42
0.0000001
 43
0.0000001
 44
0.0000000001
 40
0.0
 40
0.0
 40
0.0
 40
0.0
 40
0.2110805861
 40
0.4654851929
 40
1.0
 40
1.0
 40
1.0
 40
1.0
 10
300.0601923192
 20
352.4610999339
 30
0.0
 10
299.9520738853
 20
352.4110177954
 30
0.0
 10
299.707212836
 20
352.3149665689
 30
0.0
 10
299.1778885518
 20
352.1191282008
 30
0.0
 10
298.7542613
 20
351.9808240189
 30
0.0
 10
298.4655135029
 20
351.8932610825
 30
0.0
  0
SPLINE
  5
4F8
100
AcDbEntity
  8
0
100
AcDbSpline
 62
7
  6
CONTINUOUS
 70
0
 71
3
 72
9
 73
5
 74
0
 42
0.0000001
 43
0.0000001
 44
0.0000000001
 40
0.0
 40
0.0
 40
0.0
 40
0.0
 40
0.5716177266
 40
1.0
 40
1.0
 40
1.0
 40
1.0
 10
300.0578242201
 20
352.4393052966
 30
0.0
 10
300.0625490794
 20
352.442646259
 30
0.0
 10
300.0756971914
 20
352.450319612
 30
0.0
 10
300.0643934392
 20
352.4599843757
 30
0.0
 10
300.0601941457
 20
352.4610673883
 30
0.0
  0
ENDSEC
  0
SECTION
  2
OBJECTS
  0
DICTIONARY
  5
C
100
AcDbDictionary
280
0
281
1
  3
ACAD_GROUP
350
D
  3
ACAD_MLINESTYLE
350
17
  3
ACAD_LAYOUT
350
1A
  3
ACAD_PLOTSETTINGS
350
19
  3
ACAD_PLOTSTYLENAME
350
E
  0
DICTIONARY
  5
D
102
{ACAD_REACTORS
330
C
102
}
100
AcDbDictionary
280
0
281
1
  0
ACDBDICTIONARYWDFLT
  5
E
102
{ACAD_REACTORS
330
C
102
}
100
AcDbDictionary
281
1
  3
Normal
350
F
100
AcDbDictionaryWithDefault
340
F
  0
DICTIONARY
  5
17
102
{ACAD_REACTORS
330
C
102
}
100
AcDbDictionary
280
0
281
1
  3
Standard
350
18
  0
DICTIONARY
  5
19
102
{ACAD_REACTORS
330
C
102
}
100
AcDbDictionary
281
1
  0
DICTIONARY
  5
1A
102
{ACAD_REACTORS
330
C
102
}
100
AcDbDictionary
281
1
  3
Model
350
4F9
  3
Layout1
350
4FA
  0
ACDBPLACEHOLDER
  5
F
102
{ACAD_REACTORS
330
E
102
}
  0
MLINESTYLE
  5
18
102
{ACAD_REACTORS
330
17
102
}
100
AcDbMlineStyle
  2
STANDARD
 70
0
  3

 62
256
 51
90.0
 52
90.0
 71
2
 49
0.5
 62
256
  6
BYLAYER
 49
-0.5
 62
256
  6
BYLAYER
  0
LAYOUT
  5
4F9
102
{ACAD_REACTORS
330
1A
102
}
100
AcDbPlotSettings
  1

  2
none_device
  4

  6

 40
0.0
 41
0.0
 42
0.0
 43
0.0
 44
210.0
 45
297.0
 46
0.0
 47
0.0
 48
0.0
 49
0.0
140
0.0
141
0.0
142
1.0
143
1.0
 70
1024
 72
1
 73
0
 74
0
  7

 75
0
147
1.0
148
0.0
149
0.0
100
AcDbLayout
  1
Model
 70
0
 71
0
 10
0.0
 20
0.0
 11
210.0
 21
297.0
 12
0.0
 22
0.0
 32
0.0
 14
0.0
 24
0.0
 34
0.0
 15
0.0
 25
0.0
 35
0.0
146
0.0
 13
0.0
 23
0.0
 33
0.0
 16
1.0
 26
0.0
 36
0.0
 17
0.0
 27
1.0
 37
0.0
 76
0
330
210
345
0
346
0
  0
LAYOUT
  5
4FA
102
{ACAD_REACTORS
330
1A
102
}
100
AcDbPlotSettings
  1

  2
none_device
  4

  6

 40
0.0
 41
0.0
 42
0.0
 43
0.0
 44
210.0
 45
297.0
 46
0.0
 47
0.0
 48
0.0
 49
0.0
140
0.0
141
0.0
142
1.0
143
1.0
 70
0
 72
1
 73
0
 74
0
  7

 75
0
147
1.0
148
0.0
149
0.0
100
AcDbLayout
  1
Layout1
 70
0
 71
1
 10
0.0
 20
0.0
 11
210.0
 21
297.0
 12
0.0
 22
0.0
 32
0.0
 14
0.0
 24
0.0
 34
0.0
 15
0.0
 25
0.0
 35
0.0
146
0.0
 13
0.0
 23
0.0
 33
0.0
 16
1.0
 26
0.0
 36
0.0
 17
0.0
 27
1.0
 37
0.0
 76
0
330
211
345
0
346
0
  0
ENDSEC
  0
EOF
