999
DXF file: C:\Users\sesa63760\Dev\_Creo\CAD\MCADID0005507_3D-CAD\drw0001_4.dxf
999
Pro/ENGINEER 2019471 by Parametric Technology Corporation
  0
SECTION
  2
HEADER
  9
$ACADVER
  1
AC1024
  9
$DWGCODEPAGE
  3
ANSI_1252
  9
$EXTMAX
 10
61.4249110432
 20
86.8723741896
 30
0.0
  9
$EXTMIN
 10
0.0
 20
0.0
 30
0.0
  9
$LIMMIN
 10
0.0
 20
0.0
  9
$LIMMAX
 10
61.4249110432
 20
86.8723741896
  9
$VIEWCTR
 10
30.7124555216
 20
43.4361870948
  9
$VIEWSIZE
 40
86.8723741896
  9
$CLAYER
  8
0
  9
$LTSCALE
 40
5.662791799
  9
$CELTYPE
  6
BYLAYER
  9
$DIMSCALE
 40
1.0
  9
$DIMASZ
 40
0.731248941
  9
$DIMEXO
 40
1.0
  9
$DIMDLI
 40
3.9124743339
  9
$DIMEXE
 40
1.0
  9
$DIMCEN
 40
0.926638658
  9
$DIMLFAC
 40
1.0
  9
$DIMBLK
  1
_FILLED
  9
$DIMALT
 70
0
  9
$DIMALTF
 40
0.0393700787
  9
$DIMTXT
 40
1.0237485174
  9
$DIMTOL
 70
1
  9
$DIMLIM
 70
0
  9
$DIMTFAC
 40
1.0
  9
$DIMTP
 40
0.01
  9
$DIMTM
 40
0.01
  9
$DIMGAP
 40
0.625
  9
$DIMDSEP
 70
46
  9
$AUNITS
 70
0
  9
$PDMODE
 70
3
  9
$PDSIZE
 40
0.3125
  9
$HANDSEED
  5
2B7
  9
$TILEMODE
 70
1
  9
$MEASUREMENT
 70
1
  9
$INSUNITS
 70
4
  0
ENDSEC
  0
SECTION
  2
CLASSES
  0
CLASS
  1
ACDBDICTIONARYWDFLT
  2
AcDbDictionaryWithDefault
  3
AutoCAD 2000
 90
0
 91
1
280
0
281
0
  0
CLASS
  1
ACDBPLACEHOLDER
  2
AcDbPlaceHolder
  3
AutoCAD 2000
 90
0
 91
1
280
0
281
0
  0
CLASS
  1
LAYOUT
  2
AcDbLayout
  3
AutoCAD 2000
 90
0
 91
0
280
0
281
0
  0
ENDSEC
  0
SECTION
  2
TABLES
  0
TABLE
  2
VPORT
  5
8
100
AcDbSymbolTable
 70
2
  0
VPORT
  5
1F4
100
AcDbSymbolTableRecord
100
AcDbViewportTableRecord
  2
*ACTIVE
 70
0
 10
0.0
 20
0.0
 11
1.0
 21
1.0
 12
30.7124555216
 22
43.4361870948
 13
0.0
 23
0.0
 14
1.0
 24
1.0
 15
0.0
 25
0.0
 16
0.0
 26
0.0
 36
1.0
 17
0.0
 27
0.0
 37
0.0
 40
86.8723741896
 41
0.7070707071
 42
50.0
 43
0.0
 44
0.0
 50
0.0
 51
0.0
 71
0
 72
100
 73
1
 74
1
 75
0
 76
0
 77
0
 78
0
  0
ENDTAB
  0
TABLE
  2
LTYPE
  5
5
100
AcDbSymbolTable
 70
6
  0
LTYPE
  5
14
100
AcDbSymbolTableRecord
100
AcDbLinetypeTableRecord
  2
BYBLOCK
 70
0
  3

 72
65
 73
0
 40
0.0
  0
LTYPE
  5
15
100
AcDbSymbolTableRecord
100
AcDbLinetypeTableRecord
  2
BYLAYER
 70
0
  3

 72
65
 73
0
 40
0.0
  0
LTYPE
  5
16
100
AcDbSymbolTableRecord
100
AcDbLinetypeTableRecord
  2
CONTINUOUS
 70
64
  3
Solid line
 72
65
 73
0
 40
0.0
  0
LTYPE
  5
1F5
100
AcDbSymbolTableRecord
100
AcDbLinetypeTableRecord
  2
CENTER
 70
64
  3
____ _ ____ _ ____ _ ____ _ ____ _ ____ _ ____
 72
65
 73
4
 40
0.6
 49
0.375
 74
0
 49
-0.075
 74
0
 49
0.075
 74
0
 49
-0.075
 74
0
  0
LTYPE
  5
1F6
100
AcDbSymbolTableRecord
100
AcDbLinetypeTableRecord
  2
HIDDEN
 70
64
  3
- - - - - - - - - - - - - - - - - - - -
 72
65
 73
2
 40
0.2
 49
0.1
 74
0
 49
-0.1
 74
0
  0
LTYPE
  5
1F7
100
AcDbSymbolTableRecord
100
AcDbLinetypeTableRecord
  2
PHANTOM
 70
64
  3
_____ _ _ _____ _ _ _____ _ _ _____
 72
65
 73
6
 40
0.8
 49
0.45
 74
0
 49
-0.05
 74
0
 49
0.1
 74
0
 49
-0.05
 74
0
 49
0.1
 74
0
 49
-0.05
 74
0
  0
LTYPE
  5
1F8
100
AcDbSymbolTableRecord
100
AcDbLinetypeTableRecord
  2
DOT
 70
64
  3
. . . . . . . . . . . . . . . . . . . .
 72
65
 73
2
 40
0.2
 49
0.1
 74
0
 49
-0.1
 74
0
  0
LTYPE
  5
1F9
100
AcDbSymbolTableRecord
100
AcDbLinetypeTableRecord
  2
DASHED
 70
64
  3
- - - - - - - - - - - - - - - - - - - -
 72
65
 73
2
 40
0.2
 49
0.1
 74
0
 49
-0.1
 74
0
  0
ENDTAB
  0
TABLE
  2
LAYER
  5
2
100
AcDbSymbolTable
 70
36
  0
LAYER
  5
10
100
AcDbSymbolTableRecord
100
AcDbLayerTableRecord
  2
0
 70
0
 62
7
  6
CONTINUOUS
370
-3
390
F
  0
LAYER
  5
1FA
100
AcDbSymbolTableRecord
100
AcDbLayerTableRecord
  2
DEFAULT_1
 70
0
 62
7
  6
CENTER
370
-3
390
F
  0
LAYER
  5
1FB
100
AcDbSymbolTableRecord
100
AcDbLayerTableRecord
  2
DEFAULT_2
 70
0
 62
7
  6
HIDDEN
370
-3
390
F
  0
LAYER
  5
1FC
100
AcDbSymbolTableRecord
100
AcDbLayerTableRecord
  2
DEFAULT_3
 70
0
 62
7
  6
PHANTOM
370
-3
390
F
  0
LAYER
  5
1FD
100
AcDbSymbolTableRecord
100
AcDbLayerTableRecord
  2
00_COMPONENTS
 70
0
 62
7
  6
CONTINUOUS
370
-3
390
F
  0
LAYER
  5
1FE
100
AcDbSymbolTableRecord
100
AcDbLayerTableRecord
  2
00_COMPONENTS_1
 70
0
 62
7
  6
CONTINUOUS
370
-3
390
F
  0
LAYER
  5
1FF
100
AcDbSymbolTableRecord
100
AcDbLayerTableRecord
  2
00_COMPONENTS_10
 70
0
 62
7
  6
CONTINUOUS
370
-3
390
F
  0
LAYER
  5
200
100
AcDbSymbolTableRecord
100
AcDbLayerTableRecord
  2
00_COMPONENTS_11
 70
0
 62
7
  6
CONTINUOUS
370
-3
390
F
  0
LAYER
  5
201
100
AcDbSymbolTableRecord
100
AcDbLayerTableRecord
  2
00_COMPONENTS_12
 70
0
 62
7
  6
CONTINUOUS
370
-3
390
F
  0
LAYER
  5
202
100
AcDbSymbolTableRecord
100
AcDbLayerTableRecord
  2
00_COMPONENTS_13
 70
0
 62
7
  6
CONTINUOUS
370
-3
390
F
  0
LAYER
  5
203
100
AcDbSymbolTableRecord
100
AcDbLayerTableRecord
  2
00_COMPONENTS_2
 70
0
 62
7
  6
CONTINUOUS
370
-3
390
F
  0
LAYER
  5
204
100
AcDbSymbolTableRecord
100
AcDbLayerTableRecord
  2
00_COMPONENTS_3
 70
0
 62
7
  6
CONTINUOUS
370
-3
390
F
  0
LAYER
  5
205
100
AcDbSymbolTableRecord
100
AcDbLayerTableRecord
  2
00_COMPONENTS_4
 70
0
 62
7
  6
CONTINUOUS
370
-3
390
F
  0
LAYER
  5
206
100
AcDbSymbolTableRecord
100
AcDbLayerTableRecord
  2
00_COMPONENTS_5
 70
0
 62
7
  6
CONTINUOUS
370
-3
390
F
  0
LAYER
  5
207
100
AcDbSymbolTableRecord
100
AcDbLayerTableRecord
  2
00_COMPONENTS_8
 70
0
 62
7
  6
CONTINUOUS
370
-3
390
F
  0
LAYER
  5
208
100
AcDbSymbolTableRecord
100
AcDbLayerTableRecord
  2
00_COMPONENTS_9
 70
0
 62
7
  6
CONTINUOUS
370
-3
390
F
  0
LAYER
  5
209
100
AcDbSymbolTableRecord
100
AcDbLayerTableRecord
  2
01_1_DEFAULT_DATUMS
 70
0
 62
7
  6
CONTINUOUS
370
-3
390
F
  0
LAYER
  5
20A
100
AcDbSymbolTableRecord
100
AcDbLayerTableRecord
  2
01_PLANES
 70
0
 62
7
  6
CONTINUOUS
370
-3
390
F
  0
LAYER
  5
20B
100
AcDbSymbolTableRecord
100
AcDbLayerTableRecord
  2
02_COORD_SYS
 70
0
 62
7
  6
CONTINUOUS
370
-3
390
F
  0
LAYER
  5
20C
100
AcDbSymbolTableRecord
100
AcDbLayerTableRecord
  2
03_AXES
 70
0
 62
7
  6
CONTINUOUS
370
-3
390
F
  0
LAYER
  5
20D
100
AcDbSymbolTableRecord
100
AcDbLayerTableRecord
  2
04_POINTS
 70
0
 62
7
  6
CONTINUOUS
370
-3
390
F
  0
LAYER
  5
20E
100
AcDbSymbolTableRecord
100
AcDbLayerTableRecord
  2
05_CURVES
 70
0
 62
7
  6
CONTINUOUS
370
-3
390
F
  0
LAYER
  5
20F
100
AcDbSymbolTableRecord
100
AcDbLayerTableRecord
  2
06_SURFS
 70
0
 62
7
  6
CONTINUOUS
370
-3
390
F
  0
LAYER
  5
210
100
AcDbSymbolTableRecord
100
AcDbLayerTableRecord
  2
07_COSMETICS
 70
0
 62
7
  6
CONTINUOUS
370
-3
390
F
  0
LAYER
  5
211
100
AcDbSymbolTableRecord
100
AcDbLayerTableRecord
  2
10_NOTES
 70
0
 62
7
  6
CONTINUOUS
370
-3
390
F
  0
LAYER
  5
212
100
AcDbSymbolTableRecord
100
AcDbLayerTableRecord
  2
11_NOTES_PUB
 70
0
 62
7
  6
CONTINUOUS
370
-3
390
F
  0
LAYER
  5
213
100
AcDbSymbolTableRecord
100
AcDbLayerTableRecord
  2
13_REF_GTOL
 70
0
 62
7
  6
CONTINUOUS
370
-3
390
F
  0
LAYER
  5
214
100
AcDbSymbolTableRecord
100
AcDbLayerTableRecord
  2
16_MISC
 70
0
 62
7
  6
CONTINUOUS
370
-3
390
F
  0
LAYER
  5
215
100
AcDbSymbolTableRecord
100
AcDbLayerTableRecord
  2
17_NO_PRINT
 70
0
 62
7
  6
CONTINUOUS
370
-3
390
F
  0
LAYER
  5
216
100
AcDbSymbolTableRecord
100
AcDbLayerTableRecord
  2
18_DATUM_CAMS_JOINTS
 70
0
 62
7
  6
CONTINUOUS
370
-3
390
F
  0
LAYER
  5
217
100
AcDbSymbolTableRecord
100
AcDbLayerTableRecord
  2
19_DATUM_FUNCTIONAL
 70
0
 62
7
  6
CONTINUOUS
370
-3
390
F
  0
LAYER
  5
218
100
AcDbSymbolTableRecord
100
AcDbLayerTableRecord
  2
20_DATUM_KINEMATIC_SCHEME
 70
0
 62
7
  6
CONTINUOUS
370
-3
390
F
  0
ENDTAB
  0
TABLE
  2
STYLE
  5
3
100
AcDbSymbolTable
 70
1
  0
STYLE
  5
11
100
AcDbSymbolTableRecord
100
AcDbTextStyleTableRecord
  2
STANDARD
 70
0
 40
0.0
 41
1.0
 50
0.0
 71
0
 42
0.2
  3
ARIAL.TTF
  4

  0
STYLE
  5
219
100
AcDbSymbolTableRecord
100
AcDbTextStyleTableRecord
  2
TEXTSTYLE_1
 70
0
 40
0.0
 41
0.8
 50
0.0
 71
0
 42
0.2
  3
gdt
  4

  0
ENDTAB
  0
TABLE
  2
VIEW
  5
6
100
AcDbSymbolTable
 70
0
  0
ENDTAB
  0
TABLE
  2
UCS
  5
7
100
AcDbSymbolTable
 70
0
  0
ENDTAB
  0
TABLE
  2
APPID
  5
9
100
AcDbSymbolTable
 70
1
  0
APPID
  5
21A
100
AcDbSymbolTableRecord
100
AcDbRegAppTableRecord
  2
ACAD
 70
0
  0
ENDTAB
  0
TABLE
  2
BLOCK_RECORD
  5
1
100
AcDbSymbolTable
 70
0
  0
BLOCK_RECORD
  5
21B
100
AcDbSymbolTableRecord
100
AcDbBlockTableRecord
  2
*Model_Space
  0
BLOCK_RECORD
  5
21C
100
AcDbSymbolTableRecord
100
AcDbBlockTableRecord
  2
*Paper_Space
  0
BLOCK_RECORD
  5
21D
100
AcDbSymbolTableRecord
100
AcDbBlockTableRecord
  2
_FILLED
  0
ENDTAB
  0
TABLE
  2
DIMSTYLE
  5
A
100
AcDbSymbolTable
 70
1
100
AcDbDimStyleTable
 71
0
  0
DIMSTYLE
105
21E
100
AcDbSymbolTableRecord
100
AcDbDimStyleTableRecord
  2
STANDARD
 70
0
  3

  4

 40
1.0
 41
0.731248941
 42
1.0
 43
0.38
 44
1.0
 45
0.0
 46
0.0
 47
0.01
 48
0.01
140
1.0237485174
141
0.09
142
0.0
143
25.4
144
1.0
145
0.0
146
1.0
147
0.625
 71
1
 72
0
 73
0
 74
0
 75
0
 76
0
 77
1
 78
8
 79
2
170
0
171
1
172
0
173
0
174
0
175
0
176
0
177
0
178
0
270
2
179
2
271
2
272
2
273
2
274
2
275
0
280
0
281
0
282
0
283
1
284
8
285
0
286
0
287
3
288
0
340
11
278
46
341
21D
342
21D
343
21D
344
21D
  0
ENDTAB
  0
ENDSEC
  0
SECTION
  2
BLOCKS
  0
BLOCK
  5
20
100
AcDbEntity
  8
0
100
AcDbBlockBegin
  2
*Model_Space
 70
0
 10
0.0
 20
0.0
 30
0.0
  3
*Model_Space
  1

  0
ENDBLK
  5
21
100
AcDbEntity
  8
0
100
AcDbBlockEnd
  0
BLOCK
  5
1C
100
AcDbEntity
  8
0
100
AcDbBlockBegin
  2
*Paper_Space
 70
0
 10
0.0
 20
0.0
 30
0.0
  3
*Paper_Space
  1

  0
ENDBLK
  5
1D
100
AcDbEntity
  8
0
100
AcDbBlockEnd
  0
BLOCK
  5
21F
100
AcDbEntity
  8
0
100
AcDbBlockBegin
  2
_FILLED
 70
64
 10
0.0
 20
0.0
  3
_FILLED
  1

  0
SOLID
  5
220
100
AcDbEntity
  8
0
  6
BYBLOCK
 62
0
100
AcDbTrace
 10
0.0
 20
0.0
 11
-1.0
 21
0.25
 12
-1.0
 22
-0.25
 13
-1.0
 23
-0.25
  0
ENDBLK
  5
221
100
AcDbEntity
  8
0
  6
BYBLOCK
 62
0
100
AcDbBlockEnd
  0
ENDSEC
  0
SECTION
  2
ENTITIES
  0
LINE
  5
222
100
AcDbEntity
  8
00_COMPONENTS_10
100
AcDbLine
 62
7
  6
BYLAYER
 10
17.7100565429
 20
6.2203597942
 11
31.5089916918
 21
6.2203597942
  0
LINE
  5
223
100
AcDbEntity
  8
00_COMPONENTS_10
100
AcDbLine
 62
7
  6
BYLAYER
 10
31.5097010968
 20
6.220359769
 11
45.3098176411
 21
6.2203597942
  0
LINE
  5
224
100
AcDbEntity
  8
00_COMPONENTS_10
100
AcDbLine
 62
7
  6
BYLAYER
 10
17.5099375368
 20
6.4203597942
 11
29.1519723123
 21
6.4203597942
  0
LINE
  5
225
100
AcDbEntity
  8
00_COMPONENTS_10
100
AcDbLine
 62
7
  6
BYLAYER
 10
33.8679027613
 20
6.4203597942
 11
45.5099375368
 21
6.4203597942
  0
LINE
  5
226
100
AcDbEntity
  8
00_COMPONENTS_10
100
AcDbLine
 62
7
  6
BYLAYER
 10
17.5099375368
 20
6.8703597942
 11
45.5099375368
 21
6.8703597942
  0
LINE
  5
227
100
AcDbEntity
  8
00_COMPONENTS_11
100
AcDbLine
 62
7
  6
BYLAYER
 10
17.3099375368
 20
7.1703597942
 11
45.7099375368
 21
7.1703597942
  0
LINE
  5
228
100
AcDbEntity
  8
00_COMPONENTS_11
100
AcDbLine
 62
7
  6
BYLAYER
 10
16.5099375368
 20
7.9703597942
 11
46.5099375368
 21
7.9703597942
  0
LINE
  5
229
100
AcDbEntity
  8
00_COMPONENTS_11
100
AcDbLine
 62
7
  6
BYLAYER
 10
16.5099375368
 20
7.9703597942
 11
17.3099375368
 21
7.1703597942
  0
LINE
  5
22A
100
AcDbEntity
  8
00_COMPONENTS_5
100
AcDbLine
 62
7
  6
BYLAYER
 10
49.5099375368
 20
14.2203597942
 11
51.5099375368
 21
14.7562581791
  0
LINE
  5
22B
100
AcDbEntity
  8
00_COMPONENTS_5
100
AcDbLine
 62
7
  6
BYLAYER
 10
13.5099375368
 20
14.2203597942
 11
11.5099375368
 21
14.7562581791
  0
LINE
  5
22C
100
AcDbEntity
  8
00_COMPONENTS_13
100
AcDbLine
 62
7
  6
BYLAYER
 10
26.0099375368
 20
77.9203597942
 11
25.5099375368
 21
77.4203597942
  0
LINE
  5
22D
100
AcDbEntity
  8
00_COMPONENTS_5
100
AcDbLine
 62
7
  6
BYLAYER
 10
13.5099436943
 20
14.2203597942
 11
49.5099313792
 21
14.2203597942
  0
LINE
  5
22E
100
AcDbEntity
  8
00_COMPONENTS_5
100
AcDbLine
 62
7
  6
BYLAYER
 10
11.5099375368
 20
14.7562581791
 11
11.5613387501
 21
14.7562581791
  0
LINE
  5
22F
100
AcDbEntity
  8
00_COMPONENTS_5
100
AcDbLine
 62
7
  6
BYLAYER
 10
20.2661180831
 20
14.7562581791
 11
22.7766276023
 21
14.7562581791
  0
LINE
  5
230
100
AcDbEntity
  8
00_COMPONENTS_5
100
AcDbLine
 62
7
  6
BYLAYER
 10
40.2122168994
 20
14.7562581791
 11
42.725226389
 21
14.7562581791
  0
LINE
  5
231
100
AcDbEntity
  8
00_COMPONENTS_5
100
AcDbLine
 62
7
  6
BYLAYER
 10
51.4560363531
 20
14.7562581791
 11
51.5099375368
 21
14.7562581791
  0
LINE
  5
232
100
AcDbEntity
  8
00_COMPONENTS_5
100
AcDbLine
 62
7
  6
BYLAYER
 10
51.5099375368
 20
17.6844614094
 11
51.4560363531
 21
17.6844614094
  0
LINE
  5
233
100
AcDbEntity
  8
00_COMPONENTS_5
100
AcDbLine
 62
7
  6
BYLAYER
 10
42.725226389
 20
17.6844614094
 11
40.2122168994
 21
17.6844614094
  0
LINE
  5
234
100
AcDbEntity
  8
00_COMPONENTS_5
100
AcDbLine
 62
7
  6
BYLAYER
 10
22.7766276023
 20
17.6844614094
 11
20.2661180831
 21
17.6844614094
  0
LINE
  5
235
100
AcDbEntity
  8
00_COMPONENTS_5
100
AcDbLine
 62
7
  6
BYLAYER
 10
11.5613387501
 20
17.6844614094
 11
11.5099375368
 21
17.6844614094
  0
LINE
  5
236
100
AcDbEntity
  8
00_COMPONENTS_5
100
AcDbLine
 62
7
  6
BYLAYER
 10
49.5099313792
 20
18.2203597942
 11
13.5099436943
 21
18.2203597942
  0
LINE
  5
237
100
AcDbEntity
  8
00_COMPONENTS_5
100
AcDbLine
 62
7
  6
BYLAYER
 10
49.5099375368
 20
23.6203597942
 11
51.5099375368
 21
24.1562581791
  0
LINE
  5
238
100
AcDbEntity
  8
00_COMPONENTS_5
100
AcDbLine
 62
7
  6
BYLAYER
 10
13.5099375368
 20
23.6203597942
 11
11.5099375368
 21
24.1562581791
  0
LINE
  5
239
100
AcDbEntity
  8
00_COMPONENTS_5
100
AcDbLine
 62
7
  6
BYLAYER
 10
11.5099375368
 20
17.6844614094
 11
11.5099375368
 21
14.7562581791
  0
LINE
  5
23A
100
AcDbEntity
  8
00_COMPONENTS_5
100
AcDbLine
 62
7
  6
BYLAYER
 10
11.5099375368
 20
24.1562581791
 11
11.5099375368
 21
27.0844614094
  0
LINE
  5
23B
100
AcDbEntity
  8
00_COMPONENTS_5
100
AcDbLine
 62
7
  6
BYLAYER
 10
11.5613387501
 20
17.6844614094
 11
11.5613387501
 21
14.7562581791
  0
LINE
  5
23C
100
AcDbEntity
  8
00_COMPONENTS_5
100
AcDbLine
 62
7
  6
BYLAYER
 10
11.5625813251
 20
27.0844614094
 11
11.5625813251
 21
24.1562581791
  0
LINE
  5
23D
100
AcDbEntity
  8
00_COMPONENTS_11
100
AcDbLine
 62
7
  6
BYLAYER
 10
17.7599375368
 20
61.1971547135
 11
17.8599375368
 21
61.3703597942
  0
LINE
  5
23E
100
AcDbEntity
  8
00_COMPONENTS_11
100
AcDbLine
 62
7
  6
BYLAYER
 10
16.5099375368
 20
57.1203597942
 11
17.7599375368
 21
58.3703597942
  0
LINE
  5
23F
100
AcDbEntity
  8
00_COMPONENTS_5
100
AcDbLine
 62
7
  6
BYLAYER
 10
13.5099375368
 20
18.2203597942
 11
11.5099375368
 21
17.6844614094
  0
LINE
  5
240
100
AcDbEntity
  8
00_COMPONENTS_5
100
AcDbLine
 62
7
  6
BYLAYER
 10
13.5099436093
 20
23.6203597942
 11
49.5099314643
 21
23.6203597942
  0
LINE
  5
241
100
AcDbEntity
  8
00_COMPONENTS_5
100
AcDbLine
 62
7
  6
BYLAYER
 10
49.5099375368
 20
18.2203597942
 11
51.5099375368
 21
17.6844614094
  0
LINE
  5
242
100
AcDbEntity
  8
00_COMPONENTS_5
100
AcDbLine
 62
7
  6
BYLAYER
 10
11.5099375368
 20
24.1562581791
 11
11.5625813251
 21
24.1562581791
  0
LINE
  5
243
100
AcDbEntity
  8
00_COMPONENTS_5
100
AcDbLine
 62
7
  6
BYLAYER
 10
20.2803792122
 20
24.1562581791
 11
22.7921396497
 21
24.1562581791
  0
LINE
  5
244
100
AcDbEntity
  8
00_COMPONENTS_5
100
AcDbLine
 62
7
  6
BYLAYER
 10
40.2277354239
 20
24.1562581791
 11
42.7394958614
 21
24.1562581791
  0
LINE
  5
245
100
AcDbEntity
  8
00_COMPONENTS_5
100
AcDbLine
 62
7
  6
BYLAYER
 10
51.4572937484
 20
24.1562581791
 11
51.5099375368
 21
24.1562581791
  0
LINE
  5
246
100
AcDbEntity
  8
00_COMPONENTS_11
100
AcDbLine
 62
7
  6
BYLAYER
 10
16.5099375368
 20
7.9703597942
 11
16.5099375368
 21
14.2203597942
  0
LINE
  5
247
100
AcDbEntity
  8
00_COMPONENTS_11
100
AcDbLine
 62
7
  6
BYLAYER
 10
16.5099375368
 20
18.2203597942
 11
16.5099375368
 21
23.6203597942
  0
LINE
  5
248
100
AcDbEntity
  8
00_COMPONENTS_11
100
AcDbLine
 62
7
  6
BYLAYER
 10
16.5099375368
 20
27.6203597942
 11
16.5099375368
 21
57.1203597942
  0
LINE
  5
249
100
AcDbEntity
  8
00_COMPONENTS_10
100
AcDbLine
 62
7
  6
BYLAYER
 10
17.5099375368
 20
6.4203597942
 11
17.5099375368
 21
7.1703597942
  0
LINE
  5
24A
100
AcDbEntity
  8
00_COMPONENTS_13
100
AcDbLine
 62
7
  6
BYLAYER
 10
17.7599375368
 20
64.8703597942
 11
17.7599375368
 21
64.3703597942
  0
LINE
  5
24B
100
AcDbEntity
  8
00_COMPONENTS_11
100
AcDbLine
 62
7
  6
BYLAYER
 10
17.7599375368
 20
58.3703597942
 11
17.7599375368
 21
61.1971547135
  0
LINE
  5
24C
100
AcDbEntity
  8
00_COMPONENTS_11
100
AcDbLine
 62
7
  6
BYLAYER
 10
17.7599375368
 20
61.543564875
 11
17.7599375368
 21
64.3703597942
  0
LINE
  5
24D
100
AcDbEntity
  8
00_COMPONENTS_13
100
AcDbLine
 62
7
  6
BYLAYER
 10
37.0099375368
 20
71.1203597942
 11
37.5099375368
 21
71.6203597942
  0
LINE
  5
24E
100
AcDbEntity
  8
00_COMPONENTS_5
100
AcDbLine
 62
7
  6
BYLAYER
 10
51.5099375368
 20
27.0844614094
 11
51.4572937484
 21
27.0844614094
  0
LINE
  5
24F
100
AcDbEntity
  8
00_COMPONENTS_5
100
AcDbLine
 62
7
  6
BYLAYER
 10
42.7394958614
 20
27.0844614094
 11
40.2277354239
 21
27.0844614094
  0
LINE
  5
250
100
AcDbEntity
  8
00_COMPONENTS_5
100
AcDbLine
 62
7
  6
BYLAYER
 10
22.7921396497
 20
27.0844614094
 11
20.2803792122
 21
27.0844614094
  0
LINE
  5
251
100
AcDbEntity
  8
00_COMPONENTS_5
100
AcDbLine
 62
7
  6
BYLAYER
 10
11.5625813251
 20
27.0844614094
 11
11.5099375368
 21
27.0844614094
  0
LINE
  5
252
100
AcDbEntity
  8
00_COMPONENTS_5
100
AcDbLine
 62
7
  6
BYLAYER
 10
49.5099314643
 20
27.6203597942
 11
13.5099436093
 21
27.6203597942
  0
LINE
  5
253
100
AcDbEntity
  8
00_COMPONENTS_5
100
AcDbLine
 62
7
  6
BYLAYER
 10
20.2661180831
 20
14.7562581791
 11
20.2661180831
 21
17.6844614094
  0
LINE
  5
254
100
AcDbEntity
  8
00_COMPONENTS_5
100
AcDbLine
 62
7
  6
BYLAYER
 10
20.2803792122
 20
24.1562581791
 11
20.2803792122
 21
27.0844614094
  0
LINE
  5
255
100
AcDbEntity
  8
00_COMPONENTS_5
100
AcDbLine
 62
7
  6
BYLAYER
 10
22.7766276023
 20
17.6844614094
 11
22.7766276023
 21
14.7562581791
  0
LINE
  5
256
100
AcDbEntity
  8
00_COMPONENTS_5
100
AcDbLine
 62
7
  6
BYLAYER
 10
22.7921396497
 20
27.0844614094
 11
22.7921396497
 21
24.1562581791
  0
LINE
  5
257
100
AcDbEntity
  8
00_COMPONENTS_5
100
AcDbLine
 62
7
  6
BYLAYER
 10
13.5099375368
 20
27.6203597942
 11
11.5099375368
 21
27.0844614094
  0
LINE
  5
258
100
AcDbEntity
  8
00_COMPONENTS_5
100
AcDbLine
 62
7
  6
BYLAYER
 10
49.5099375368
 20
27.6203597942
 11
51.5099375368
 21
27.0844614094
  0
LINE
  5
259
100
AcDbEntity
  8
00_COMPONENTS_13
100
AcDbLine
 62
7
  6
BYLAYER
 10
25.5099375368
 20
77.4203597942
 11
25.5099375368
 21
71.6203597942
  0
LINE
  5
25A
100
AcDbEntity
  8
00_COMPONENTS_13
100
AcDbLine
 62
7
  6
BYLAYER
 10
26.0099375368
 20
79.1203597942
 11
26.0099375368
 21
77.9203597942
  0
LINE
  5
25B
100
AcDbEntity
  8
00_COMPONENTS_13
100
AcDbLine
 62
7
  6
BYLAYER
 10
26.0099375368
 20
71.1203597942
 11
26.0099375368
 21
67.9703597942
  0
LINE
  5
25C
100
AcDbEntity
  8
00_COMPONENTS_9
100
AcDbLine
 62
7
  6
BYLAYER
 10
26.1599375368
 20
79.9203597942
 11
26.1599375368
 21
79.1203597942
  0
LINE
  5
25D
100
AcDbEntity
  8
00_COMPONENTS_11
100
AcDbLine
 62
7
  6
BYLAYER
 10
17.8599375368
 20
61.3703597942
 11
17.7599375368
 21
61.543564875
  0
LINE
  5
25E
100
AcDbEntity
  8
00_COMPONENTS_10
100
AcDbLine
 62
7
  6
BYLAYER
 10
29.1519723123
 20
6.8703597942
 11
29.1519723123
 21
6.4203597942
  0
LINE
  5
25F
100
AcDbEntity
  8
00_COMPONENTS_13
100
AcDbLine
 62
7
  6
BYLAYER
 10
37.0071688826
 20
67.9601394243
 11
37.0099375368
 21
67.970353886
  0
LINE
  5
260
100
AcDbEntity
  8
00_COMPONENTS_10
100
AcDbLine
 62
7
  6
BYLAYER
 10
33.8679027613
 20
6.4203597942
 11
33.8679027613
 21
6.8703597942
  0
LINE
  5
261
100
AcDbEntity
  8
00_COMPONENTS_11
100
AcDbLine
 62
7
  6
BYLAYER
 10
45.1599375368
 20
61.3703597942
 11
45.2599375368
 21
61.543564875
  0
LINE
  5
262
100
AcDbEntity
  8
00_COMPONENTS_13
100
AcDbLine
 62
7
  6
BYLAYER
 10
26.0099514855
 20
67.9702893408
 11
26.0126742613
 21
67.9602677923
  0
LINE
  5
263
100
AcDbEntity
  8
00_COMPONENTS_9
100
AcDbLine
 62
7
  6
BYLAYER
 10
36.8599375368
 20
79.9203597942
 11
36.8599375368
 21
79.1203597942
  0
LINE
  5
264
100
AcDbEntity
  8
00_COMPONENTS_13
100
AcDbLine
 62
7
  6
BYLAYER
 10
37.0099375368
 20
79.1203597942
 11
37.0099375368
 21
77.9203597942
  0
LINE
  5
265
100
AcDbEntity
  8
00_COMPONENTS_13
100
AcDbLine
 62
7
  6
BYLAYER
 10
37.0099375368
 20
71.1203597942
 11
37.0099375368
 21
67.9703597942
  0
LINE
  5
266
100
AcDbEntity
  8
00_COMPONENTS_13
100
AcDbLine
 62
7
  6
BYLAYER
 10
37.5099375368
 20
77.4203597942
 11
37.5099375368
 21
71.6203597942
  0
LINE
  5
267
100
AcDbEntity
  8
00_COMPONENTS_5
100
AcDbLine
 62
7
  6
BYLAYER
 10
40.2122168994
 20
14.7562581791
 11
40.2122168994
 21
17.6844614094
  0
LINE
  5
268
100
AcDbEntity
  8
00_COMPONENTS_5
100
AcDbLine
 62
7
  6
BYLAYER
 10
40.2277354239
 20
24.1562581791
 11
40.2277354239
 21
27.0844614094
  0
LINE
  5
269
100
AcDbEntity
  8
00_COMPONENTS_5
100
AcDbLine
 62
7
  6
BYLAYER
 10
42.725226389
 20
17.6844614094
 11
42.725226389
 21
14.7562581791
  0
LINE
  5
26A
100
AcDbEntity
  8
00_COMPONENTS_5
100
AcDbLine
 62
7
  6
BYLAYER
 10
42.7394958614
 20
27.0844614094
 11
42.7394958614
 21
24.1562581791
  0
LINE
  5
26B
100
AcDbEntity
  8
00_COMPONENTS_13
100
AcDbLine
 62
7
  6
BYLAYER
 10
37.0097808024
 20
64.9709415948
 11
37.0099375368
 21
64.9703598406
  0
LINE
  5
26C
100
AcDbEntity
  8
00_COMPONENTS_13
100
AcDbLine
 62
7
  6
BYLAYER
 10
45.2599375368
 20
64.8703597942
 11
45.2599375368
 21
64.3703597942
  0
LINE
  5
26D
100
AcDbEntity
  8
00_COMPONENTS_11
100
AcDbLine
 62
7
  6
BYLAYER
 10
45.2599375368
 20
58.3703597942
 11
45.2599375368
 21
61.1971547135
  0
LINE
  5
26E
100
AcDbEntity
  8
00_COMPONENTS_11
100
AcDbLine
 62
7
  6
BYLAYER
 10
45.2599375368
 20
61.543564875
 11
45.2599375368
 21
64.3703597942
  0
LINE
  5
26F
100
AcDbEntity
  8
00_COMPONENTS_10
100
AcDbLine
 62
7
  6
BYLAYER
 10
45.5099375368
 20
6.4203597942
 11
45.5099375368
 21
7.1703597942
  0
LINE
  5
270
100
AcDbEntity
  8
00_COMPONENTS_11
100
AcDbLine
 62
7
  6
BYLAYER
 10
46.5099375368
 20
57.1203597942
 11
16.5099375368
 21
57.1203597942
  0
LINE
  5
271
100
AcDbEntity
  8
00_COMPONENTS_11
100
AcDbLine
 62
7
  6
BYLAYER
 10
46.5099375368
 20
7.9703597942
 11
46.5099375368
 21
14.2203597942
  0
LINE
  5
272
100
AcDbEntity
  8
00_COMPONENTS_11
100
AcDbLine
 62
7
  6
BYLAYER
 10
46.5099375368
 20
18.2203597942
 11
46.5099375368
 21
23.6203597942
  0
LINE
  5
273
100
AcDbEntity
  8
00_COMPONENTS_11
100
AcDbLine
 62
7
  6
BYLAYER
 10
46.5099375368
 20
27.6203597942
 11
46.5099375368
 21
57.1203597942
  0
LINE
  5
274
100
AcDbEntity
  8
00_COMPONENTS_11
100
AcDbLine
 62
7
  6
BYLAYER
 10
17.7599375368
 20
58.3703597942
 11
45.2599375368
 21
58.3703597942
  0
LINE
  5
275
100
AcDbEntity
  8
00_COMPONENTS_13
100
AcDbLine
 62
7
  6
BYLAYER
 10
26.0099375368
 20
71.1203597942
 11
25.5099375368
 21
71.6203597942
  0
LINE
  5
276
100
AcDbEntity
  8
00_COMPONENTS_5
100
AcDbLine
 62
7
  6
BYLAYER
 10
51.4560363531
 20
14.7562581791
 11
51.4560363531
 21
17.6844614094
  0
LINE
  5
277
100
AcDbEntity
  8
00_COMPONENTS_5
100
AcDbLine
 62
7
  6
BYLAYER
 10
51.4572937484
 20
24.1562581791
 11
51.4572937484
 21
27.0844614094
  0
LINE
  5
278
100
AcDbEntity
  8
00_COMPONENTS_11
100
AcDbLine
 62
7
  6
BYLAYER
 10
45.2599375368
 20
61.1971547135
 11
17.7599375368
 21
61.1971547135
  0
LINE
  5
279
100
AcDbEntity
  8
00_COMPONENTS_11
100
AcDbLine
 62
7
  6
BYLAYER
 10
45.1599375368
 20
61.3703597942
 11
17.8599375368
 21
61.3703597942
  0
LINE
  5
27A
100
AcDbEntity
  8
00_COMPONENTS_11
100
AcDbLine
 62
7
  6
BYLAYER
 10
17.7599375368
 20
61.543564875
 11
45.2599375368
 21
61.543564875
  0
LINE
  5
27B
100
AcDbEntity
  8
00_COMPONENTS_5
100
AcDbLine
 62
7
  6
BYLAYER
 10
51.5099375368
 20
17.6844614094
 11
51.5099375368
 21
14.7562581791
  0
LINE
  5
27C
100
AcDbEntity
  8
00_COMPONENTS_5
100
AcDbLine
 62
7
  6
BYLAYER
 10
51.5099375368
 20
24.1562581791
 11
51.5099375368
 21
27.0844614094
  0
LINE
  5
27D
100
AcDbEntity
  8
00_COMPONENTS_11
100
AcDbLine
 62
7
  6
BYLAYER
 10
45.2599375368
 20
64.3703597942
 11
17.7599375368
 21
64.3703597942
  0
LINE
  5
27E
100
AcDbEntity
  8
00_COMPONENTS_13
100
AcDbLine
 62
7
  6
BYLAYER
 10
17.7599375368
 20
64.3703597942
 11
45.2599375368
 21
64.3703597942
  0
LINE
  5
27F
100
AcDbEntity
  8
00_COMPONENTS_13
100
AcDbLine
 62
7
  6
BYLAYER
 10
45.2599375368
 20
64.8703597942
 11
17.7599375368
 21
64.8703597942
  0
LINE
  5
280
100
AcDbEntity
  8
00_COMPONENTS_13
100
AcDbLine
 62
7
  6
BYLAYER
 10
31.509994764
 20
64.9703597942
 11
37.0099375365
 21
64.9703597942
  0
LINE
  5
281
100
AcDbEntity
  8
00_COMPONENTS_9
100
AcDbLine
 62
7
  6
BYLAYER
 10
32.7042675102
 20
65.5811293097
 11
30.3058984753
 21
65.5811293097
  0
LINE
  5
282
100
AcDbEntity
  8
00_COMPONENTS_13
100
AcDbLine
 62
7
  6
BYLAYER
 10
31.4138497971
 20
64.9734405759
 11
31.5100058814
 21
64.9703597958
  0
LINE
  5
283
100
AcDbEntity
  8
00_COMPONENTS_11
100
AcDbLine
 62
7
  6
BYLAYER
 10
46.5099375368
 20
57.1203597942
 11
45.2599375368
 21
58.3703597942
  0
LINE
  5
284
100
AcDbEntity
  8
00_COMPONENTS_11
100
AcDbLine
 62
7
  6
BYLAYER
 10
45.2599375368
 20
61.1971547135
 11
45.1599375368
 21
61.3703597942
  0
LINE
  5
285
100
AcDbEntity
  8
00_COMPONENTS_9
100
AcDbLine
 62
7
  6
BYLAYER
 10
30.0876771047
 20
66.0574432818
 11
32.9336503587
 21
66.0574432818
  0
LINE
  5
286
100
AcDbEntity
  8
00_COMPONENTS_13
100
AcDbLine
 62
7
  6
BYLAYER
 10
37.0099375368
 20
71.1203597942
 11
26.0099375368
 21
71.1203597942
  0
LINE
  5
287
100
AcDbEntity
  8
00_COMPONENTS_13
100
AcDbLine
 62
7
  6
BYLAYER
 10
25.5099375368
 20
71.6203597942
 11
37.5099375368
 21
71.6203597942
  0
LINE
  5
288
100
AcDbEntity
  8
00_COMPONENTS_13
100
AcDbLine
 62
7
  6
BYLAYER
 10
37.0099375368
 20
77.9203597942
 11
37.5099375368
 21
77.4203597942
  0
LINE
  5
289
100
AcDbEntity
  8
00_COMPONENTS_11
100
AcDbLine
 62
7
  6
BYLAYER
 10
46.5099375368
 20
7.9703597942
 11
45.7099375368
 21
7.1703597942
  0
LINE
  5
28A
100
AcDbEntity
  8
00_COMPONENTS_13
100
AcDbLine
 62
7
  6
BYLAYER
 10
37.5099375368
 20
77.4203597942
 11
25.5099375368
 21
77.4203597942
  0
LINE
  5
28B
100
AcDbEntity
  8
00_COMPONENTS_13
100
AcDbLine
 62
7
  6
BYLAYER
 10
26.0099375368
 20
77.9203597942
 11
37.0099375368
 21
77.9203597942
  0
LINE
  5
28C
100
AcDbEntity
  8
00_COMPONENTS_13
100
AcDbLine
 62
7
  6
BYLAYER
 10
37.0098579997
 20
79.1203597942
 11
26.0099981551
 21
79.1203597942
  0
LINE
  5
28D
100
AcDbEntity
  8
00_COMPONENTS_9
100
AcDbLine
 62
7
  6
BYLAYER
 10
36.8599375368
 20
79.9203597942
 11
26.1599375368
 21
79.9203597942
  0
LINE
  5
28E
100
AcDbEntity
  8
00_COMPONENTS_9
100
AcDbLine
 62
7
  6
BYLAYER
 10
36.6599273186
 20
80.1203597942
 11
26.3599375368
 21
80.1203597942
  0
ARC
  5
28F
100
AcDbEntity
  8
00_COMPONENTS_13
100
AcDbCircle
 62
7
  6
BYLAYER
 10
31.5099375368
 20
66.4703597942
 40
1.5
100
AcDbArc
 50
270.0026105726
 51
266.3272038948
  0
ARC
  5
290
100
AcDbEntity
  8
00_COMPONENTS_9
100
AcDbCircle
 62
7
  6
BYLAYER
 10
26.3599375368
 20
79.9203597942
 40
0.2
100
AcDbArc
 50
90.0
 51
180.0
  0
ARC
  5
291
100
AcDbEntity
  8
00_COMPONENTS_9
100
AcDbCircle
 62
7
  6
BYLAYER
 10
36.6599375368
 20
79.9203597942
 40
0.2
100
AcDbArc
 50
0.0
 51
90.0
  0
ARC
  5
292
100
AcDbEntity
  8
00_COMPONENTS_10
100
AcDbCircle
 62
7
  6
BYLAYER
 10
45.3099375368
 20
6.4203597942
 40
0.2
100
AcDbArc
 50
270.0
 51
360.0
  0
ARC
  5
293
100
AcDbEntity
  8
00_COMPONENTS_10
100
AcDbCircle
 62
7
  6
BYLAYER
 10
17.7099375368
 20
6.4203597942
 40
0.2
100
AcDbArc
 50
180.0
 51
270.0
  0
ARC
  5
294
100
AcDbEntity
  8
00_COMPONENTS_13
100
AcDbCircle
 62
7
  6
BYLAYER
 10
37.1099375368
 20
64.9703597942
 40
0.1
100
AcDbArc
 50
180.0
 51
269.9999197326
  0
ARC
  5
295
100
AcDbEntity
  8
00_COMPONENTS_13
100
AcDbCircle
 62
7
  6
BYLAYER
 10
25.9099375368
 20
64.9703597942
 40
0.1
100
AcDbArc
 50
270.0000802674
 51
360.0
  0
SPLINE
  5
296
100
AcDbEntity
  8
00_COMPONENTS_5
100
AcDbSpline
 62
7
  6
BYLAYER
 70
0
 71
3
 72
10
 73
6
 74
0
 42
0.0000001
 43
0.0000001
 44
0.0000000001
 40
0.0
 40
0.0
 40
0.0
 40
0.0
 40
0.5025442323
 40
0.7516485949
 40
1.0
 40
1.0
 40
1.0
 40
1.0
 10
42.7394958614
 20
24.1562581791
 30
0.0
 10
43.4572735408
 20
23.9885905599
 30
0.0
 10
44.5435855329
 20
23.7853401374
 30
0.0
 10
46.004251431
 20
23.6442393805
 30
0.0
 10
46.7341284446
 20
23.6203597942
 30
0.0
 10
47.098394805
 20
23.6203597942
 30
0.0
  0
SPLINE
  5
297
100
AcDbEntity
  8
00_COMPONENTS_5
100
AcDbSpline
 62
7
  6
BYLAYER
 70
0
 71
3
 72
10
 73
6
 74
0
 42
0.0000001
 43
0.0000001
 44
0.0000000001
 40
0.0
 40
0.0
 40
0.0
 40
0.0
 40
0.2483514051
 40
0.497455769
 40
1.0
 40
1.0
 40
1.0
 40
1.0
 10
15.9214802679
 20
23.6203597942
 30
0.0
 10
16.2857466284
 20
23.6203597942
 30
0.0
 10
17.0156236491
 20
23.6442392817
 30
0.0
 10
18.476289531
 20
23.785340234
 30
0.0
 10
19.5626015342
 20
23.9885905602
 30
0.0
 10
20.2803792122
 20
24.1562581791
 30
0.0
  0
SPLINE
  5
298
100
AcDbEntity
  8
00_COMPONENTS_5
100
AcDbSpline
 62
7
  6
BYLAYER
 70
0
 71
3
 72
10
 73
6
 74
0
 42
0.0000001
 43
0.0000001
 44
0.0000000001
 40
0.0
 40
0.0
 40
0.0
 40
0.0
 40
0.4999779593
 40
0.7499889629
 40
1.0
 40
1.0
 40
1.0
 40
1.0
 10
22.7921396497
 20
24.1562581791
 30
0.0
 10
24.2386706804
 20
23.9873086415
 30
0.0
 10
26.4152457331
 20
23.7844963407
 30
0.0
 10
29.3250768516
 20
23.6441489011
 30
0.0
 10
30.7816913091
 20
23.6203597942
 30
0.0
 10
31.5099375368
 20
23.6203597942
 30
0.0
  0
SPLINE
  5
299
100
AcDbEntity
  8
00_COMPONENTS_5
100
AcDbSpline
 62
7
  6
BYLAYER
 70
0
 71
3
 72
10
 73
6
 74
0
 42
0.0000001
 43
0.0000001
 44
0.0000000001
 40
0.0
 40
0.0
 40
0.0
 40
0.0
 40
0.2483514051
 40
0.497455769
 40
1.0
 40
1.0
 40
1.0
 40
1.0
 10
47.098394805
 20
23.6203597942
 30
0.0
 10
47.4626611655
 20
23.6203597942
 30
0.0
 10
48.192538186
 20
23.6442392817
 30
0.0
 10
49.6532040676
 20
23.785340234
 30
0.0
 10
50.7395160706
 20
23.9885905602
 30
0.0
 10
51.4572937484
 20
24.1562581791
 30
0.0
  0
SPLINE
  5
29A
100
AcDbEntity
  8
00_COMPONENTS_5
100
AcDbSpline
 62
7
  6
BYLAYER
 70
0
 71
3
 72
10
 73
6
 74
0
 42
0.0000001
 43
0.0000001
 44
0.0000000001
 40
0.0
 40
0.0
 40
0.0
 40
0.0
 40
0.5025442323
 40
0.7516485949
 40
1.0
 40
1.0
 40
1.0
 40
1.0
 10
11.5625813251
 20
24.1562581791
 30
0.0
 10
12.2803590044
 20
23.9885905599
 30
0.0
 10
13.3666709963
 20
23.7853401375
 30
0.0
 10
14.8273368942
 20
23.6442393806
 30
0.0
 10
15.5572139076
 20
23.6203597942
 30
0.0
 10
15.9214802679
 20
23.6203597942
 30
0.0
  0
SPLINE
  5
29B
100
AcDbEntity
  8
00_COMPONENTS_5
100
AcDbSpline
 62
7
  6
BYLAYER
 70
0
 71
3
 72
10
 73
6
 74
0
 42
0.0000001
 43
0.0000001
 44
0.0000000001
 40
0.0
 40
0.0
 40
0.0
 40
0.0
 40
0.2483514053
 40
0.4974557681
 40
1.0
 40
1.0
 40
1.0
 40
1.0
 10
15.9214802682
 20
27.6203597942
 30
0.0
 10
15.5572139075
 20
27.6203597942
 30
0.0
 10
14.8273368935
 20
27.5964802073
 30
0.0
 10
13.3666709957
 20
27.4553794496
 30
0.0
 10
12.2803590039
 20
27.2521290284
 30
0.0
 10
11.5625813251
 20
27.0844614094
 30
0.0
  0
SPLINE
  5
29C
100
AcDbEntity
  8
00_COMPONENTS_5
100
AcDbSpline
 62
7
  6
BYLAYER
 70
0
 71
3
 72
10
 73
6
 74
0
 42
0.0000001
 43
0.0000001
 44
0.0000000001
 40
0.0
 40
0.0
 40
0.0
 40
0.0
 40
0.2500110371
 40
0.5000220409
 40
1.0
 40
1.0
 40
1.0
 40
1.0
 10
31.5099375368
 20
23.6203597942
 30
0.0
 10
32.2381837643
 20
23.6203597942
 30
0.0
 10
33.6947982225
 20
23.6441488973
 30
0.0
 10
36.6046293411
 20
23.7844963387
 30
0.0
 10
38.7812043937
 20
23.9873086416
 30
0.0
 10
40.2277354239
 20
24.1562581791
 30
0.0
  0
SPLINE
  5
29D
100
AcDbEntity
  8
00_COMPONENTS_5
100
AcDbSpline
 62
7
  6
BYLAYER
 70
0
 71
3
 72
10
 73
6
 74
0
 42
0.0000001
 43
0.0000001
 44
0.0000000001
 40
0.0
 40
0.0
 40
0.0
 40
0.0
 40
0.5025442315
 40
0.7516485952
 40
1.0
 40
1.0
 40
1.0
 40
1.0
 10
20.2803792122
 20
27.0844614094
 30
0.0
 10
19.5626015337
 20
27.2521290284
 30
0.0
 10
18.4762895304
 20
27.4553793558
 30
0.0
 10
17.0156236484
 20
27.5964803074
 30
0.0
 10
16.2857466283
 20
27.6203597943
 30
0.0
 10
15.9214802682
 20
27.6203597942
 30
0.0
  0
SPLINE
  5
29E
100
AcDbEntity
  8
00_COMPONENTS_5
100
AcDbSpline
 62
7
  6
BYLAYER
 70
0
 71
3
 72
10
 73
6
 74
0
 42
0.0000001
 43
0.0000001
 44
0.0000000001
 40
0.0
 40
0.0
 40
0.0
 40
0.0
 40
0.2500110372
 40
0.5000220408
 40
1.0
 40
1.0
 40
1.0
 40
1.0
 10
31.5099375374
 20
27.6203597942
 30
0.0
 10
30.7816913095
 20
27.6203597942
 30
0.0
 10
29.3250768516
 20
27.5965706872
 30
0.0
 10
26.4152457329
 20
27.4562232474
 30
0.0
 10
24.2386706802
 20
27.2534109469
 30
0.0
 10
22.7921396497
 20
27.0844614094
 30
0.0
  0
SPLINE
  5
29F
100
AcDbEntity
  8
00_COMPONENTS_5
100
AcDbSpline
 62
7
  6
BYLAYER
 70
0
 71
3
 72
10
 73
6
 74
0
 42
0.0000001
 43
0.0000001
 44
0.0000000001
 40
0.0
 40
0.0
 40
0.0
 40
0.0
 40
0.5025442315
 40
0.7516485952
 40
1.0
 40
1.0
 40
1.0
 40
1.0
 10
51.4572937484
 20
27.0844614094
 30
0.0
 10
50.73951607
 20
27.2521290284
 30
0.0
 10
49.6532040668
 20
27.4553793558
 30
0.0
 10
48.192538185
 20
27.5964803073
 30
0.0
 10
47.4626611651
 20
27.6203597942
 30
0.0
 10
47.098394805
 20
27.6203597942
 30
0.0
  0
SPLINE
  5
2A0
100
AcDbEntity
  8
00_COMPONENTS_5
100
AcDbSpline
 62
7
  6
BYLAYER
 70
0
 71
3
 72
10
 73
6
 74
0
 42
0.0000001
 43
0.0000001
 44
0.0000000001
 40
0.0
 40
0.0
 40
0.0
 40
0.0
 40
0.2483514053
 40
0.4974557681
 40
1.0
 40
1.0
 40
1.0
 40
1.0
 10
47.098394805
 20
27.6203597942
 30
0.0
 10
46.7341284442
 20
27.6203597942
 30
0.0
 10
46.0042514301
 20
27.5964802073
 30
0.0
 10
44.5435855321
 20
27.4553794497
 30
0.0
 10
43.4572735402
 20
27.2521290284
 30
0.0
 10
42.7394958614
 20
27.0844614094
 30
0.0
  0
SPLINE
  5
2A1
100
AcDbEntity
  8
00_COMPONENTS_5
100
AcDbSpline
 62
7
  6
BYLAYER
 70
0
 71
3
 72
10
 73
6
 74
0
 42
0.0000001
 43
0.0000001
 44
0.0000000001
 40
0.0
 40
0.0
 40
0.0
 40
0.0
 40
0.4999779592
 40
0.749988963
 40
1.0
 40
1.0
 40
1.0
 40
1.0
 10
40.2277354239
 20
27.0844614094
 30
0.0
 10
38.7812043935
 20
27.2534109469
 30
0.0
 10
36.6046293409
 20
27.4562232501
 30
0.0
 10
33.6947982224
 20
27.5965706913
 30
0.0
 10
32.2381837647
 20
27.6203597942
 30
0.0
 10
31.5099375374
 20
27.6203597942
 30
0.0
  0
SPLINE
  5
2A2
100
AcDbEntity
  8
00_COMPONENTS_5
100
AcDbSpline
 62
7
  6
BYLAYER
 70
0
 71
3
 72
10
 73
6
 74
0
 42
0.0000001
 43
0.0000001
 44
0.0000000001
 40
0.0
 40
0.0
 40
0.0
 40
0.0
 40
0.248344866
 40
0.4974456692
 40
1.0
 40
1.0
 40
1.0
 40
1.0
 10
15.9137284165
 20
18.2203597942
 30
0.0
 10
15.5500054554
 20
18.2203597942
 30
0.0
 10
14.8212121469
 20
18.1964799512
 30
0.0
 10
13.3627049001
 20
18.0553760013
 30
0.0
 10
12.2780234499
 20
17.8521240923
 30
0.0
 10
11.5613387501
 20
17.6844614094
 30
0.0
  0
SPLINE
  5
2A3
100
AcDbEntity
  8
00_COMPONENTS_5
100
AcDbSpline
 62
7
  6
BYLAYER
 70
0
 71
3
 72
10
 73
6
 74
0
 42
0.0000001
 43
0.0000001
 44
0.0000000001
 40
0.0
 40
0.0
 40
0.0
 40
0.0
 40
0.5025341815
 40
0.7516420876
 40
1.0
 40
1.0
 40
1.0
 40
1.0
 10
51.4560363531
 20
17.6844614094
 30
0.0
 10
50.737166265
 20
17.8521339413
 30
0.0
 10
49.6492245473
 20
18.0553827876
 30
0.0
 10
48.1864010571
 20
18.1964805617
 30
0.0
 10
47.4554408616
 20
18.2203597942
 30
0.0
 10
47.0906313715
 20
18.2203597942
 30
0.0
  0
SPLINE
  5
2A4
100
AcDbEntity
  8
00_COMPONENTS_5
100
AcDbSpline
 62
7
  6
BYLAYER
 70
0
 71
3
 72
10
 73
6
 74
0
 42
0.0000001
 43
0.0000001
 44
0.0000000001
 40
0.0
 40
0.0
 40
0.0
 40
0.0
 40
0.2500110366
 40
0.5000220403
 40
1.0
 40
1.0
 40
1.0
 40
1.0
 10
31.4944222508
 20
18.2203597942
 30
0.0
 10
30.7661762938
 20
18.2203597942
 30
0.0
 10
29.3095623759
 20
18.1965706911
 30
0.0
 10
26.3997323354
 20
18.0562232495
 30
0.0
 10
24.2231580922
 20
17.8534109465
 30
0.0
 10
22.7766276023
 20
17.6844614094
 30
0.0
  0
SPLINE
  5
2A5
100
AcDbEntity
  8
00_COMPONENTS_5
100
AcDbSpline
 62
7
  6
BYLAYER
 70
0
 71
3
 72
10
 73
6
 74
0
 42
0.0000001
 43
0.0000001
 44
0.0000000001
 40
0.0
 40
0.0
 40
0.0
 40
0.0
 40
0.502554332
 40
0.751655134
 40
1.0
 40
1.0
 40
1.0
 40
1.0
 10
20.2661180831
 20
17.6844614094
 30
0.0
 10
19.5494333818
 20
17.8521240927
 30
0.0
 10
18.4647519424
 20
18.0553760979
 30
0.0
 10
17.0062446791
 20
18.1964798524
 30
0.0
 10
16.2774513776
 20
18.2203597942
 30
0.0
 10
15.9137284165
 20
18.2203597942
 30
0.0
  0
SPLINE
  5
2A6
100
AcDbEntity
  8
00_COMPONENTS_5
100
AcDbSpline
 62
7
  6
BYLAYER
 70
0
 71
3
 72
10
 73
6
 74
0
 42
0.0000001
 43
0.0000001
 44
0.0000000001
 40
0.0
 40
0.0
 40
0.0
 40
0.0
 40
0.2500110367
 40
0.5000220402
 40
1.0
 40
1.0
 40
1.0
 40
1.0
 10
31.4944222503
 20
14.2203597942
 30
0.0
 10
32.2226682077
 20
14.2203597942
 30
0.0
 10
33.6792821252
 20
14.2441489013
 30
0.0
 10
36.5891121659
 20
14.3844963412
 30
0.0
 10
38.7656864091
 20
14.5873086419
 30
0.0
 10
40.2122168994
 20
14.7562581791
 30
0.0
  0
SPLINE
  5
2A7
100
AcDbEntity
  8
00_COMPONENTS_5
100
AcDbSpline
 62
7
  6
BYLAYER
 70
0
 71
3
 72
10
 73
6
 74
0
 42
0.0000001
 43
0.0000001
 44
0.0000000001
 40
0.0
 40
0.0
 40
0.0
 40
0.0
 40
0.5025341807
 40
0.7516420879
 40
1.0
 40
1.0
 40
1.0
 40
1.0
 10
42.725226389
 20
14.7562581791
 30
0.0
 10
43.4440964763
 20
14.5885856473
 30
0.0
 10
44.5320382052
 20
14.385336896
 30
0.0
 10
45.9948616795
 20
14.2442389273
 30
0.0
 10
46.7258218816
 20
14.2203597942
 30
0.0
 10
47.0906313715
 20
14.2203597942
 30
0.0
  0
SPLINE
  5
2A8
100
AcDbEntity
  8
00_COMPONENTS_5
100
AcDbSpline
 62
7
  6
BYLAYER
 70
0
 71
3
 72
10
 73
6
 74
0
 42
0.0000001
 43
0.0000001
 44
0.0000000001
 40
0.0
 40
0.0
 40
0.0
 40
0.0
 40
0.2483579123
 40
0.4974658197
 40
1.0
 40
1.0
 40
1.0
 40
1.0
 10
47.0906313715
 20
18.2203597942
 30
0.0
 10
46.7258218812
 20
18.2203597943
 30
0.0
 10
45.9948616785
 20
18.1964806606
 30
0.0
 10
44.5320382044
 20
18.055382691
 30
0.0
 10
43.4440964757
 20
17.852133941
 30
0.0
 10
42.725226389
 20
17.6844614094
 30
0.0
  0
SPLINE
  5
2A9
100
AcDbEntity
  8
00_COMPONENTS_5
100
AcDbSpline
 62
7
  6
BYLAYER
 70
0
 71
3
 72
10
 73
6
 74
0
 42
0.0000001
 43
0.0000001
 44
0.0000000001
 40
0.0
 40
0.0
 40
0.0
 40
0.0
 40
0.4999779599
 40
0.7499889633
 40
1.0
 40
1.0
 40
1.0
 40
1.0
 10
40.2122168994
 20
17.6844614094
 30
0.0
 10
38.7656864089
 20
17.8534109466
 30
0.0
 10
36.5891121657
 20
18.0562232476
 30
0.0
 10
33.6792821252
 20
18.1965706873
 30
0.0
 10
32.222668208
 20
18.2203597942
 30
0.0
 10
31.4944222508
 20
18.2203597942
 30
0.0
  0
SPLINE
  5
2AA
100
AcDbEntity
  8
00_COMPONENTS_5
100
AcDbSpline
 62
7
  6
BYLAYER
 70
0
 71
3
 72
10
 73
6
 74
0
 42
0.0000001
 43
0.0000001
 44
0.0000000001
 40
0.0
 40
0.0
 40
0.0
 40
0.0
 40
0.2483579126
 40
0.4974658189
 40
1.0
 40
1.0
 40
1.0
 40
1.0
 10
47.0906313715
 20
14.2203597942
 30
0.0
 10
47.455440862
 20
14.2203597942
 30
0.0
 10
48.1864010581
 20
14.2442390273
 30
0.0
 10
49.6492245481
 20
14.3853368022
 30
0.0
 10
50.7371662656
 20
14.5885856473
 30
0.0
 10
51.4560363531
 20
14.7562581791
 30
0.0
  0
SPLINE
  5
2AB
100
AcDbEntity
  8
00_COMPONENTS_5
100
AcDbSpline
 62
7
  6
BYLAYER
 70
0
 71
3
 72
10
 73
6
 74
0
 42
0.0000001
 43
0.0000001
 44
0.0000000001
 40
0.0
 40
0.0
 40
0.0
 40
0.0
 40
0.4999779598
 40
0.7499889634
 40
1.0
 40
1.0
 40
1.0
 40
1.0
 10
22.7766276023
 20
14.7562581791
 30
0.0
 10
24.2231580925
 20
14.5873086419
 30
0.0
 10
26.3997323356
 20
14.3844963385
 30
0.0
 10
29.309562376
 20
14.2441488972
 30
0.0
 10
30.7661762934
 20
14.2203597942
 30
0.0
 10
31.4944222503
 20
14.2203597942
 30
0.0
  0
SPLINE
  5
2AC
100
AcDbEntity
  8
00_COMPONENTS_5
100
AcDbSpline
 62
7
  6
BYLAYER
 70
0
 71
3
 72
10
 73
6
 74
0
 42
0.0000001
 43
0.0000001
 44
0.0000000001
 40
0.0
 40
0.0
 40
0.0
 40
0.0
 40
0.2483448663
 40
0.4974456684
 40
1.0
 40
1.0
 40
1.0
 40
1.0
 10
15.9137284165
 20
14.2203597942
 30
0.0
 10
16.277451378
 20
14.2203597942
 30
0.0
 10
17.00624468
 20
14.2442397367
 30
0.0
 10
18.4647519432
 20
14.3853434919
 30
0.0
 10
19.5494333824
 20
14.5885954959
 30
0.0
 10
20.2661180831
 20
14.7562581791
 30
0.0
  0
SPLINE
  5
2AD
100
AcDbEntity
  8
00_COMPONENTS_5
100
AcDbSpline
 62
7
  6
BYLAYER
 70
0
 71
3
 72
10
 73
6
 74
0
 42
0.0000001
 43
0.0000001
 44
0.0000000001
 40
0.0
 40
0.0
 40
0.0
 40
0.0
 40
0.5025543312
 40
0.7516551343
 40
1.0
 40
1.0
 40
1.0
 40
1.0
 10
11.5613387501
 20
14.7562581791
 30
0.0
 10
12.2780234505
 20
14.588595496
 30
0.0
 10
13.3627049009
 20
14.3853435858
 30
0.0
 10
14.8212121479
 20
14.2442396367
 30
0.0
 10
15.5500054557
 20
14.2203597942
 30
0.0
 10
15.9137284165
 20
14.2203597942
 30
0.0
  0
SPLINE
  5
2AE
100
AcDbEntity
  8
00_COMPONENTS_10
100
AcDbSpline
 62
7
  6
BYLAYER
 70
0
 71
3
 72
28
 73
24
 74
0
 42
0.0000001
 43
0.0000001
 44
0.0000000001
 40
0.0
 40
0.0
 40
0.0
 40
0.0
 40
0.1250104387
 40
0.2500208529
 40
0.3750310923
 40
0.437536291
 40
0.5000414461
 40
0.5625465114
 40
0.6250514118
 40
0.6875559701
 40
0.7500597958
 40
0.8125618115
 40
0.8438138704
 40
0.8750653429
 40
0.9063152634
 40
0.9219412662
 40
0.9375668482
 40
0.9531910889
 40
0.9688106666
 40
0.9766234217
 40
0.9844342246
 40
0.9922364295
 40
1.0
 40
1.0
 40
1.0
 40
1.0
 10
31.5456553182
 20
6.2203597186
 30
0.0
 10
31.6442294294
 20
6.2203597186
 30
0.0
 10
31.841377679
 20
6.2203441416
 30
0.0
 10
32.1370996102
 20
6.2206509729
 30
0.0
 10
32.3835335348
 20
6.2219897833
 30
0.0
 10
32.5806662371
 20
6.2245363478
 30
0.0
 10
32.7284995864
 20
6.2274737793
 30
0.0
 10
32.876300309
 20
6.2317838394
 30
0.0
 10
33.0240382752
 20
6.2379095246
 30
0.0
 10
33.1716607588
 20
6.2464343863
 30
0.0
 10
33.319063366
 20
6.2581867783
 30
0.0
 10
33.4415670333
 20
6.2717009517
 30
0.0
 10
33.5391221463
 20
6.2858912196
 30
0.0
 10
33.611935971
 20
6.2987437335
 30
0.0
 10
33.6721436663
 20
6.3119400611
 30
0.0
 10
33.7197442357
 20
6.3247467419
 30
0.0
 10
33.7550252931
 20
6.3358245513
 30
0.0
 10
33.7896073209
 20
6.34891706
 30
0.0
 10
33.8174350949
 20
6.3623098284
 30
0.0
 10
33.8382324329
 20
6.3755893989
 30
0.0
 10
33.8524982059
 20
6.3874282461
 30
0.0
 10
33.864231971
 20
6.4019021417
 30
0.0
 10
33.8679027613
 20
6.414238009
 30
0.0
 10
33.8679027613
 20
6.4203597942
 30
0.0
  0
SPLINE
  5
2AF
100
AcDbEntity
  8
00_COMPONENTS_10
100
AcDbSpline
 62
7
  6
BYLAYER
 70
0
 71
3
 72
28
 73
24
 74
0
 42
0.0000001
 43
0.0000001
 44
0.0000000001
 40
0.0
 40
0.0
 40
0.0
 40
0.0
 40
0.1250106503
 40
0.2500212809
 40
0.375031751
 40
0.4375370573
 40
0.5000423217
 40
0.562547498
 40
0.6250525136
 40
0.6875571912
 40
0.7500611463
 40
0.8125633106
 40
0.8438154324
 40
0.8750669727
 40
0.9063169828
 40
0.9219430122
 40
0.9375686255
 40
0.953192919
 40
0.9688126157
 40
0.9766253607
 40
0.9844360812
 40
0.9922380988
 40
1.0
 40
1.0
 40
1.0
 40
1.0
 10
31.5097010968
 20
6.220359769
 30
0.0
 10
31.4096486602
 20
6.220359769
 30
0.0
 10
31.2095437573
 20
6.2203413467
 30
0.0
 10
30.909386818
 20
6.2205832425
 30
0.0
 10
30.6592565906
 20
6.221802037
 30
0.0
 10
30.4591654371
 20
6.224220311
 30
0.0
 10
30.3091121375
 20
6.2270498237
 30
0.0
 10
30.1590898082
 20
6.2312458197
 30
0.0
 10
30.0091279364
 20
6.2372582906
 30
0.0
 10
29.8592785016
 20
6.2456796524
 30
0.0
 10
29.7096450136
 20
6.2573493336
 30
0.0
 10
29.585278101
 20
6.2708244207
 30
0.0
 10
29.4862290596
 20
6.2850128873
 30
0.0
 10
29.4122927663
 20
6.2978836941
 30
0.0
 10
29.3511474879
 20
6.3111170304
 30
0.0
 10
29.3027948979
 20
6.3239727631
 30
0.0
 10
29.2669484889
 20
6.3350998746
 30
0.0
 10
29.2317991279
 20
6.348258815
 30
0.0
 10
29.2034961371
 20
6.3617285042
 30
0.0
 10
29.1823167343
 20
6.375095784
 30
0.0
 10
29.1677671347
 20
6.387025872
 30
0.0
 10
29.1557584746
 20
6.4016317522
 30
0.0
 10
29.1519723123
 20
6.4141475465
 30
0.0
 10
29.1519723123
 20
6.4203597942
 30
0.0
  0
SPLINE
  5
2B0
100
AcDbEntity
  8
00_COMPONENTS_13
100
AcDbSpline
 62
7
  6
BYLAYER
 70
0
 71
3
 72
22
 73
18
 74
0
 42
0.0000001
 43
0.0000001
 44
0.0000000001
 40
0.0
 40
0.0
 40
0.0
 40
0.0
 40
0.0012354298
 40
0.0027823568
 40
0.0049489806
 40
0.0111401476
 40
0.0197858963
 40
0.0308481377
 40
0.0442886164
 40
0.0781491846
 40
0.1209478477
 40
0.1721148459
 40
0.2971924185
 40
0.4484489334
 40
0.6202523415
 40
0.8064571462
 40
1.0
 40
1.0
 40
1.0
 40
1.0
 10
37.0099236326
 20
67.970289532
 30
0.0
 10
37.0100069069
 20
67.9709094087
 30
0.0
 10
37.009246665
 20
67.9676188893
 30
0.0
 10
37.0087922322
 20
67.966201726
 30
0.0
 10
37.0073620637
 20
67.9607914292
 30
0.0
 10
37.0051903601
 20
67.9529094201
 30
0.0
 10
37.0017321355
 20
67.9400466384
 30
0.0
 10
36.997420355
 20
67.9239111719
 30
0.0
 10
36.9898886653
 20
67.8953013128
 30
0.0
 10
36.97852907
 20
67.8511495101
 30
0.0
 10
36.9629661156
 20
67.7883238578
 30
0.0
 10
36.9375379567
 20
67.6803891925
 30
0.0
 10
36.9029076025
 20
67.5182142915
 30
0.0
 10
36.8634846269
 20
67.2947340492
 30
0.0
 10
36.8296639546
 20
67.0390460876
 30
0.0
 10
36.8068130041
 20
66.7606348111
 30
0.0
 10
36.8014401589
 20
66.5683422572
 30
0.0
 10
36.8014401589
 20
66.4703597942
 30
0.0
  0
SPLINE
  5
2B1
100
AcDbEntity
  8
00_COMPONENTS_13
100
AcDbSpline
 62
7
  6
BYLAYER
 70
0
 71
3
 72
10
 73
6
 74
0
 42
0.0000001
 43
0.0000001
 44
0.0000000001
 40
0.0
 40
0.0
 40
0.0
 40
0.0
 40
0.2973000537
 40
0.6203262856
 40
1.0
 40
1.0
 40
1.0
 40
1.0
 10
26.0099375384
 20
64.9703597942
 30
0.0
 10
26.0495195884
 20
65.1155370494
 30
0.0
 10
26.1218312668
 20
65.4214033374
 30
0.0
 10
26.1988749637
 20
65.9222081946
 30
0.0
 10
26.2184349147
 20
66.278190411
 30
0.0
 10
26.2184349147
 20
66.4703597942
 30
0.0
  0
SPLINE
  5
2B2
100
AcDbEntity
  8
00_COMPONENTS_13
100
AcDbSpline
 62
7
  6
BYLAYER
 70
0
 71
3
 72
22
 73
18
 74
0
 42
0.0000001
 43
0.0000001
 44
0.0000000001
 40
0.0
 40
0.0
 40
0.0
 40
0.0
 40
0.1935437977
 40
0.3797418474
 40
0.5515403978
 40
0.702790082
 40
0.7689174428
 40
0.8278746964
 40
0.8790499209
 40
0.9218529381
 40
0.9557082199
 40
0.9691466241
 40
0.9802073465
 40
0.9888519316
 40
0.9950425578
 40
0.9987591967
 40
1.0
 40
1.0
 40
1.0
 40
1.0
 10
26.2184349147
 20
66.4703597942
 30
0.0
 10
26.2184349147
 20
66.5683430961
 30
0.0
 10
26.2130628499
 20
66.7606333208
 30
0.0
 10
26.1902121634
 20
67.0390407345
 30
0.0
 10
26.156394159
 20
67.2947189133
 30
0.0
 10
26.1221524136
 20
67.4888000731
 30
0.0
 10
26.0939878864
 20
67.6258376743
 30
0.0
 10
26.0746631975
 20
67.7129564749
 30
0.0
 10
26.0569119913
 20
67.7883210495
 30
0.0
 10
26.0413516789
 20
67.8511405929
 30
0.0
 10
26.0299847897
 20
67.895314447
 30
0.0
 10
26.0224631781
 20
67.9238832018
 30
0.0
 10
26.0181224893
 20
67.9400918114
 30
0.0
 10
26.0147338939
 20
67.9527551666
 30
0.0
 10
26.012205727
 20
67.9618037303
 30
0.0
 10
26.0108449
 20
67.9672772619
 30
0.0
 10
26.010065916
 20
67.9696716835
 30
0.0
 10
26.0099514855
 20
67.9702893408
 30
0.0
  0
SPLINE
  5
2B3
100
AcDbEntity
  8
00_COMPONENTS_13
100
AcDbSpline
 62
7
  6
BYLAYER
 70
0
 71
3
 72
12
 73
8
 74
0
 42
0.0000001
 43
0.0000001
 44
0.0000000001
 40
0.0
 40
0.0
 40
0.0
 40
0.0
 40
0.3788661721
 40
0.6288670631
 40
0.8266177279
 40
0.9547924522
 40
1.0
 40
1.0
 40
1.0
 40
1.0
 10
36.8014401589
 20
66.4703597942
 30
0.0
 10
36.8014401589
 20
66.2785824616
 30
0.0
 10
36.8189231031
 20
65.9599546447
 30
0.0
 10
36.8782616714
 20
65.5455027434
 30
0.0
 10
36.9364368749
 20
65.2597020773
 30
0.0
 10
36.9813082323
 20
65.0772507308
 30
0.0
 10
37.0038708583
 20
64.9924343385
 30
0.0
 10
37.009935014
 20
64.9703689708
 30
0.0
  0
SPLINE
  5
2B4
100
AcDbEntity
  8
00_COMPONENTS_13
100
AcDbSpline
 62
7
  6
BYLAYER
 70
0
 71
3
 72
13
 73
9
 74
0
 42
0.0000001
 43
0.0000001
 44
0.0000000001
 40
0.0
 40
0.0
 40
0.0
 40
0.0
 40
0.2918952087
 40
0.4431865757
 40
0.6160673808
 40
0.7085850005
 40
0.8040194718
 40
1.0
 40
1.0
 40
1.0
 40
1.0
 10
26.0099375384
 20
64.9703597942
 30
0.0
 10
26.5361207575
 20
64.9703597942
 30
0.0
 10
27.3350284936
 20
64.9703955228
 30
0.0
 10
28.4455788017
 20
64.9703036891
 30
0.0
 10
29.1967222949
 20
64.9704851782
 30
0.0
 10
29.8471755534
 20
64.9702527796
 30
0.0
 10
30.5392696924
 20
64.9700263044
 30
0.0
 10
31.0645863128
 20
64.9715505474
 30
0.0
 10
31.4178694847
 20
64.9715515657
 30
0.0
  0
ENDSEC
  0
SECTION
  2
OBJECTS
  0
DICTIONARY
  5
C
100
AcDbDictionary
280
0
281
1
  3
ACAD_GROUP
350
D
  3
ACAD_MLINESTYLE
350
17
  3
ACAD_LAYOUT
350
1A
  3
ACAD_PLOTSETTINGS
350
19
  3
ACAD_PLOTSTYLENAME
350
E
  0
DICTIONARY
  5
D
102
{ACAD_REACTORS
330
C
102
}
100
AcDbDictionary
280
0
281
1
  0
ACDBDICTIONARYWDFLT
  5
E
102
{ACAD_REACTORS
330
C
102
}
100
AcDbDictionary
281
1
  3
Normal
350
F
100
AcDbDictionaryWithDefault
340
F
  0
DICTIONARY
  5
17
102
{ACAD_REACTORS
330
C
102
}
100
AcDbDictionary
280
0
281
1
  3
Standard
350
18
  0
DICTIONARY
  5
19
102
{ACAD_REACTORS
330
C
102
}
100
AcDbDictionary
281
1
  0
DICTIONARY
  5
1A
102
{ACAD_REACTORS
330
C
102
}
100
AcDbDictionary
281
1
  3
Model
350
2B5
  3
Layout1
350
2B6
  0
ACDBPLACEHOLDER
  5
F
102
{ACAD_REACTORS
330
E
102
}
  0
MLINESTYLE
  5
18
102
{ACAD_REACTORS
330
17
102
}
100
AcDbMlineStyle
  2
STANDARD
 70
0
  3

 62
256
 51
90.0
 52
90.0
 71
2
 49
0.5
 62
256
  6
BYLAYER
 49
-0.5
 62
256
  6
BYLAYER
  0
LAYOUT
  5
2B5
102
{ACAD_REACTORS
330
1A
102
}
100
AcDbPlotSettings
  1

  2
none_device
  4

  6

 40
0.0
 41
0.0
 42
0.0
 43
0.0
 44
210.0
 45
297.0
 46
0.0
 47
0.0
 48
0.0
 49
0.0
140
0.0
141
0.0
142
1.0
143
1.0
 70
1024
 72
1
 73
0
 74
0
  7

 75
0
147
1.0
148
0.0
149
0.0
100
AcDbLayout
  1
Model
 70
0
 71
0
 10
0.0
 20
0.0
 11
210.0
 21
297.0
 12
0.0
 22
0.0
 32
0.0
 14
0.0
 24
0.0
 34
0.0
 15
0.0
 25
0.0
 35
0.0
146
0.0
 13
0.0
 23
0.0
 33
0.0
 16
1.0
 26
0.0
 36
0.0
 17
0.0
 27
1.0
 37
0.0
 76
0
330
21B
345
0
346
0
  0
LAYOUT
  5
2B6
102
{ACAD_REACTORS
330
1A
102
}
100
AcDbPlotSettings
  1

  2
none_device
  4

  6

 40
0.0
 41
0.0
 42
0.0
 43
0.0
 44
210.0
 45
297.0
 46
0.0
 47
0.0
 48
0.0
 49
0.0
140
0.0
141
0.0
142
1.0
143
1.0
 70
0
 72
1
 73
0
 74
0
  7

 75
0
147
1.0
148
0.0
149
0.0
100
AcDbLayout
  1
Layout1
 70
0
 71
1
 10
0.0
 20
0.0
 11
210.0
 21
297.0
 12
0.0
 22
0.0
 32
0.0
 14
0.0
 24
0.0
 34
0.0
 15
0.0
 25
0.0
 35
0.0
146
0.0
 13
0.0
 23
0.0
 33
0.0
 16
1.0
 26
0.0
 36
0.0
 17
0.0
 27
1.0
 37
0.0
 76
0
330
21C
345
0
346
0
  0
ENDSEC
  0
EOF
