999
DXF file: C:\Users\sesa63760\Dev\_Creo\CAD\MCADID0000750_3D-CAD\drw0001_1.dxf
999
Pro/ENGINEER 2019471 by Parametric Technology Corporation
  0
SECTION
  2
HEADER
  9
$ACADVER
  1
AC1024
  9
$DWGCODEPAGE
  3
ANSI_1252
  9
$EXTMAX
 10
93.1929666821
 20
131.8014814504
 30
0.0
  9
$EXTMIN
 10
-0.0
 20
0.0
 30
0.0
  9
$LIMMIN
 10
-0.0
 20
0.0
  9
$LIMMAX
 10
93.1929666821
 20
131.8014814504
  9
$VIEWCTR
 10
46.5964833411
 20
65.9007407252
  9
$VIEWSIZE
 40
131.8014814504
  9
$CLAYER
  8
0
  9
$LTSCALE
 40
8.591503976
  9
$CELTYPE
  6
BYLAYER
  9
$DIMSCALE
 40
1.0
  9
$DIMASZ
 40
1.1094400795
  9
$DIMEXO
 40
1.0
  9
$DIMDLI
 40
5.9359482016
  9
$DIMEXE
 40
1.0
  9
$DIMCEN
 40
1.4058824688
  9
$DIMLFAC
 40
1.0
  9
$DIMBLK
  1
_FILLED
  9
$DIMALT
 70
0
  9
$DIMALTF
 40
0.0393700787
  9
$DIMTXT
 40
1.5532161114
  9
$DIMTOL
 70
1
  9
$DIMLIM
 70
0
  9
$DIMTFAC
 40
1.0
  9
$DIMTP
 40
0.01
  9
$DIMTM
 40
0.01
  9
$DIMGAP
 40
0.625
  9
$DIMDSEP
 70
46
  9
$AUNITS
 70
0
  9
$PDMODE
 70
3
  9
$PDSIZE
 40
0.3125
  9
$HANDSEED
  5
3B8
  9
$TILEMODE
 70
1
  9
$MEASUREMENT
 70
1
  9
$INSUNITS
 70
4
  0
ENDSEC
  0
SECTION
  2
CLASSES
  0
CLASS
  1
ACDBDICTIONARYWDFLT
  2
AcDbDictionaryWithDefault
  3
AutoCAD 2000
 90
0
 91
1
280
0
281
0
  0
CLASS
  1
ACDBPLACEHOLDER
  2
AcDbPlaceHolder
  3
AutoCAD 2000
 90
0
 91
1
280
0
281
0
  0
CLASS
  1
LAYOUT
  2
AcDbLayout
  3
AutoCAD 2000
 90
0
 91
0
280
0
281
0
  0
ENDSEC
  0
SECTION
  2
TABLES
  0
TABLE
  2
VPORT
  5
8
100
AcDbSymbolTable
 70
2
  0
VPORT
  5
1F4
100
AcDbSymbolTableRecord
100
AcDbViewportTableRecord
  2
*ACTIVE
 70
0
 10
0.0
 20
0.0
 11
1.0
 21
1.0
 12
46.5964833411
 22
65.9007407252
 13
0.0
 23
0.0
 14
1.0
 24
1.0
 15
0.0
 25
0.0
 16
0.0
 26
0.0
 36
1.0
 17
0.0
 27
0.0
 37
0.0
 40
131.8014814504
 41
0.7070707071
 42
50.0
 43
0.0
 44
0.0
 50
0.0
 51
0.0
 71
0
 72
100
 73
1
 74
1
 75
0
 76
0
 77
0
 78
0
  0
ENDTAB
  0
TABLE
  2
LTYPE
  5
5
100
AcDbSymbolTable
 70
6
  0
LTYPE
  5
14
100
AcDbSymbolTableRecord
100
AcDbLinetypeTableRecord
  2
BYBLOCK
 70
0
  3

 72
65
 73
0
 40
0.0
  0
LTYPE
  5
15
100
AcDbSymbolTableRecord
100
AcDbLinetypeTableRecord
  2
BYLAYER
 70
0
  3

 72
65
 73
0
 40
0.0
  0
LTYPE
  5
16
100
AcDbSymbolTableRecord
100
AcDbLinetypeTableRecord
  2
CONTINUOUS
 70
64
  3
Solid line
 72
65
 73
0
 40
0.0
  0
LTYPE
  5
1F5
100
AcDbSymbolTableRecord
100
AcDbLinetypeTableRecord
  2
CENTER
 70
64
  3
____ _ ____ _ ____ _ ____ _ ____ _ ____ _ ____
 72
65
 73
4
 40
0.6
 49
0.375
 74
0
 49
-0.075
 74
0
 49
0.075
 74
0
 49
-0.075
 74
0
  0
LTYPE
  5
1F6
100
AcDbSymbolTableRecord
100
AcDbLinetypeTableRecord
  2
HIDDEN
 70
64
  3
- - - - - - - - - - - - - - - - - - - -
 72
65
 73
2
 40
0.2
 49
0.1
 74
0
 49
-0.1
 74
0
  0
LTYPE
  5
1F7
100
AcDbSymbolTableRecord
100
AcDbLinetypeTableRecord
  2
PHANTOM
 70
64
  3
_____ _ _ _____ _ _ _____ _ _ _____
 72
65
 73
6
 40
0.8
 49
0.45
 74
0
 49
-0.05
 74
0
 49
0.1
 74
0
 49
-0.05
 74
0
 49
0.1
 74
0
 49
-0.05
 74
0
  0
LTYPE
  5
1F8
100
AcDbSymbolTableRecord
100
AcDbLinetypeTableRecord
  2
DOT
 70
64
  3
. . . . . . . . . . . . . . . . . . . .
 72
65
 73
2
 40
0.2
 49
0.1
 74
0
 49
-0.1
 74
0
  0
LTYPE
  5
1F9
100
AcDbSymbolTableRecord
100
AcDbLinetypeTableRecord
  2
DASHED
 70
64
  3
- - - - - - - - - - - - - - - - - - - -
 72
65
 73
2
 40
0.2
 49
0.1
 74
0
 49
-0.1
 74
0
  0
ENDTAB
  0
TABLE
  2
LAYER
  5
2
100
AcDbSymbolTable
 70
36
  0
LAYER
  5
10
100
AcDbSymbolTableRecord
100
AcDbLayerTableRecord
  2
0
 70
0
 62
7
  6
CONTINUOUS
370
-3
390
F
  0
LAYER
  5
1FA
100
AcDbSymbolTableRecord
100
AcDbLayerTableRecord
  2
DEFAULT_1
 70
0
 62
7
  6
CENTER
370
-3
390
F
  0
LAYER
  5
1FB
100
AcDbSymbolTableRecord
100
AcDbLayerTableRecord
  2
DEFAULT_2
 70
0
 62
8
  6
HIDDEN
370
-3
390
F
  0
LAYER
  5
1FC
100
AcDbSymbolTableRecord
100
AcDbLayerTableRecord
  2
DEFAULT_3
 70
0
 62
7
  6
PHANTOM
370
-3
390
F
  0
LAYER
  5
1FD
100
AcDbSymbolTableRecord
100
AcDbLayerTableRecord
  2
00_COMPONENTS
 70
0
 62
7
  6
CONTINUOUS
370
-3
390
F
  0
LAYER
  5
1FE
100
AcDbSymbolTableRecord
100
AcDbLayerTableRecord
  2
01_1_DEFAULT_DATUMS
 70
0
 62
7
  6
CONTINUOUS
370
-3
390
F
  0
LAYER
  5
1FF
100
AcDbSymbolTableRecord
100
AcDbLayerTableRecord
  2
01_PLANES
 70
0
 62
7
  6
CONTINUOUS
370
-3
390
F
  0
LAYER
  5
200
100
AcDbSymbolTableRecord
100
AcDbLayerTableRecord
  2
02_COORD_SYS
 70
0
 62
7
  6
CONTINUOUS
370
-3
390
F
  0
LAYER
  5
201
100
AcDbSymbolTableRecord
100
AcDbLayerTableRecord
  2
03_AXES
 70
0
 62
7
  6
CONTINUOUS
370
-3
390
F
  0
LAYER
  5
202
100
AcDbSymbolTableRecord
100
AcDbLayerTableRecord
  2
04_POINTS
 70
0
 62
7
  6
CONTINUOUS
370
-3
390
F
  0
LAYER
  5
203
100
AcDbSymbolTableRecord
100
AcDbLayerTableRecord
  2
05_CURVES
 70
0
 62
7
  6
CONTINUOUS
370
-3
390
F
  0
LAYER
  5
204
100
AcDbSymbolTableRecord
100
AcDbLayerTableRecord
  2
06_SURFS
 70
0
 62
7
  6
CONTINUOUS
370
-3
390
F
  0
LAYER
  5
205
100
AcDbSymbolTableRecord
100
AcDbLayerTableRecord
  2
07_COSMETICS
 70
0
 62
7
  6
CONTINUOUS
370
-3
390
F
  0
LAYER
  5
206
100
AcDbSymbolTableRecord
100
AcDbLayerTableRecord
  2
10_NOTES
 70
0
 62
7
  6
CONTINUOUS
370
-3
390
F
  0
LAYER
  5
207
100
AcDbSymbolTableRecord
100
AcDbLayerTableRecord
  2
11_NOTES_PUB
 70
0
 62
7
  6
CONTINUOUS
370
-3
390
F
  0
LAYER
  5
208
100
AcDbSymbolTableRecord
100
AcDbLayerTableRecord
  2
13_REF_GTOL
 70
0
 62
7
  6
CONTINUOUS
370
-3
390
F
  0
LAYER
  5
209
100
AcDbSymbolTableRecord
100
AcDbLayerTableRecord
  2
16_MISC
 70
0
 62
7
  6
CONTINUOUS
370
-3
390
F
  0
LAYER
  5
20A
100
AcDbSymbolTableRecord
100
AcDbLayerTableRecord
  2
17_NO_PRINT
 70
0
 62
7
  6
CONTINUOUS
370
-3
390
F
  0
LAYER
  5
20B
100
AcDbSymbolTableRecord
100
AcDbLayerTableRecord
  2
18_DATUM_CAMS_JOINTS
 70
0
 62
7
  6
CONTINUOUS
370
-3
390
F
  0
LAYER
  5
20C
100
AcDbSymbolTableRecord
100
AcDbLayerTableRecord
  2
19_DATUM_FUNCTIONAL
 70
0
 62
7
  6
CONTINUOUS
370
-3
390
F
  0
LAYER
  5
20D
100
AcDbSymbolTableRecord
100
AcDbLayerTableRecord
  2
20_DATUM_KINEMATIC_SCHEME
 70
0
 62
7
  6
CONTINUOUS
370
-3
390
F
  0
ENDTAB
  0
TABLE
  2
STYLE
  5
3
100
AcDbSymbolTable
 70
1
  0
STYLE
  5
11
100
AcDbSymbolTableRecord
100
AcDbTextStyleTableRecord
  2
STANDARD
 70
0
 40
0.0
 41
0.8
 50
0.0
 71
0
 42
0.2
  3
txt
  4

  0
STYLE
  5
20E
100
AcDbSymbolTableRecord
100
AcDbTextStyleTableRecord
  2
TEXTSTYLE_1
 70
0
 40
0.0
 41
0.8
 50
0.0
 71
0
 42
0.2
  3
gdt
  4

  0
ENDTAB
  0
TABLE
  2
VIEW
  5
6
100
AcDbSymbolTable
 70
0
  0
ENDTAB
  0
TABLE
  2
UCS
  5
7
100
AcDbSymbolTable
 70
0
  0
ENDTAB
  0
TABLE
  2
APPID
  5
9
100
AcDbSymbolTable
 70
1
  0
APPID
  5
20F
100
AcDbSymbolTableRecord
100
AcDbRegAppTableRecord
  2
ACAD
 70
0
  0
ENDTAB
  0
TABLE
  2
BLOCK_RECORD
  5
1
100
AcDbSymbolTable
 70
0
  0
BLOCK_RECORD
  5
210
100
AcDbSymbolTableRecord
100
AcDbBlockTableRecord
  2
*Model_Space
  0
BLOCK_RECORD
  5
211
100
AcDbSymbolTableRecord
100
AcDbBlockTableRecord
  2
*Paper_Space
  0
BLOCK_RECORD
  5
212
100
AcDbSymbolTableRecord
100
AcDbBlockTableRecord
  2
_FILLED
  0
ENDTAB
  0
TABLE
  2
DIMSTYLE
  5
A
100
AcDbSymbolTable
 70
1
100
AcDbDimStyleTable
 71
0
  0
DIMSTYLE
105
213
100
AcDbSymbolTableRecord
100
AcDbDimStyleTableRecord
  2
STANDARD
 70
0
  3

  4

 40
1.0
 41
1.1094400795
 42
1.0
 43
0.38
 44
1.0
 45
0.0
 46
0.0
 47
0.01
 48
0.01
140
1.5532161114
141
0.09
142
0.0
143
25.4
144
1.0
145
0.0
146
1.0
147
0.625
 71
1
 72
0
 73
0
 74
0
 75
0
 76
0
 77
1
 78
8
 79
2
170
0
171
1
172
0
173
0
174
0
175
0
176
0
177
0
178
0
270
2
179
2
271
2
272
2
273
2
274
2
275
0
280
0
281
0
282
0
283
1
284
8
285
0
286
0
287
3
288
0
340
11
278
46
341
212
342
212
343
212
344
212
  0
ENDTAB
  0
ENDSEC
  0
SECTION
  2
BLOCKS
  0
BLOCK
  5
20
100
AcDbEntity
  8
0
100
AcDbBlockBegin
  2
*Model_Space
 70
0
 10
0.0
 20
0.0
 30
0.0
  3
*Model_Space
  1

  0
ENDBLK
  5
21
100
AcDbEntity
  8
0
100
AcDbBlockEnd
  0
BLOCK
  5
1C
100
AcDbEntity
  8
0
100
AcDbBlockBegin
  2
*Paper_Space
 70
0
 10
0.0
 20
0.0
 30
0.0
  3
*Paper_Space
  1

  0
ENDBLK
  5
1D
100
AcDbEntity
  8
0
100
AcDbBlockEnd
  0
BLOCK
  5
214
100
AcDbEntity
  8
0
100
AcDbBlockBegin
  2
_FILLED
 70
64
 10
0.0
 20
0.0
  3
_FILLED
  1

  0
SOLID
  5
215
100
AcDbEntity
  8
0
  6
BYBLOCK
 62
0
100
AcDbTrace
 10
0.0
 20
0.0
 11
-1.0
 21
0.25
 12
-1.0
 22
-0.25
 13
-1.0
 23
-0.25
  0
ENDBLK
  5
216
100
AcDbEntity
  8
0
  6
BYBLOCK
 62
0
100
AcDbBlockEnd
  0
ENDSEC
  0
SECTION
  2
ENTITIES
  0
LINE
  5
217
100
AcDbEntity
  8
0
100
AcDbLine
 62
7
  6
CONTINUOUS
 10
20.0162170177
 20
10.2063973287
 11
14.5371517646
 21
13.3696655648
  0
LINE
  5
218
100
AcDbEntity
  8
0
100
AcDbLine
 62
7
  6
CONTINUOUS
 10
14.3906839899
 20
16.8166088682
 11
12.4336988764
 21
17.9320087446
  0
LINE
  5
219
100
AcDbEntity
  8
0
100
AcDbLine
 62
7
  6
CONTINUOUS
 10
14.3906839899
 20
18.1238230857
 11
13.3121176129
 21
18.7385609269
  0
LINE
  5
21A
100
AcDbEntity
  8
0
100
AcDbLine
 62
7
  6
CONTINUOUS
 10
14.0192097507
 20
19.1494394252
 11
14.3906839899
 21
18.9377146053
  0
LINE
  5
21B
100
AcDbEntity
  8
0
100
AcDbLine
 62
7
  6
CONTINUOUS
 10
32.8614405299
 20
10.5745392271
 11
33.15402392
 21
10.6000433202
  0
LINE
  5
21C
100
AcDbEntity
  8
0
100
AcDbLine
 62
7
  6
CONTINUOUS
 10
14.3906839899
 20
20.3283796116
 11
13.3121176128
 21
20.9431174529
  0
LINE
  5
21D
100
AcDbEntity
  8
0
100
AcDbLine
 62
7
  6
CONTINUOUS
 10
14.3906839899
 20
22.2634903405
 11
13.3121176129
 21
22.8782281817
  0
LINE
  5
21E
100
AcDbEntity
  8
0
100
AcDbLine
 62
7
  6
CONTINUOUS
 10
14.0192097507
 20
23.28910668
 11
14.3906839899
 21
23.0773818602
  0
LINE
  5
21F
100
AcDbEntity
  8
0
100
AcDbLine
 62
7
  6
CONTINUOUS
 10
14.3906839899
 20
24.4680468664
 11
13.3121176128
 21
25.0827847077
  0
LINE
  5
220
100
AcDbEntity
  8
0
100
AcDbLine
 62
7
  6
CONTINUOUS
 10
32.8614334083
 20
10.5745268808
 11
26.5110291203
 21
14.2408515626
  0
LINE
  5
221
100
AcDbEntity
  8
0
100
AcDbLine
 62
7
  6
CONTINUOUS
 10
32.7371660159
 20
10.8491985695
 11
26.6867720022
 21
14.3423161571
  0
LINE
  5
222
100
AcDbEntity
  8
0
100
AcDbLine
 62
7
  6
CONTINUOUS
 10
31.3353969162
 20
14.3146835909
 11
28.9871342587
 21
15.6704229974
  0
LINE
  5
223
100
AcDbEntity
  8
0
100
AcDbLine
 62
7
  6
CONTINUOUS
 10
12.4336988764
 20
17.9320087446
 11
12.4046232649
 21
17.9920135314
  0
LINE
  5
224
100
AcDbEntity
  8
0
100
AcDbLine
 62
7
  6
CONTINUOUS
 10
14.3906839899
 20
26.4031575953
 11
13.3121176129
 21
27.0178954366
  0
LINE
  5
225
100
AcDbEntity
  8
0
100
AcDbLine
 62
7
  6
CONTINUOUS
 10
14.0192097507
 20
27.4287739349
 11
14.3906839899
 21
27.217049115
  0
LINE
  5
226
100
AcDbEntity
  8
0
100
AcDbLine
 62
7
  6
CONTINUOUS
 10
14.3906839899
 20
28.6077141213
 11
13.3121176128
 21
29.2224519626
  0
LINE
  5
227
100
AcDbEntity
  8
0
100
AcDbLine
 62
7
  6
CONTINUOUS
 10
30.0477900145
 20
16.2827892283
 11
31.3353969162
 21
15.5394058545
  0
LINE
  5
228
100
AcDbEntity
  8
0
100
AcDbLine
 62
7
  6
CONTINUOUS
 10
14.1606281783
 20
19.1499648831
 11
14.0192097507
 21
19.1494394252
  0
LINE
  5
229
100
AcDbEntity
  8
0
100
AcDbLine
 62
7
  6
CONTINUOUS
 10
14.3906839899
 20
30.5428248502
 11
13.3121176129
 21
31.1575626914
  0
LINE
  5
22A
100
AcDbEntity
  8
0
100
AcDbLine
 62
7
  6
CONTINUOUS
 10
14.0192097507
 20
31.5684411897
 11
14.3906839899
 21
31.3567163699
  0
LINE
  5
22B
100
AcDbEntity
  8
0
100
AcDbLine
 62
7
  6
CONTINUOUS
 10
14.3906839899
 20
32.7473813761
 11
13.3121176128
 21
33.3621192174
  0
LINE
  5
22C
100
AcDbEntity
  8
0
100
AcDbLine
 62
7
  6
CONTINUOUS
 10
14.3906839899
 20
34.682492105
 11
13.3121176129
 21
35.2972299463
  0
LINE
  5
22D
100
AcDbEntity
  8
0
100
AcDbLine
 62
7
  6
CONTINUOUS
 10
16.4662344066
 20
93.5085130683
 11
21.7062072001
 21
96.6394095128
  0
LINE
  5
22E
100
AcDbEntity
  8
0
100
AcDbLine
 62
7
  6
CONTINUOUS
 10
21.7062072001
 20
96.6394095128
 11
40.3249954555
 21
107.3889077582
  0
LINE
  5
22F
100
AcDbEntity
  8
0
100
AcDbLine
 62
7
  6
CONTINUOUS
 10
50.6755071883
 20
113.3647428224
 11
65.5466451074
 21
121.9505470528
  0
LINE
  5
230
100
AcDbEntity
  8
0
100
AcDbLine
 62
7
  6
CONTINUOUS
 10
41.3221711195
 20
107.6788558738
 11
48.1227095601
 21
111.6051251365
  0
LINE
  5
231
100
AcDbEntity
  8
0
100
AcDbLine
 62
7
  6
CONTINUOUS
 10
14.1606281783
 20
23.289632138
 11
14.0192097507
 21
23.28910668
  0
LINE
  5
232
100
AcDbEntity
  8
0
100
AcDbLine
 62
7
  6
CONTINUOUS
 10
14.0192097507
 20
35.7081084446
 11
14.3906839899
 21
35.4963836247
  0
LINE
  5
233
100
AcDbEntity
  8
0
100
AcDbLine
 62
7
  6
CONTINUOUS
 10
14.3906839899
 20
36.887048631
 11
13.3121176128
 21
37.5017864723
  0
LINE
  5
234
100
AcDbEntity
  8
0
100
AcDbLine
 62
7
  6
CONTINUOUS
 10
14.3906839899
 20
38.8221593599
 11
13.3121176129
 21
39.4368972011
  0
LINE
  5
235
100
AcDbEntity
  8
0
100
AcDbLine
 62
7
  6
CONTINUOUS
 10
14.0192097507
 20
39.8477756994
 11
14.3906839899
 21
39.6360508796
  0
LINE
  5
236
100
AcDbEntity
  8
0
100
AcDbLine
 62
7
  6
CONTINUOUS
 10
44.7139061524
 20
20.158693062
 11
46.1281256027
 21
19.342211553
  0
LINE
  5
237
100
AcDbEntity
  8
0
100
AcDbLine
 62
7
  6
CONTINUOUS
 10
12.4045871359
 20
63.716148878
 11
12.4045871359
 21
17.9920135187
  0
LINE
  5
238
100
AcDbEntity
  8
0
100
AcDbLine
 62
7
  6
CONTINUOUS
 10
12.4336988764
 20
17.9320087447
 11
12.4336988764
 21
63.656144104
  0
LINE
  5
239
100
AcDbEntity
  8
0
100
AcDbLine
 62
7
  6
CONTINUOUS
 10
49.2792854315
 20
110.9256337929
 11
50.6755071883
 21
111.7317379882
  0
LINE
  5
23A
100
AcDbEntity
  8
0
100
AcDbLine
 62
7
  6
CONTINUOUS
 10
50.2255263304
 20
110.3697147946
 11
43.4620127
 21
106.4648216885
  0
LINE
  5
23B
100
AcDbEntity
  8
0
100
AcDbLine
 62
7
  6
CONTINUOUS
 10
65.2638247696
 20
118.8479037208
 11
68.0922401184
 21
120.4808803363
  0
LINE
  5
23C
100
AcDbEntity
  8
0
100
AcDbLine
 62
7
  6
CONTINUOUS
 10
17.4130437873
 20
91.0523834139
 11
15.0793985087
 21
89.7050607265
  0
LINE
  5
23D
100
AcDbEntity
  8
0
100
AcDbLine
 62
7
  6
CONTINUOUS
 10
53.4198375568
 20
111.7240444259
 11
43.1668319172
 21
105.8045041948
  0
LINE
  5
23E
100
AcDbEntity
  8
0
100
AcDbLine
 62
7
  6
CONTINUOUS
 10
34.2417721881
 20
99.92052115
 11
38.1555283791
 21
102.1801158525
  0
LINE
  5
23F
100
AcDbEntity
  8
0
100
AcDbLine
 62
7
  6
CONTINUOUS
 10
59.6975103278
 20
114.6173106894
 11
63.6112665188
 21
116.8769053919
  0
LINE
  5
240
100
AcDbEntity
  8
0
100
AcDbLine
 62
7
  6
CONTINUOUS
 10
16.5792025213
 20
89.556442653
 11
18.9128477999
 21
90.9037653404
  0
LINE
  5
241
100
AcDbEntity
  8
0
100
AcDbLine
 62
7
  6
CONTINUOUS
 10
64.4276568382
 20
116.4055728842
 11
60.5139006472
 21
114.1459781817
  0
LINE
  5
242
100
AcDbEntity
  8
0
100
AcDbLine
 62
7
  6
CONTINUOUS
 10
38.9719186985
 20
101.7087833448
 11
35.0581625075
 21
99.4491886423
  0
LINE
  5
243
100
AcDbEntity
  8
0
100
AcDbLine
 62
7
  6
CONTINUOUS
 10
14.1606281783
 20
27.4292993928
 11
14.0192097507
 21
27.4287739349
  0
LINE
  5
244
100
AcDbEntity
  8
0
100
AcDbLine
 62
7
  6
CONTINUOUS
 10
14.3906839899
 20
41.0267158858
 11
13.3121176128
 21
41.6414537271
  0
LINE
  5
245
100
AcDbEntity
  8
0
100
AcDbLine
 62
7
  6
CONTINUOUS
 10
14.3906839899
 20
42.9618266147
 11
13.3121176129
 21
43.576564456
  0
LINE
  5
246
100
AcDbEntity
  8
0
100
AcDbLine
 62
7
  6
CONTINUOUS
 10
14.0192097507
 20
43.9874429543
 11
14.3906839899
 21
43.7757181344
  0
LINE
  5
247
100
AcDbEntity
  8
0
100
AcDbLine
 62
7
  6
CONTINUOUS
 10
35.2238252117
 20
29.434686746
 11
36.638044662
 21
28.6182052369
  0
LINE
  5
248
100
AcDbEntity
  8
0
100
AcDbLine
 62
7
  6
CONTINUOUS
 10
32.7371660159
 20
10.8491985695
 11
32.8614405299
 21
10.5745392271
  0
LINE
  5
249
100
AcDbEntity
  8
0
100
AcDbLine
 62
7
  6
CONTINUOUS
 10
13.3121176129
 20
18.7385609269
 11
13.3121176129
 21
20.9431174528
  0
LINE
  5
24A
100
AcDbEntity
  8
0
100
AcDbLine
 62
7
  6
CONTINUOUS
 10
13.3121176129
 20
22.8782281817
 11
13.3121176129
 21
25.0827847077
  0
LINE
  5
24B
100
AcDbEntity
  8
0
100
AcDbLine
 62
7
  6
CONTINUOUS
 10
13.3121176129
 20
27.0178954366
 11
13.3121176129
 21
29.2224519625
  0
LINE
  5
24C
100
AcDbEntity
  8
0
100
AcDbLine
 62
7
  6
CONTINUOUS
 10
13.3121176129
 20
31.1575626914
 11
13.3121176129
 21
33.3621192174
  0
LINE
  5
24D
100
AcDbEntity
  8
0
100
AcDbLine
 62
7
  6
CONTINUOUS
 10
13.3121176129
 20
35.2972299463
 11
13.3121176129
 21
37.5017864722
  0
LINE
  5
24E
100
AcDbEntity
  8
0
100
AcDbLine
 62
7
  6
CONTINUOUS
 10
13.3121176129
 20
39.4368972011
 11
13.3121176129
 21
41.6414537271
  0
LINE
  5
24F
100
AcDbEntity
  8
0
100
AcDbLine
 62
7
  6
CONTINUOUS
 10
13.3121176129
 20
43.576564456
 11
13.3121176129
 21
45.7811209819
  0
LINE
  5
250
100
AcDbEntity
  8
0
100
AcDbLine
 62
7
  6
CONTINUOUS
 10
13.3121176129
 20
47.7162317108
 11
13.3121176129
 21
49.9207882368
  0
LINE
  5
251
100
AcDbEntity
  8
0
100
AcDbLine
 62
7
  6
CONTINUOUS
 10
13.3121176129
 20
51.8558989657
 11
13.3121176129
 21
54.0604554916
  0
LINE
  5
252
100
AcDbEntity
  8
0
100
AcDbLine
 62
7
  6
CONTINUOUS
 10
13.3121176129
 20
55.9955662205
 11
13.3121176129
 21
58.2001227464
  0
LINE
  5
253
100
AcDbEntity
  8
0
100
AcDbLine
 62
7
  6
CONTINUOUS
 10
13.3121176129
 20
60.1352334754
 11
13.3121176129
 21
62.3397900013
  0
LINE
  5
254
100
AcDbEntity
  8
0
100
AcDbLine
 62
7
  6
CONTINUOUS
 10
14.1606281783
 20
19.1499648831
 11
14.1606281783
 21
20.4568909297
  0
LINE
  5
255
100
AcDbEntity
  8
0
100
AcDbLine
 62
7
  6
CONTINUOUS
 10
14.1606281783
 20
23.289632138
 11
14.1606281783
 21
24.5965581846
  0
LINE
  5
256
100
AcDbEntity
  8
0
100
AcDbLine
 62
7
  6
CONTINUOUS
 10
14.1606281783
 20
27.4292993928
 11
14.1606281783
 21
28.7362254394
  0
LINE
  5
257
100
AcDbEntity
  8
0
100
AcDbLine
 62
7
  6
CONTINUOUS
 10
14.1606281783
 20
31.5689666477
 11
14.1606281783
 21
32.8758926943
  0
LINE
  5
258
100
AcDbEntity
  8
0
100
AcDbLine
 62
7
  6
CONTINUOUS
 10
14.1606281783
 20
35.7086339025
 11
14.1606281783
 21
37.0155599491
  0
LINE
  5
259
100
AcDbEntity
  8
0
100
AcDbLine
 62
7
  6
CONTINUOUS
 10
14.1606281783
 20
39.8483011573
 11
14.1606281783
 21
41.155227204
  0
LINE
  5
25A
100
AcDbEntity
  8
0
100
AcDbLine
 62
7
  6
CONTINUOUS
 10
14.1606281783
 20
43.9879684122
 11
14.1606281783
 21
45.2948944588
  0
LINE
  5
25B
100
AcDbEntity
  8
0
100
AcDbLine
 62
7
  6
CONTINUOUS
 10
14.1606281783
 20
48.127635667
 11
14.1606281783
 21
49.4345617137
  0
LINE
  5
25C
100
AcDbEntity
  8
0
100
AcDbLine
 62
7
  6
CONTINUOUS
 10
14.1606281783
 20
52.2673029219
 11
14.1606281783
 21
53.5742289685
  0
LINE
  5
25D
100
AcDbEntity
  8
0
100
AcDbLine
 62
7
  6
CONTINUOUS
 10
14.1606281783
 20
56.4069701767
 11
14.1606281783
 21
57.7138962234
  0
LINE
  5
25E
100
AcDbEntity
  8
0
100
AcDbLine
 62
7
  6
CONTINUOUS
 10
14.1606281783
 20
60.5466374316
 11
14.1606281783
 21
61.8535634782
  0
LINE
  5
25F
100
AcDbEntity
  8
0
100
AcDbLine
 62
7
  6
CONTINUOUS
 10
14.3906839899
 20
59.2979504499
 11
14.3906839899
 21
13.5738150906
  0
LINE
  5
260
100
AcDbEntity
  8
0
100
AcDbLine
 62
7
  6
CONTINUOUS
 10
14.4581964357
 20
88.3318442097
 11
14.4581964357
 21
73.960655516
  0
LINE
  5
261
100
AcDbEntity
  8
0
100
AcDbLine
 62
7
  6
CONTINUOUS
 10
14.5371517644
 20
13.3696655649
 11
14.5371517644
 21
59.0938009242
  0
LINE
  5
262
100
AcDbEntity
  8
0
100
AcDbLine
 62
7
  6
CONTINUOUS
 10
15.7567735741
 20
61.7095014674
 11
15.7567735741
 21
61.5590112461
  0
LINE
  5
263
100
AcDbEntity
  8
0
100
AcDbLine
 62
7
  6
CONTINUOUS
 10
15.7841197937
 20
61.6032730009
 11
15.7841197937
 21
61.6709468338
  0
LINE
  5
264
100
AcDbEntity
  8
0
100
AcDbLine
 62
7
  6
CONTINUOUS
 10
16.0493765024
 20
90.2650744394
 11
16.0493765024
 21
92.7780146458
  0
LINE
  5
265
100
AcDbEntity
  8
0
100
AcDbLine
 62
7
  6
CONTINUOUS
 10
17.1100322582
 20
69.9805178508
 11
17.1100322582
 21
66.5153408657
  0
LINE
  5
266
100
AcDbEntity
  8
0
100
AcDbLine
 62
7
  6
CONTINUOUS
 10
36.990373077
 20
98.1295312094
 11
41.2576811866
 21
100.5932479889
  0
LINE
  5
267
100
AcDbEntity
  8
0
100
AcDbLine
 62
7
  6
CONTINUOUS
 10
62.4461112167
 20
112.8263207488
 11
66.7134193263
 21
115.2900375282
  0
LINE
  5
268
100
AcDbEntity
  8
0
100
AcDbLine
 62
7
  6
CONTINUOUS
 10
38.4169476062
 20
97.3201546473
 11
41.2576811866
 21
98.9602431546
  0
LINE
  5
269
100
AcDbEntity
  8
0
100
AcDbLine
 62
7
  6
CONTINUOUS
 10
63.8726857459
 20
112.0169441866
 11
66.7134193263
 21
113.657032694
  0
LINE
  5
26A
100
AcDbEntity
  8
0
100
AcDbLine
 62
7
  6
CONTINUOUS
 10
68.1523240699
 20
114.4593042809
 11
63.8850159602
 21
111.9955875015
  0
LINE
  5
26B
100
AcDbEntity
  8
0
100
AcDbLine
 62
7
  6
CONTINUOUS
 10
42.6965859302
 20
99.7625147415
 11
38.4292778205
 21
97.2987979621
  0
LINE
  5
26C
100
AcDbEntity
  8
0
100
AcDbLine
 62
7
  6
CONTINUOUS
 10
14.1606281783
 20
31.5689666477
 11
14.0192097507
 21
31.5684411897
  0
LINE
  5
26D
100
AcDbEntity
  8
0
100
AcDbLine
 62
7
  6
CONTINUOUS
 10
14.1606281783
 20
35.7086339025
 11
14.0192097507
 21
35.7081084446
  0
LINE
  5
26E
100
AcDbEntity
  8
0
100
AcDbLine
 62
7
  6
CONTINUOUS
 10
14.3906839899
 20
45.1663831407
 11
13.3121176128
 21
45.7811209819
  0
LINE
  5
26F
100
AcDbEntity
  8
0
100
AcDbLine
 62
7
  6
CONTINUOUS
 10
14.3906839899
 20
47.1014938696
 11
13.3121176129
 21
47.7162317108
  0
LINE
  5
270
100
AcDbEntity
  8
0
100
AcDbLine
 62
7
  6
CONTINUOUS
 10
14.0192097507
 20
48.1271102091
 11
14.3906839899
 21
47.9153853892
  0
LINE
  5
271
100
AcDbEntity
  8
0
100
AcDbLine
 62
7
  6
CONTINUOUS
 10
14.3906839899
 20
49.3060503955
 11
13.3121176128
 21
49.9207882368
  0
LINE
  5
272
100
AcDbEntity
  8
0
100
AcDbLine
 62
7
  6
CONTINUOUS
 10
38.7475368563
 20
31.6725982975
 11
40.1617563066
 21
30.8561167885
  0
LINE
  5
273
100
AcDbEntity
  8
0
100
AcDbLine
 62
7
  6
CONTINUOUS
 10
12.4046197371
 20
63.7161488934
 11
12.4336988764
 21
63.6561441039
  0
LINE
  5
274
100
AcDbEntity
  8
0
100
AcDbLine
 62
7
  6
CONTINUOUS
 10
20.0162170179
 20
55.9305326879
 11
20.0162170179
 21
10.2063973286
  0
LINE
  5
275
100
AcDbEntity
  8
0
100
AcDbLine
 62
7
  6
CONTINUOUS
 10
20.2990597307
 20
10.2063980078
 11
20.2990597307
 21
55.930533367
  0
LINE
  5
276
100
AcDbEntity
  8
0
100
AcDbLine
 62
7
  6
CONTINUOUS
 10
20.4782129198
 20
56.0339668916
 11
20.4782129198
 21
10.3098315323
  0
LINE
  5
277
100
AcDbEntity
  8
0
100
AcDbLine
 62
7
  6
CONTINUOUS
 10
14.4197363745
 20
59.3949237172
 11
14.3906918245
 21
59.2979504546
  0
LINE
  5
278
100
AcDbEntity
  8
0
100
AcDbLine
 62
7
  6
CONTINUOUS
 10
15.764034921
 20
61.7305565952
 11
15.7567750733
 21
61.7095014663
  0
LINE
  5
279
100
AcDbEntity
  8
0
100
AcDbLine
 62
7
  6
CONTINUOUS
 10
72.6177659106
 20
114.6021998741
 11
75.4461812594
 21
116.2351764896
  0
LINE
  5
27A
100
AcDbEntity
  8
0
100
AcDbLine
 62
7
  6
CONTINUOUS
 10
14.1606281783
 20
39.8483011574
 11
14.0192097507
 21
39.8477756994
  0
LINE
  5
27B
100
AcDbEntity
  8
0
100
AcDbLine
 62
7
  6
CONTINUOUS
 10
14.3906839899
 20
51.2411611244
 11
13.3121176129
 21
51.8558989657
  0
LINE
  5
27C
100
AcDbEntity
  8
0
100
AcDbLine
 62
7
  6
CONTINUOUS
 10
14.0192097507
 20
52.266777464
 11
14.3906839899
 21
52.0550526441
  0
LINE
  5
27D
100
AcDbEntity
  8
0
100
AcDbLine
 62
7
  6
CONTINUOUS
 10
14.3906839899
 20
53.4457176504
 11
13.3121176128
 21
54.0604554916
  0
LINE
  5
27E
100
AcDbEntity
  8
0
100
AcDbLine
 62
7
  6
CONTINUOUS
 10
15.8150418755
 20
61.6533225371
 11
14.4197363745
 21
59.3949237172
  0
LINE
  5
27F
100
AcDbEntity
  8
0
100
AcDbLine
 62
7
  6
CONTINUOUS
 10
15.7784200482
 20
61.7497925655
 11
15.764034921
 21
61.7305565952
  0
LINE
  5
280
100
AcDbEntity
  8
0
100
AcDbLine
 62
7
  6
CONTINUOUS
 10
38.3939967136
 20
87.0049277061
 11
33.1540239201
 21
83.8740312616
  0
LINE
  5
281
100
AcDbEntity
  8
0
100
AcDbLine
 62
7
  6
CONTINUOUS
 10
29.8736947181
 20
84.5756605825
 11
27.5400494395
 21
83.2283378951
  0
LINE
  5
282
100
AcDbEntity
  8
0
100
AcDbLine
 62
7
  6
CONTINUOUS
 10
38.3939967136
 20
87.0049277061
 11
82.2344346208
 21
112.3160652462
  0
LINE
  5
283
100
AcDbEntity
  8
0
100
AcDbLine
 62
7
  6
CONTINUOUS
 10
44.3069718832
 20
89.0615384877
 11
46.1281256027
 21
90.1129758017
  0
LINE
  5
284
100
AcDbEntity
  8
0
100
AcDbLine
 62
7
  6
CONTINUOUS
 10
66.9342946741
 20
102.1253514116
 11
68.7554483936
 21
103.1767887255
  0
LINE
  5
285
100
AcDbEntity
  8
0
100
AcDbLine
 62
7
  6
CONTINUOUS
 10
14.1606281783
 20
43.9879684122
 11
14.0192097507
 21
43.9874429543
  0
LINE
  5
286
100
AcDbEntity
  8
0
100
AcDbLine
 62
7
  6
CONTINUOUS
 10
14.3906839899
 20
55.3808283793
 11
13.3121176129
 21
55.9955662205
  0
LINE
  5
287
100
AcDbEntity
  8
0
100
AcDbLine
 62
7
  6
CONTINUOUS
 10
14.0192097507
 20
56.4064447188
 11
14.3906839899
 21
56.1947198989
  0
LINE
  5
288
100
AcDbEntity
  8
0
100
AcDbLine
 62
7
  6
CONTINUOUS
 10
14.3906839899
 20
57.5853849052
 11
13.3121176128
 21
58.2001227465
  0
LINE
  5
289
100
AcDbEntity
  8
0
100
AcDbLine
 62
7
  6
CONTINUOUS
 10
14.4666344395
 20
59.4772070462
 11
13.3121176129
 21
60.1352334754
  0
LINE
  5
28A
100
AcDbEntity
  8
0
100
AcDbLine
 62
7
  6
CONTINUOUS
 10
20.0162170179
 20
55.9305326879
 11
14.5371517644
 21
59.0938009242
  0
LINE
  5
28B
100
AcDbEntity
  8
0
100
AcDbLine
 62
7
  6
CONTINUOUS
 10
20.0914405439
 20
56.258657853
 11
20.4782129198
 21
56.0339668916
  0
LINE
  5
28C
100
AcDbEntity
  8
0
100
AcDbLine
 62
7
  6
CONTINUOUS
 10
29.6610555264
 20
65.1834793028
 11
29.6610555264
 21
79.5546679785
  0
LINE
  5
28D
100
AcDbEntity
  8
0
100
AcDbLine
 62
7
  6
CONTINUOUS
 10
29.6610555264
 20
79.5546679829
 11
31.994700805
 21
80.9019906702
  0
LINE
  5
28E
100
AcDbEntity
  8
0
100
AcDbLine
 62
7
  6
CONTINUOUS
 10
67.3408586669
 20
100.9924203927
 11
66.9476555343
 21
100.7654058133
  0
LINE
  5
28F
100
AcDbEntity
  8
0
100
AcDbLine
 62
7
  6
CONTINUOUS
 10
44.7139061524
 20
87.9283936837
 11
44.3069718832
 21
87.6934514763
  0
LINE
  5
290
100
AcDbEntity
  8
0
100
AcDbLine
 62
7
  6
CONTINUOUS
 10
57.6855889262
 20
94.2379076791
 11
64.3447075393
 21
98.0825286537
  0
LINE
  5
291
100
AcDbEntity
  8
0
100
AcDbLine
 62
7
  6
CONTINUOUS
 10
69.4513943817
 20
100.7997318919
 11
77.3398789294
 21
105.354123383
  0
LINE
  5
292
100
AcDbEntity
  8
0
100
AcDbLine
 62
7
  6
CONTINUOUS
 10
69.4513943817
 20
100.6083223149
 11
74.1734373349
 21
103.3345788115
  0
LINE
  5
293
100
AcDbEntity
  8
0
100
AcDbLine
 62
7
  6
CONTINUOUS
 10
68.7550781172
 20
100.1759388836
 11
66.9346649502
 21
99.1249291253
  0
LINE
  5
294
100
AcDbEntity
  8
0
100
AcDbLine
 62
7
  6
CONTINUOUS
 10
46.1281256027
 20
87.1119121747
 11
44.3069718832
 21
86.0604748607
  0
LINE
  5
295
100
AcDbEntity
  8
0
100
AcDbLine
 62
7
  6
CONTINUOUS
 10
71.7586777303
 20
101.2668105315
 11
73.102175021
 21
102.0424744239
  0
LINE
  5
296
100
AcDbEntity
  8
0
100
AcDbLine
 62
7
  6
CONTINUOUS
 10
70.4363935547
 20
99.9481723202
 11
71.7586777303
 21
100.7115888879
  0
LINE
  5
297
100
AcDbEntity
  8
0
100
AcDbLine
 62
7
  6
CONTINUOUS
 10
74.1734373349
 20
101.4566232515
 11
74.1451798894
 21
101.4403089051
  0
LINE
  5
298
100
AcDbEntity
  8
0
100
AcDbLine
 62
7
  6
CONTINUOUS
 10
69.9308143111
 20
99.0071583279
 11
69.4513943817
 21
98.7303667549
  0
LINE
  5
299
100
AcDbEntity
  8
0
100
AcDbLine
 62
7
  6
CONTINUOUS
 10
14.1606281783
 20
48.1276356671
 11
14.0192097507
 21
48.1271102091
  0
LINE
  5
29A
100
AcDbEntity
  8
0
100
AcDbLine
 62
7
  6
CONTINUOUS
 10
14.0192097507
 20
60.5461119737
 11
14.8414375877
 21
60.0774764067
  0
LINE
  5
29B
100
AcDbEntity
  8
0
100
AcDbLine
 62
7
  6
CONTINUOUS
 10
15.4768716295
 20
61.105970517
 11
13.3121176128
 21
62.3397900013
  0
LINE
  5
29C
100
AcDbEntity
  8
0
100
AcDbLine
 62
7
  6
CONTINUOUS
 10
15.8150418755
 20
61.6533225371
 11
15.7841197937
 21
61.6709468338
  0
LINE
  5
29D
100
AcDbEntity
  8
0
100
AcDbLine
 62
7
  6
CONTINUOUS
 10
12.4336988764
 20
63.6561441039
 11
15.7784200482
 21
61.7497925655
  0
LINE
  5
29E
100
AcDbEntity
  8
0
100
AcDbLine
 62
7
  6
CONTINUOUS
 10
30.44623854
 20
62.2369675778
 11
30.44623854
 21
16.5128322185
  0
LINE
  5
29F
100
AcDbEntity
  8
0
100
AcDbLine
 62
7
  6
CONTINUOUS
 10
31.3353969162
 20
62.8028549865
 11
31.3353969162
 21
14.3146835909
  0
LINE
  5
2A0
100
AcDbEntity
  8
0
100
AcDbLine
 62
7
  6
CONTINUOUS
 10
31.994700805
 20
80.9020301523
 11
31.994700805
 21
66.5307621687
  0
LINE
  5
2A1
100
AcDbEntity
  8
0
100
AcDbLine
 62
7
  6
CONTINUOUS
 10
32.7371660159
 20
10.8491985695
 11
32.7371660159
 21
83.1435328391
  0
LINE
  5
2A2
100
AcDbEntity
  8
0
100
AcDbLine
 62
7
  6
CONTINUOUS
 10
20.0537912098
 20
68.2369141045
 11
12.4629119322
 21
63.7976054387
  0
LINE
  5
2A3
100
AcDbEntity
  8
0
100
AcDbLine
 62
7
  6
CONTINUOUS
 10
73.3850300987
 20
100.3278567965
 11
74.7285273888
 21
101.1035206885
  0
LINE
  5
2A4
100
AcDbEntity
  8
0
100
AcDbLine
 62
7
  6
CONTINUOUS
 10
72.0627459225
 20
99.0092185848
 11
73.3850300983
 21
99.7726351526
  0
LINE
  5
2A5
100
AcDbEntity
  8
0
100
AcDbLine
 62
7
  6
CONTINUOUS
 10
62.930488089
 20
93.0059406567
 11
57.6855889262
 21
89.9778147886
  0
LINE
  5
2A6
100
AcDbEntity
  8
0
100
AcDbLine
 62
7
  6
CONTINUOUS
 10
64.3447075393
 20
92.1894591477
 11
57.6855889262
 21
88.3448381731
  0
LINE
  5
2A7
100
AcDbEntity
  8
0
100
AcDbLine
 62
7
  6
CONTINUOUS
 10
14.1606281783
 20
52.2673029219
 11
14.0192097507
 21
52.266777464
  0
LINE
  5
2A8
100
AcDbEntity
  8
0
100
AcDbLine
 62
7
  6
CONTINUOUS
 10
62.9428306324
 20
38.3074046372
 11
64.3570500827
 21
37.4909231282
  0
LINE
  5
2A9
100
AcDbEntity
  8
0
100
AcDbLine
 62
7
  6
CONTINUOUS
 10
35.2006598464
 20
27.7888413765
 11
35.2006598464
 21
32.3058619338
  0
LINE
  5
2AA
100
AcDbEntity
  8
0
100
AcDbLine
 62
7
  6
CONTINUOUS
 10
35.2006598464
 20
64.5314501474
 11
35.2006598464
 21
69.0484707046
  0
LINE
  5
2AB
100
AcDbEntity
  8
0
100
AcDbLine
 62
7
  6
CONTINUOUS
 10
35.2238252117
 20
69.0484707046
 11
35.2238252117
 21
66.1772955168
  0
LINE
  5
2AC
100
AcDbEntity
  8
0
100
AcDbLine
 62
7
  6
CONTINUOUS
 10
35.2238252117
 20
32.3058619338
 11
35.2238252117
 21
29.434686746
  0
LINE
  5
2AD
100
AcDbEntity
  8
0
100
AcDbLine
 62
7
  6
CONTINUOUS
 10
36.638044662
 20
69.8788459574
 11
36.638044662
 21
65.3608140077
  0
LINE
  5
2AE
100
AcDbEntity
  8
0
100
AcDbLine
 62
7
  6
CONTINUOUS
 10
36.638044662
 20
33.1362371866
 11
36.638044662
 21
28.6182052369
  0
LINE
  5
2AF
100
AcDbEntity
  8
0
100
AcDbLine
 62
7
  6
CONTINUOUS
 10
38.1555283791
 20
101.2374429877
 11
38.1555283791
 21
102.1801158525
  0
LINE
  5
2B0
100
AcDbEntity
  8
0
100
AcDbLine
 62
7
  6
CONTINUOUS
 10
38.4063392575
 20
29.8426323323
 11
38.4063392575
 21
33.9536486244
  0
LINE
  5
2B1
100
AcDbEntity
  8
0
100
AcDbLine
 62
7
  6
CONTINUOUS
 10
38.4063392575
 20
66.5852411031
 11
38.4063392575
 21
70.6962573953
  0
LINE
  5
2B2
100
AcDbEntity
  8
0
100
AcDbLine
 62
7
  6
CONTINUOUS
 10
38.7475368563
 20
70.893246745
 11
38.7475368563
 21
68.4152070684
  0
LINE
  5
2B3
100
AcDbEntity
  8
0
100
AcDbLine
 62
7
  6
CONTINUOUS
 10
38.7475368563
 20
34.1506379741
 11
38.7475368563
 21
31.6725982975
  0
LINE
  5
2B4
100
AcDbEntity
  8
0
100
AcDbLine
 62
7
  6
CONTINUOUS
 10
15.2923817604
 20
61.2085111488
 11
14.1606281783
 21
60.5466374316
  0
LINE
  5
2B5
100
AcDbEntity
  8
0
100
AcDbLine
 62
7
  6
CONTINUOUS
 10
14.3906839899
 20
56.5415117391
 11
14.1606281783
 21
56.4069701768
  0
LINE
  5
2B6
100
AcDbEntity
  8
0
100
AcDbLine
 62
7
  6
CONTINUOUS
 10
13.3121176128
 20
60.1352334753
 11
14.0192097507
 21
60.5461119736
  0
LINE
  5
2B7
100
AcDbEntity
  8
0
100
AcDbLine
 62
7
  6
CONTINUOUS
 10
13.3121176128
 20
55.9955662205
 11
14.0192097507
 21
56.4064447188
  0
LINE
  5
2B8
100
AcDbEntity
  8
0
100
AcDbLine
 62
7
  6
CONTINUOUS
 10
35.2006598464
 20
69.0484707046
 11
36.638044662
 21
69.8788459574
  0
LINE
  5
2B9
100
AcDbEntity
  8
0
100
AcDbLine
 62
7
  6
CONTINUOUS
 10
77.3398789294
 20
97.5284486576
 11
77.733544114
 21
97.7557300012
  0
LINE
  5
2BA
100
AcDbEntity
  8
0
100
AcDbLine
 62
7
  6
CONTINUOUS
 10
38.4063392575
 20
70.6962573953
 11
40.1617563066
 21
71.7097418515
  0
LINE
  5
2BB
100
AcDbEntity
  8
0
100
AcDbLine
 62
7
  6
CONTINUOUS
 10
76.3193246637
 20
92.2851428974
 11
75.9256594791
 21
92.0578615539
  0
LINE
  5
2BC
100
AcDbEntity
  8
0
100
AcDbLine
 62
7
  6
CONTINUOUS
 10
14.1606281783
 20
56.4069701768
 11
14.0192097507
 21
56.4064447188
  0
LINE
  5
2BD
100
AcDbEntity
  8
0
100
AcDbLine
 62
7
  6
CONTINUOUS
 10
20.0537912445
 20
68.2369140845
 11
30.44623854
 21
62.2369675778
  0
LINE
  5
2BE
100
AcDbEntity
  8
0
100
AcDbLine
 62
7
  6
CONTINUOUS
 10
16.5792025192
 20
70.2869856103
 11
27.5400494417
 21
63.9588808499
  0
LINE
  5
2BF
100
AcDbEntity
  8
0
100
AcDbLine
 62
7
  6
CONTINUOUS
 10
29.3151624158
 20
63.9692115326
 11
31.3353969162
 21
62.8028549865
  0
LINE
  5
2C0
100
AcDbEntity
  8
0
100
AcDbLine
 62
7
  6
CONTINUOUS
 10
75.8264749899
 20
38.1214358324
 11
77.2406944401
 21
37.3049543233
  0
LINE
  5
2C1
100
AcDbEntity
  8
0
100
AcDbLine
 62
7
  6
CONTINUOUS
 10
40.1617563066
 20
71.7097418515
 11
40.1617563066
 21
67.5987255593
  0
LINE
  5
2C2
100
AcDbEntity
  8
0
100
AcDbLine
 62
7
  6
CONTINUOUS
 10
40.1617563066
 20
34.9671330806
 11
40.1617563066
 21
30.8561167885
  0
LINE
  5
2C3
100
AcDbEntity
  8
0
100
AcDbLine
 62
7
  6
CONTINUOUS
 10
41.2576811866
 20
98.9602431546
 11
41.2576811866
 21
100.5932479889
  0
LINE
  5
2C4
100
AcDbEntity
  8
0
100
AcDbLine
 62
7
  6
CONTINUOUS
 10
41.3221711195
 20
107.6788558738
 11
41.3221711195
 21
106.8329543469
  0
LINE
  5
2C5
100
AcDbEntity
  8
0
100
AcDbLine
 62
7
  6
CONTINUOUS
 10
43.4620127
 20
106.4648216885
 11
43.4620127
 21
105.974925882
  0
LINE
  5
2C6
100
AcDbEntity
  8
0
100
AcDbLine
 62
7
  6
CONTINUOUS
 10
14.3906839899
 20
52.4018444843
 11
14.1606281783
 21
52.2673029219
  0
LINE
  5
2C7
100
AcDbEntity
  8
0
100
AcDbLine
 62
7
  6
CONTINUOUS
 10
13.3121176128
 20
51.8558989656
 11
14.0192097507
 21
52.2667774639
  0
LINE
  5
2C8
100
AcDbEntity
  8
0
100
AcDbLine
 62
7
  6
CONTINUOUS
 10
31.994700805
 20
66.5308019858
 11
29.6610555264
 21
65.1834792985
  0
LINE
  5
2C9
100
AcDbEntity
  8
0
100
AcDbLine
 62
7
  6
CONTINUOUS
 10
62.9304998644
 20
83.5345476346
 11
65.7589152138
 21
85.1675242504
  0
LINE
  5
2CA
100
AcDbEntity
  8
0
100
AcDbLine
 62
7
  6
CONTINUOUS
 10
29.0398534524
 20
63.8102627772
 11
31.373498731
 21
65.1575854646
  0
LINE
  5
2CB
100
AcDbEntity
  8
0
100
AcDbLine
 62
7
  6
CONTINUOUS
 10
77.733544114
 20
91.4686613884
 11
77.3398789294
 21
91.2413800448
  0
LINE
  5
2CC
100
AcDbEntity
  8
0
100
AcDbLine
 62
7
  6
CONTINUOUS
 10
38.7475368563
 20
68.4152070684
 11
38.4063392575
 21
68.2182177187
  0
LINE
  5
2CD
100
AcDbEntity
  8
0
100
AcDbLine
 62
7
  6
CONTINUOUS
 10
30.44623854
 20
62.2369675778
 11
20.0914405438
 21
56.258657853
  0
LINE
  5
2CE
100
AcDbEntity
  8
0
100
AcDbLine
 62
7
  6
CONTINUOUS
 10
69.4513943817
 20
84.6865251808
 11
69.9308143111
 21
84.9633167539
  0
LINE
  5
2CF
100
AcDbEntity
  8
0
100
AcDbLine
 62
7
  6
CONTINUOUS
 10
40.1617563066
 20
67.5987255593
 11
38.4063392575
 21
66.5852411031
  0
LINE
  5
2D0
100
AcDbEntity
  8
0
100
AcDbLine
 62
7
  6
CONTINUOUS
 10
20.4782129198
 20
56.0339668916
 11
20.2990597307
 21
55.930533367
  0
LINE
  5
2D1
100
AcDbEntity
  8
0
100
AcDbLine
 62
7
  6
CONTINUOUS
 10
35.2238252117
 20
66.1772955168
 11
35.2006598464
 21
66.1639292167
  0
LINE
  5
2D2
100
AcDbEntity
  8
0
100
AcDbLine
 62
7
  6
CONTINUOUS
 10
36.638044662
 20
65.3608140077
 11
35.2006598464
 21
64.5314501474
  0
LINE
  5
2D3
100
AcDbEntity
  8
0
100
AcDbLine
 62
7
  6
CONTINUOUS
 10
14.1606281783
 20
60.5466374316
 11
14.0192097507
 21
60.5461119737
  0
LINE
  5
2D4
100
AcDbEntity
  8
0
100
AcDbLine
 62
7
  6
CONTINUOUS
 10
35.2238252117
 20
66.1772955168
 11
36.638044662
 21
65.3608140078
  0
LINE
  5
2D5
100
AcDbEntity
  8
0
100
AcDbLine
 62
7
  6
CONTINUOUS
 10
44.3069718832
 20
18.290774239
 11
44.3069718832
 21
21.2918378659
  0
LINE
  5
2D6
100
AcDbEntity
  8
0
100
AcDbLine
 62
7
  6
CONTINUOUS
 10
44.3069718832
 20
86.0604748607
 11
44.3069718832
 21
89.0615384877
  0
LINE
  5
2D7
100
AcDbEntity
  8
0
100
AcDbLine
 62
7
  6
CONTINUOUS
 10
44.7139061524
 20
89.2964806952
 11
44.7139061524
 21
87.9283936837
  0
LINE
  5
2D8
100
AcDbEntity
  8
0
100
AcDbLine
 62
7
  6
CONTINUOUS
 10
44.7139061524
 20
21.5267800734
 11
44.7139061524
 21
20.158693062
  0
LINE
  5
2D9
100
AcDbEntity
  8
0
100
AcDbLine
 62
7
  6
CONTINUOUS
 10
46.1281256027
 20
90.1129758017
 11
46.1281256027
 21
87.1119121747
  0
LINE
  5
2DA
100
AcDbEntity
  8
0
100
AcDbLine
 62
7
  6
CONTINUOUS
 10
46.1281256027
 20
22.3432751799
 11
46.1281256027
 21
19.342211553
  0
LINE
  5
2DB
100
AcDbEntity
  8
0
100
AcDbLine
 62
7
  6
CONTINUOUS
 10
81.2514865696
 20
87.7957600859
 11
80.6788061788
 21
87.4535821653
  0
LINE
  5
2DC
100
AcDbEntity
  8
0
100
AcDbLine
 62
7
  6
CONTINUOUS
 10
14.3906839899
 20
48.2621772295
 11
14.1606281783
 21
48.1276356671
  0
LINE
  5
2DD
100
AcDbEntity
  8
0
100
AcDbLine
 62
7
  6
CONTINUOUS
 10
13.3121176128
 20
47.7162317108
 11
14.0192097507
 21
48.1271102091
  0
LINE
  5
2DE
100
AcDbEntity
  8
0
100
AcDbLine
 62
7
  6
CONTINUOUS
 10
71.5006120815
 20
83.9916789492
 11
69.4513943817
 21
82.8085696209
  0
LINE
  5
2DF
100
AcDbEntity
  8
0
100
AcDbLine
 62
7
  6
CONTINUOUS
 10
80.3252542604
 20
88.8824649222
 11
79.406019272
 21
88.3517475222
  0
LINE
  5
2E0
100
AcDbEntity
  8
0
100
AcDbLine
 62
7
  6
CONTINUOUS
 10
73.3850300987
 20
84.430554735
 11
72.0627459225
 21
83.6671381669
  0
LINE
  5
2E1
100
AcDbEntity
  8
0
100
AcDbLine
 62
7
  6
CONTINUOUS
 10
74.7285273883
 20
84.650996983
 11
73.3850300981
 21
83.875333091
  0
LINE
  5
2E2
100
AcDbEntity
  8
0
100
AcDbLine
 62
7
  6
CONTINUOUS
 10
75.8704883106
 20
84.2284105723
 11
69.4513943817
 21
80.5223670866
  0
LINE
  5
2E3
100
AcDbEntity
  8
0
100
AcDbLine
 62
7
  6
CONTINUOUS
 10
75.9256594791
 20
84.2321868284
 11
69.4513943817
 21
80.4942904439
  0
LINE
  5
2E4
100
AcDbEntity
  8
0
100
AcDbLine
 62
7
  6
CONTINUOUS
 10
64.3446957635
 20
76.1859767539
 11
62.9304998644
 21
75.3694952446
  0
LINE
  5
2E5
100
AcDbEntity
  8
0
100
AcDbLine
 62
7
  6
CONTINUOUS
 10
77.3398789294
 20
83.4157053194
 11
69.4513943817
 21
78.8613138283
  0
LINE
  5
2E6
100
AcDbEntity
  8
0
100
AcDbLine
 62
7
  6
CONTINUOUS
 10
38.7475368563
 20
68.4152070684
 11
40.1617563066
 21
67.5987255593
  0
LINE
  5
2E7
100
AcDbEntity
  8
0
100
AcDbLine
 62
7
  6
CONTINUOUS
 10
50.2255263305
 20
110.3697147946
 11
50.2255263305
 21
109.8798189881
  0
LINE
  5
2E8
100
AcDbEntity
  8
0
100
AcDbLine
 62
7
  6
CONTINUOUS
 10
50.6755071883
 20
111.7317379882
 11
50.6755071883
 21
113.3647428224
  0
LINE
  5
2E9
100
AcDbEntity
  8
0
100
AcDbLine
 62
7
  6
CONTINUOUS
 10
14.3906839899
 20
44.1225099746
 11
14.1606281783
 21
43.9879684122
  0
LINE
  5
2EA
100
AcDbEntity
  8
0
100
AcDbLine
 62
7
  6
CONTINUOUS
 10
13.3121176128
 20
43.5765644559
 11
14.0192097507
 21
43.9874429542
  0
LINE
  5
2EB
100
AcDbEntity
  8
0
100
AcDbLine
 62
7
  6
CONTINUOUS
 10
65.7589152138
 20
75.3694952448
 11
62.9304998644
 21
73.7365186291
  0
LINE
  5
2EC
100
AcDbEntity
  8
0
100
AcDbLine
 62
7
  6
CONTINUOUS
 10
27.5400494395
 20
83.2283378951
 11
16.5792025213
 21
89.556442653
  0
LINE
  5
2ED
100
AcDbEntity
  8
0
100
AcDbLine
 62
7
  6
CONTINUOUS
 10
14.3906839899
 20
39.9828427198
 11
14.1606281783
 21
39.8483011574
  0
LINE
  5
2EE
100
AcDbEntity
  8
0
100
AcDbLine
 62
7
  6
CONTINUOUS
 10
13.3121176128
 20
39.4368972011
 11
14.0192097507
 21
39.8477756994
  0
LINE
  5
2EF
100
AcDbEntity
  8
0
100
AcDbLine
 62
7
  6
CONTINUOUS
 10
18.9128098555
 20
90.9037872471
 11
29.8737292044
 21
84.5756406723
  0
LINE
  5
2F0
100
AcDbEntity
  8
0
100
AcDbLine
 62
7
  6
CONTINUOUS
 10
16.0493765024
 20
92.7780146458
 11
32.7371660159
 21
83.1435328391
  0
LINE
  5
2F1
100
AcDbEntity
  8
0
100
AcDbLine
 62
7
  6
CONTINUOUS
 10
33.15402392
 20
83.8740312616
 11
16.4662344066
 21
93.5085130683
  0
LINE
  5
2F2
100
AcDbEntity
  8
0
100
AcDbLine
 62
7
  6
CONTINUOUS
 10
57.6855889262
 20
33.6391762254
 11
57.6855889262
 21
39.5322457314
  0
LINE
  5
2F3
100
AcDbEntity
  8
0
100
AcDbLine
 62
7
  6
CONTINUOUS
 10
57.6855889262
 20
88.3448381731
 11
57.6855889262
 21
94.2379076791
  0
LINE
  5
2F4
100
AcDbEntity
  8
0
100
AcDbLine
 62
7
  6
CONTINUOUS
 10
14.3906839899
 20
35.8431754649
 11
14.1606281783
 21
35.7086339025
  0
LINE
  5
2F5
100
AcDbEntity
  8
0
100
AcDbLine
 62
7
  6
CONTINUOUS
 10
14.3906839899
 20
31.7035082101
 11
14.1606281783
 21
31.5689666477
  0
LINE
  5
2F6
100
AcDbEntity
  8
0
100
AcDbLine
 62
7
  6
CONTINUOUS
 10
13.3121176128
 20
35.2972299463
 11
14.0192097507
 21
35.7081084445
  0
LINE
  5
2F7
100
AcDbEntity
  8
0
100
AcDbLine
 62
7
  6
CONTINUOUS
 10
13.3121176128
 20
31.1575626914
 11
14.0192097507
 21
31.5684411897
  0
LINE
  5
2F8
100
AcDbEntity
  8
0
100
AcDbLine
 62
7
  6
CONTINUOUS
 10
82.2344346208
 20
61.1051804026
 11
79.406019272
 21
62.7381298234
  0
LINE
  5
2F9
100
AcDbEntity
  8
0
100
AcDbLine
 62
7
  6
CONTINUOUS
 10
38.3939967136
 20
87.0049277061
 11
21.7062072001
 21
96.6394095128
  0
LINE
  5
2FA
100
AcDbEntity
  8
0
100
AcDbLine
 62
7
  6
CONTINUOUS
 10
62.930488089
 20
97.2660335472
 11
62.930488089
 21
93.0059406567
  0
LINE
  5
2FB
100
AcDbEntity
  8
0
100
AcDbLine
 62
7
  6
CONTINUOUS
 10
62.9304998644
 20
73.7365186291
 11
62.9304998644
 21
83.5345476346
  0
LINE
  5
2FC
100
AcDbEntity
  8
0
100
AcDbLine
 62
7
  6
CONTINUOUS
 10
62.9428306324
 20
42.5674975277
 11
62.9428306324
 21
38.3074046372
  0
LINE
  5
2FD
100
AcDbEntity
  8
0
100
AcDbLine
 62
7
  6
CONTINUOUS
 10
63.6112665188
 20
115.934232527
 11
63.6112665188
 21
116.8769053919
  0
LINE
  5
2FE
100
AcDbEntity
  8
0
100
AcDbLine
 62
7
  6
CONTINUOUS
 10
64.3446957635
 20
84.3510291439
 11
64.3446957635
 21
76.1859767539
  0
LINE
  5
2FF
100
AcDbEntity
  8
0
100
AcDbLine
 62
7
  6
CONTINUOUS
 10
64.3447075393
 20
98.0825286537
 11
64.3447075393
 21
92.1894591477
  0
LINE
  5
300
100
AcDbEntity
  8
0
100
AcDbLine
 62
7
  6
CONTINUOUS
 10
64.3570500827
 20
43.3839926342
 11
64.3570500827
 21
37.4909231282
  0
LINE
  5
301
100
AcDbEntity
  8
0
100
AcDbLine
 62
7
  6
CONTINUOUS
 10
14.3906839899
 20
27.5638409552
 11
14.1606281783
 21
27.4292993928
  0
LINE
  5
302
100
AcDbEntity
  8
0
100
AcDbLine
 62
7
  6
CONTINUOUS
 10
13.3121176128
 20
27.0178954366
 11
14.0192097507
 21
27.4287739348
  0
LINE
  5
303
100
AcDbEntity
  8
0
100
AcDbLine
 62
7
  6
CONTINUOUS
 10
64.3446957635
 20
76.1859767539
 11
65.7589152138
 21
75.3694952448
  0
LINE
  5
304
100
AcDbEntity
  8
0
100
AcDbLine
 62
7
  6
CONTINUOUS
 10
44.7139061524
 20
87.9283936837
 11
46.1281256027
 21
87.1119121747
  0
LINE
  5
305
100
AcDbEntity
  8
0
100
AcDbLine
 62
7
  6
CONTINUOUS
 10
65.7589152138
 20
85.1675242504
 11
65.7589152138
 21
75.3694952448
  0
LINE
  5
306
100
AcDbEntity
  8
0
100
AcDbLine
 62
7
  6
CONTINUOUS
 10
66.7134193263
 20
113.657032694
 11
66.7134193263
 21
115.2900375282
  0
LINE
  5
307
100
AcDbEntity
  8
0
100
AcDbLine
 62
7
  6
CONTINUOUS
 10
66.9346649502
 20
99.1249291253
 11
66.9342946741
 21
102.1253514116
  0
LINE
  5
308
100
AcDbEntity
  8
0
100
AcDbLine
 62
7
  6
CONTINUOUS
 10
67.3408586669
 20
102.3600798411
 11
67.3408586669
 21
100.9924203927
  0
LINE
  5
309
100
AcDbEntity
  8
0
100
AcDbLine
 62
7
  6
CONTINUOUS
 10
68.0922401179
 20
120.4808803366
 11
68.0922401179
 21
117.2149543003
  0
LINE
  5
30A
100
AcDbEntity
  8
0
100
AcDbLine
 62
7
  6
CONTINUOUS
 10
69.4513943817
 20
78.8613138283
 11
69.4513943817
 21
100.7997318919
  0
LINE
  5
30B
100
AcDbEntity
  8
0
100
AcDbLine
 62
7
  6
CONTINUOUS
 10
68.7554483936
 20
103.1767887255
 11
68.7550781172
 21
100.1759388836
  0
LINE
  5
30C
100
AcDbEntity
  8
0
100
AcDbLine
 62
7
  6
CONTINUOUS
 10
81.2514865696
 20
87.7957600859
 11
82.2344346208
 21
89.9847241379
  0
LINE
  5
30D
100
AcDbEntity
  8
0
100
AcDbLine
 62
7
  6
CONTINUOUS
 10
14.3906839899
 20
23.4241737004
 11
14.1606281783
 21
23.289632138
  0
LINE
  5
30E
100
AcDbEntity
  8
0
100
AcDbLine
 62
7
  6
CONTINUOUS
 10
13.3121176128
 20
22.8782281817
 11
14.0192097507
 21
23.28910668
  0
LINE
  5
30F
100
AcDbEntity
  8
0
100
AcDbLine
 62
7
  6
CONTINUOUS
 10
82.2344346208
 20
61.1051804026
 11
79.406019272
 21
59.5292121972
  0
LINE
  5
310
100
AcDbEntity
  8
0
100
AcDbLine
 62
7
  6
CONTINUOUS
 10
69.9308143111
 20
84.9633167539
 11
69.9308143111
 21
99.0071583279
  0
LINE
  5
311
100
AcDbEntity
  8
0
100
AcDbLine
 62
7
  6
CONTINUOUS
 10
70.4363935547
 20
84.6060919023
 11
70.4363935547
 21
99.9481723202
  0
LINE
  5
312
100
AcDbEntity
  8
0
100
AcDbLine
 62
7
  6
CONTINUOUS
 10
71.7586777303
 20
100.7115888879
 11
71.7586777303
 21
101.2668105315
  0
LINE
  5
313
100
AcDbEntity
  8
0
100
AcDbLine
 62
7
  6
CONTINUOUS
 10
72.0627459225
 20
83.6671381672
 11
72.0627459225
 21
99.0092185843
  0
LINE
  5
314
100
AcDbEntity
  8
0
100
AcDbLine
 62
7
  6
CONTINUOUS
 10
73.3850300981
 20
83.8753330911
 11
73.3850300981
 21
84.4305547346
  0
LINE
  5
315
100
AcDbEntity
  8
0
100
AcDbLine
 62
7
  6
CONTINUOUS
 10
73.3850300981
 20
99.7726351525
 11
73.3850300981
 21
100.3278567961
  0
LINE
  5
316
100
AcDbEntity
  8
0
100
AcDbLine
 62
7
  6
CONTINUOUS
 10
74.1734373349
 20
103.3345788115
 11
74.1734373349
 21
101.4566232515
  0
LINE
  5
317
100
AcDbEntity
  8
0
100
AcDbLine
 62
7
  6
CONTINUOUS
 10
14.3906839899
 20
19.2845064455
 11
14.1606281783
 21
19.1499648831
  0
LINE
  5
318
100
AcDbEntity
  8
0
100
AcDbLine
 62
7
  6
CONTINUOUS
 10
13.3121176128
 20
18.7385609269
 11
14.0192097507
 21
19.1494394252
  0
LINE
  5
319
100
AcDbEntity
  8
0
100
AcDbLine
 62
7
  6
CONTINUOUS
 10
35.2006598464
 20
32.3058619338
 11
36.638044662
 21
33.1362371866
  0
LINE
  5
31A
100
AcDbEntity
  8
0
100
AcDbLine
 62
7
  6
CONTINUOUS
 10
38.4063392575
 20
33.9536486244
 11
40.1617563066
 21
34.9671330806
  0
LINE
  5
31B
100
AcDbEntity
  8
0
100
AcDbLine
 62
7
  6
CONTINUOUS
 10
38.7475368563
 20
31.6725982975
 11
38.4063392575
 21
31.4756089478
  0
LINE
  5
31C
100
AcDbEntity
  8
0
100
AcDbLine
 62
7
  6
CONTINUOUS
 10
40.1617563066
 20
30.8561167885
 11
38.4063392575
 21
29.8426323323
  0
LINE
  5
31D
100
AcDbEntity
  8
0
100
AcDbLine
 62
7
  6
CONTINUOUS
 10
35.2238252117
 20
29.434686746
 11
35.2006598464
 21
29.4213204458
  0
LINE
  5
31E
100
AcDbEntity
  8
0
100
AcDbLine
 62
7
  6
CONTINUOUS
 10
38.4292778205
 20
97.2987979621
 11
36.990373077
 21
98.1295312094
  0
LINE
  5
31F
100
AcDbEntity
  8
0
100
AcDbLine
 62
7
  6
CONTINUOUS
 10
35.0581625075
 20
99.4491886423
 11
34.2417721881
 21
99.92052115
  0
LINE
  5
320
100
AcDbEntity
  8
0
100
AcDbLine
 62
7
  6
CONTINUOUS
 10
41.2576811866
 20
98.9602431546
 11
41.2823420414
 21
98.9460055255
  0
LINE
  5
321
100
AcDbEntity
  8
0
100
AcDbLine
 62
7
  6
CONTINUOUS
 10
38.1555283791
 20
102.1801158525
 11
38.9719186985
 21
101.7087833448
  0
LINE
  5
322
100
AcDbEntity
  8
0
100
AcDbLine
 62
7
  6
CONTINUOUS
 10
41.2576811866
 20
100.5932479889
 11
42.6965859302
 21
99.7625147415
  0
LINE
  5
323
100
AcDbEntity
  8
0
100
AcDbLine
 62
7
  6
CONTINUOUS
 10
74.7285273888
 20
101.103520688
 11
74.7285273888
 21
84.6509969833
  0
LINE
  5
324
100
AcDbEntity
  8
0
100
AcDbLine
 62
7
  6
CONTINUOUS
 10
75.4195407206
 20
36.2535170094
 11
75.4195407206
 21
39.2545806363
  0
LINE
  5
325
100
AcDbEntity
  8
0
100
AcDbLine
 62
7
  6
CONTINUOUS
 10
75.8264749899
 20
39.4895228437
 11
75.8264749899
 21
38.1214358324
  0
LINE
  5
326
100
AcDbEntity
  8
0
100
AcDbLine
 62
7
  6
CONTINUOUS
 10
75.8704883106
 20
104.5057753776
 11
75.8704883106
 21
84.2284105723
  0
LINE
  5
327
100
AcDbEntity
  8
0
100
AcDbLine
 62
7
  6
CONTINUOUS
 10
75.9256594791
 20
104.5376282765
 11
75.9256594791
 21
98.3449301667
  0
LINE
  5
328
100
AcDbEntity
  8
0
100
AcDbLine
 62
7
  6
CONTINUOUS
 10
75.9256594791
 20
92.0578615539
 11
75.9256594791
 21
84.2321868284
  0
LINE
  5
329
100
AcDbEntity
  8
0
100
AcDbLine
 62
7
  6
CONTINUOUS
 10
76.3193246637
 20
98.1176526081
 11
76.3193246637
 21
92.2851428974
  0
LINE
  5
32A
100
AcDbEntity
  8
0
100
AcDbLine
 62
7
  6
CONTINUOUS
 10
77.2406944401
 20
40.3060179502
 11
77.2406944401
 21
37.3049543233
  0
LINE
  5
32B
100
AcDbEntity
  8
0
100
AcDbLine
 62
7
  6
CONTINUOUS
 10
77.3398789294
 20
105.354123383
 11
77.3398789294
 21
97.5284486576
  0
LINE
  5
32C
100
AcDbEntity
  8
0
100
AcDbLine
 62
7
  6
CONTINUOUS
 10
77.3398789294
 20
91.2413800448
 11
77.3398789294
 21
83.4157053194
  0
LINE
  5
32D
100
AcDbEntity
  8
0
100
AcDbLine
 62
7
  6
CONTINUOUS
 10
77.733544114
 20
97.7557300012
 11
77.733544114
 21
91.4686613884
  0
LINE
  5
32E
100
AcDbEntity
  8
0
100
AcDbLine
 62
7
  6
CONTINUOUS
 10
57.6855889262
 20
39.5322457314
 11
64.3570500827
 21
43.3839926342
  0
LINE
  5
32F
100
AcDbEntity
  8
0
100
AcDbLine
 62
7
  6
CONTINUOUS
 10
36.638044662
 20
28.6182052369
 11
35.2006598464
 21
27.7888413765
  0
LINE
  5
330
100
AcDbEntity
  8
0
100
AcDbLine
 62
7
  6
CONTINUOUS
 10
72.0627459225
 20
83.6671381669
 11
70.4363935547
 21
84.6060919023
  0
LINE
  5
331
100
AcDbEntity
  8
0
100
AcDbLine
 62
7
  6
CONTINUOUS
 10
69.9308143111
 20
84.9633167539
 11
69.4513943817
 21
85.2401037174
  0
LINE
  5
332
100
AcDbEntity
  8
0
100
AcDbLine
 62
7
  6
CONTINUOUS
 10
73.3850300981
 20
83.875333091
 11
72.9041871759
 21
84.1529416012
  0
LINE
  5
333
100
AcDbEntity
  8
0
100
AcDbLine
 62
7
  6
CONTINUOUS
 10
74.7285273888
 20
84.8877071026
 11
75.8704883106
 21
84.2284105723
  0
LINE
  5
334
100
AcDbEntity
  8
0
100
AcDbLine
 62
7
  6
CONTINUOUS
 10
75.9256594791
 20
84.2321868284
 11
77.3398789294
 21
83.4157053194
  0
LINE
  5
335
100
AcDbEntity
  8
0
100
AcDbLine
 62
7
  6
CONTINUOUS
 10
62.930488089
 20
93.0059406567
 11
64.3447075393
 21
92.1894591477
  0
LINE
  5
336
100
AcDbEntity
  8
0
100
AcDbLine
 62
7
  6
CONTINUOUS
 10
79.406019272
 20
88.3517475222
 11
79.406019272
 21
59.5292121972
  0
LINE
  5
337
100
AcDbEntity
  8
0
100
AcDbLine
 62
7
  6
CONTINUOUS
 10
80.3252542604
 20
88.3109132302
 11
80.3252542604
 21
88.8824649222
  0
LINE
  5
338
100
AcDbEntity
  8
0
100
AcDbLine
 62
7
  6
CONTINUOUS
 10
82.2344346208
 20
112.3160652462
 11
82.2344346208
 21
89.984724138
  0
LINE
  5
339
100
AcDbEntity
  8
0
100
AcDbLine
 62
7
  6
CONTINUOUS
 10
82.2344346208
 20
61.1051804027
 11
82.2344346208
 21
38.8308477045
  0
LINE
  5
33A
100
AcDbEntity
  8
0
100
AcDbLine
 62
7
  6
CONTINUOUS
 10
62.9428306324
 20
38.3074046372
 11
57.6855889262
 21
35.2721528409
  0
LINE
  5
33B
100
AcDbEntity
  8
0
100
AcDbLine
 62
7
  6
CONTINUOUS
 10
64.3570500827
 20
37.4909231282
 11
57.6855889262
 21
33.6391762254
  0
LINE
  5
33C
100
AcDbEntity
  8
0
100
AcDbLine
 62
7
  6
CONTINUOUS
 10
30.44623854
 20
16.5128322185
 11
20.4782129198
 21
10.7578242962
  0
LINE
  5
33D
100
AcDbEntity
  8
0
100
AcDbLine
 62
7
  6
CONTINUOUS
 10
20.4782129198
 20
10.3098315323
 11
20.2991182546
 21
10.2064317964
  0
LINE
  5
33E
100
AcDbEntity
  8
0
100
AcDbLine
 62
7
  6
CONTINUOUS
 10
43.1668319172
 20
105.8045041948
 11
40.3249954555
 21
107.3889077582
  0
LINE
  5
33F
100
AcDbEntity
  8
0
100
AcDbLine
 62
7
  6
CONTINUOUS
 10
41.3221711195
 20
107.6788558738
 11
43.4620127
 21
106.4648216885
  0
LINE
  5
340
100
AcDbEntity
  8
0
100
AcDbLine
 62
7
  6
CONTINUOUS
 10
80.6788061788
 20
87.4535821653
 11
79.406019272
 21
88.1884094046
  0
LINE
  5
341
100
AcDbEntity
  8
0
100
AcDbLine
 62
7
  6
CONTINUOUS
 10
44.3069718832
 20
21.2918378659
 11
46.1281256027
 21
22.3432751799
  0
LINE
  5
342
100
AcDbEntity
  8
0
100
AcDbLine
 62
7
  6
CONTINUOUS
 10
75.4195407206
 20
39.2545806363
 11
77.2406944401
 21
40.3060179502
  0
LINE
  5
343
100
AcDbEntity
  8
0
100
AcDbLine
 62
7
  6
CONTINUOUS
 10
75.8264749899
 20
38.1214358324
 11
75.4195407206
 21
37.8864936249
  0
LINE
  5
344
100
AcDbEntity
  8
0
100
AcDbLine
 62
7
  6
CONTINUOUS
 10
44.7139061524
 20
20.158693062
 11
44.3069718832
 21
19.9237508546
  0
LINE
  5
345
100
AcDbEntity
  8
0
100
AcDbLine
 62
7
  6
CONTINUOUS
 10
77.2406944401
 20
37.3049543233
 11
75.4195407206
 21
36.2535170094
  0
LINE
  5
346
100
AcDbEntity
  8
0
100
AcDbLine
 62
7
  6
CONTINUOUS
 10
46.1281256027
 20
19.342211553
 11
44.3069718832
 21
18.290774239
  0
LINE
  5
347
100
AcDbEntity
  8
0
100
AcDbLine
 62
7
  6
CONTINUOUS
 10
80.3252542603
 20
88.3109132302
 11
79.8302688993
 21
88.5966866966
  0
LINE
  5
348
100
AcDbEntity
  8
0
100
AcDbLine
 62
7
  6
CONTINUOUS
 10
75.9256594791
 20
92.0578615539
 11
77.3398789294
 21
91.2413800448
  0
LINE
  5
349
100
AcDbEntity
  8
0
100
AcDbLine
 62
7
  6
CONTINUOUS
 10
76.3193246637
 20
92.2851428974
 11
77.733544114
 21
91.4686613884
  0
LINE
  5
34A
100
AcDbEntity
  8
0
100
AcDbLine
 62
7
  6
CONTINUOUS
 10
50.2255263305
 20
110.3697147946
 11
48.1227095601
 21
111.6051251365
  0
LINE
  5
34B
100
AcDbEntity
  8
0
100
AcDbLine
 62
7
  6
CONTINUOUS
 10
80.3252542604
 20
88.3109132303
 11
80.6788061788
 21
87.4535821654
  0
LINE
  5
34C
100
AcDbEntity
  8
0
100
AcDbLine
 62
7
  6
CONTINUOUS
 10
82.2344346208
 20
38.8308477045
 11
38.3939967136
 21
13.5197101645
  0
LINE
  5
34D
100
AcDbEntity
  8
0
100
AcDbLine
 62
7
  6
CONTINUOUS
 10
33.15402392
 20
10.6000433202
 11
38.3939967136
 21
13.5197101645
  0
LINE
  5
34E
100
AcDbEntity
  8
0
100
AcDbLine
 62
7
  6
CONTINUOUS
 10
67.3408586669
 20
100.9924203927
 11
68.7550781172
 21
100.1759388836
  0
LINE
  5
34F
100
AcDbEntity
  8
0
100
AcDbLine
 62
7
  6
CONTINUOUS
 10
72.0627459225
 20
99.0092185843
 11
70.4363935547
 21
99.9481723197
  0
LINE
  5
350
100
AcDbEntity
  8
0
100
AcDbLine
 62
7
  6
CONTINUOUS
 10
73.3850300983
 20
99.7726351526
 11
71.7586777304
 21
100.711588888
  0
LINE
  5
351
100
AcDbEntity
  8
0
100
AcDbLine
 62
7
  6
CONTINUOUS
 10
75.9256594791
 20
98.3449301667
 11
77.3398789294
 21
97.5284486576
  0
LINE
  5
352
100
AcDbEntity
  8
0
100
AcDbLine
 62
7
  6
CONTINUOUS
 10
73.3850300981
 20
100.3278567961
 11
71.7586777303
 21
101.2668105315
  0
LINE
  5
353
100
AcDbEntity
  8
0
100
AcDbLine
 62
7
  6
CONTINUOUS
 10
74.7285273888
 20
101.1035206885
 11
73.102175021
 21
102.0424744239
  0
LINE
  5
354
100
AcDbEntity
  8
0
100
AcDbLine
 62
7
  6
CONTINUOUS
 10
52.030279181
 20
110.9217873125
 11
50.6755071882
 21
111.7317379882
  0
LINE
  5
355
100
AcDbEntity
  8
0
100
AcDbLine
 62
7
  6
CONTINUOUS
 10
50.6755071882
 20
113.3647428224
 11
53.4198375568
 21
111.7240444259
  0
LINE
  5
356
100
AcDbEntity
  8
0
100
AcDbLine
 62
7
  6
CONTINUOUS
 10
74.1734373349
 20
103.3345788115
 11
74.0076694089
 21
103.4302828031
  0
LINE
  5
357
100
AcDbEntity
  8
0
100
AcDbLine
 62
7
  6
CONTINUOUS
 10
63.8850159602
 20
111.9955875015
 11
62.4461112167
 21
112.8263207488
  0
LINE
  5
358
100
AcDbEntity
  8
0
100
AcDbLine
 62
7
  6
CONTINUOUS
 10
60.5139006472
 20
114.1459781817
 11
59.6975103278
 21
114.6173106894
  0
LINE
  5
359
100
AcDbEntity
  8
0
100
AcDbLine
 62
7
  6
CONTINUOUS
 10
66.7134193263
 20
113.657032694
 11
66.7380801811
 21
113.6427950649
  0
LINE
  5
35A
100
AcDbEntity
  8
0
100
AcDbLine
 62
7
  6
CONTINUOUS
 10
63.6112665188
 20
116.8769053919
 11
64.4276568382
 21
116.4055728842
  0
LINE
  5
35B
100
AcDbEntity
  8
0
100
AcDbLine
 62
7
  6
CONTINUOUS
 10
66.7134193263
 20
115.2900375282
 11
68.1523240699
 21
114.4593042809
  0
LINE
  5
35C
100
AcDbEntity
  8
0
100
AcDbLine
 62
7
  6
CONTINUOUS
 10
65.263824769
 20
118.8479037211
 11
72.6177659106
 21
114.6021998741
  0
LINE
  5
35D
100
AcDbEntity
  8
0
100
AcDbLine
 62
7
  6
CONTINUOUS
 10
82.2344346208
 20
112.3160652462
 11
75.4461812594
 21
116.2351764896
  0
LINE
  5
35E
100
AcDbEntity
  8
0
100
AcDbLine
 62
7
  6
CONTINUOUS
 10
68.0922401184
 20
120.4808803363
 11
65.5466451074
 21
121.9505470528
  0
SPLINE
  5
35F
100
AcDbEntity
  8
0
100
AcDbSpline
 62
7
  6
CONTINUOUS
 70
0
 71
3
 72
11
 73
7
 74
0
 42
0.0000001
 43
0.0000001
 44
0.0000000001
 40
0.0
 40
0.0
 40
0.0
 40
0.0
 40
0.2897033281
 40
0.5490895198
 40
0.7822165953
 40
1.0
 40
1.0
 40
1.0
 40
1.0
 10
16.736402876
 20
18.4880183541
 30
0.0
 10
16.736402876
 20
18.4246831736
 30
0.0
 10
16.7268003308
 20
18.3042330836
 30
0.0
 10
16.6780194894
 20
18.138740972
 30
0.0
 10
16.5958887533
 20
18.0044534822
 30
0.0
 10
16.518743063
 20
17.9395972023
 30
0.0
 10
16.4775098028
 20
17.9157913288
 30
0.0
  0
SPLINE
  5
360
100
AcDbEntity
  8
0
100
AcDbSpline
 62
7
  6
CONTINUOUS
 70
0
 71
3
 72
11
 73
7
 74
0
 42
0.0000001
 43
0.0000001
 44
0.0000000001
 40
0.0
 40
0.0
 40
0.0
 40
0.0
 40
0.2897033281
 40
0.5490895198
 40
0.7822165953
 40
1.0
 40
1.0
 40
1.0
 40
1.0
 10
16.736402876
 20
14.3483510992
 30
0.0
 10
16.736402876
 20
14.2850159188
 30
0.0
 10
16.7268003308
 20
14.1645658287
 30
0.0
 10
16.6780194894
 20
13.9990737171
 30
0.0
 10
16.5958887533
 20
13.8647862273
 30
0.0
 10
16.518743063
 20
13.7999299474
 30
0.0
 10
16.4775098028
 20
13.7761240739
 30
0.0
  0
SPLINE
  5
361
100
AcDbEntity
  8
0
100
AcDbSpline
 62
7
  6
CONTINUOUS
 70
0
 71
3
 72
15
 73
11
 74
0
 42
0.0000001
 43
0.0000001
 44
0.0000000001
 40
0.0
 40
0.0
 40
0.0
 40
0.0
 40
0.1141232787
 40
0.2373467935
 40
0.3669716251
 40
0.4999988493
 40
0.6330262331
 40
0.7626515288
 40
0.885875802
 40
1.0
 40
1.0
 40
1.0
 40
1.0
 10
15.8525157195
 20
15.8792800638
 30
0.0
 10
15.9130079779
 20
15.8443556323
 30
0.0
 10
16.0325178418
 20
15.7605483992
 30
0.0
 10
16.1969912513
 20
15.6067276921
 30
0.0
 10
16.3485284797
 20
15.4248288595
 30
0.0
 10
16.4814819714
 20
15.2217962406
 30
0.0
 10
16.5908378115
 20
15.0051391094
 30
0.0
 10
16.6725996907
 20
14.7829542532
 30
0.0
 10
16.7235773103
 20
14.5636048038
 30
0.0
 10
16.736402876
 20
14.4182017101
 30
0.0
 10
16.736402876
 20
14.3483510992
 30
0.0
  0
SPLINE
  5
362
100
AcDbEntity
  8
0
100
AcDbSpline
 62
7
  6
CONTINUOUS
 70
0
 71
3
 72
11
 73
7
 74
0
 42
0.0000001
 43
0.0000001
 44
0.0000000001
 40
0.0
 40
0.0
 40
0.0
 40
0.0
 40
0.2897033281
 40
0.5490895198
 40
0.7822165953
 40
1.0
 40
1.0
 40
1.0
 40
1.0
 10
16.736402876
 20
22.627685609
 30
0.0
 10
16.736402876
 20
22.5643504285
 30
0.0
 10
16.7268003308
 20
22.4439003384
 30
0.0
 10
16.6780194894
 20
22.2784082268
 30
0.0
 10
16.5958887533
 20
22.144120737
 30
0.0
 10
16.518743063
 20
22.0792644572
 30
0.0
 10
16.4775098028
 20
22.0554585836
 30
0.0
  0
SPLINE
  5
363
100
AcDbEntity
  8
0
100
AcDbSpline
 62
7
  6
CONTINUOUS
 70
0
 71
3
 72
11
 73
7
 74
0
 42
0.0000001
 43
0.0000001
 44
0.0000000001
 40
0.0
 40
0.0
 40
0.0
 40
0.0
 40
0.2897033281
 40
0.5490895198
 40
0.7822165953
 40
1.0
 40
1.0
 40
1.0
 40
1.0
 10
16.736402876
 20
26.7673528638
 30
0.0
 10
16.736402876
 20
26.7040176833
 30
0.0
 10
16.7268003308
 20
26.5835675933
 30
0.0
 10
16.6780194894
 20
26.4180754817
 30
0.0
 10
16.5958887533
 20
26.2837879919
 30
0.0
 10
16.518743063
 20
26.218931712
 30
0.0
 10
16.4775098028
 20
26.1951258385
 30
0.0
  0
SPLINE
  5
364
100
AcDbEntity
  8
0
100
AcDbSpline
 62
7
  6
CONTINUOUS
 70
0
 71
3
 72
11
 73
7
 74
0
 42
0.0000001
 43
0.0000001
 44
0.0000000001
 40
0.0
 40
0.0
 40
0.0
 40
0.0
 40
0.2897033281
 40
0.5490895198
 40
0.7822165953
 40
1.0
 40
1.0
 40
1.0
 40
1.0
 10
16.736402876
 20
30.9070201187
 30
0.0
 10
16.736402876
 20
30.8436849382
 30
0.0
 10
16.7268003308
 20
30.7232348481
 30
0.0
 10
16.6780194894
 20
30.5577427365
 30
0.0
 10
16.5958887533
 20
30.4234552467
 30
0.0
 10
16.518743063
 20
30.3585989669
 30
0.0
 10
16.4775098028
 20
30.3347930933
 30
0.0
  0
SPLINE
  5
365
100
AcDbEntity
  8
0
100
AcDbSpline
 62
7
  6
CONTINUOUS
 70
0
 71
3
 72
11
 73
7
 74
0
 42
0.0000001
 43
0.0000001
 44
0.0000000001
 40
0.0
 40
0.0
 40
0.0
 40
0.0
 40
0.2897033281
 40
0.5490895198
 40
0.7822165953
 40
1.0
 40
1.0
 40
1.0
 40
1.0
 10
16.736402876
 20
35.0466873735
 30
0.0
 10
16.736402876
 20
34.983352193
 30
0.0
 10
16.7268003308
 20
34.862902103
 30
0.0
 10
16.6780194894
 20
34.6974099914
 30
0.0
 10
16.5958887533
 20
34.5631225016
 30
0.0
 10
16.518743063
 20
34.4982662217
 30
0.0
 10
16.4775098028
 20
34.4744603482
 30
0.0
  0
SPLINE
  5
366
100
AcDbEntity
  8
0
100
AcDbSpline
 62
7
  6
CONTINUOUS
 70
0
 71
3
 72
11
 73
7
 74
0
 42
0.0000001
 43
0.0000001
 44
0.0000000001
 40
0.0
 40
0.0
 40
0.0
 40
0.0
 40
0.2897033281
 40
0.5490895198
 40
0.7822165953
 40
1.0
 40
1.0
 40
1.0
 40
1.0
 10
16.736402876
 20
39.1863546283
 30
0.0
 10
16.736402876
 20
39.1230194479
 30
0.0
 10
16.7268003308
 20
39.0025693578
 30
0.0
 10
16.6780194894
 20
38.8370772462
 30
0.0
 10
16.5958887533
 20
38.7027897564
 30
0.0
 10
16.518743063
 20
38.6379334765
 30
0.0
 10
16.4775098028
 20
38.614127603
 30
0.0
  0
SPLINE
  5
367
100
AcDbEntity
  8
0
100
AcDbSpline
 62
7
  6
CONTINUOUS
 70
0
 71
3
 72
11
 73
7
 74
0
 42
0.0000001
 43
0.0000001
 44
0.0000000001
 40
0.0
 40
0.0
 40
0.0
 40
0.0
 40
0.2897033281
 40
0.5490895198
 40
0.7822165953
 40
1.0
 40
1.0
 40
1.0
 40
1.0
 10
16.736402876
 20
43.3260218832
 30
0.0
 10
16.736402876
 20
43.2626867027
 30
0.0
 10
16.7268003308
 20
43.1422366127
 30
0.0
 10
16.6780194894
 20
42.976744501
 30
0.0
 10
16.5958887533
 20
42.8424570113
 30
0.0
 10
16.518743063
 20
42.7776007314
 30
0.0
 10
16.4775098028
 20
42.7537948579
 30
0.0
  0
SPLINE
  5
368
100
AcDbEntity
  8
0
100
AcDbSpline
 62
7
  6
CONTINUOUS
 70
0
 71
3
 72
11
 73
7
 74
0
 42
0.0000001
 43
0.0000001
 44
0.0000000001
 40
0.0
 40
0.0
 40
0.0
 40
0.0
 40
0.2897033281
 40
0.5490895198
 40
0.7822165953
 40
1.0
 40
1.0
 40
1.0
 40
1.0
 10
16.736402876
 20
47.465689138
 30
0.0
 10
16.736402876
 20
47.4023539576
 30
0.0
 10
16.7268003308
 20
47.2819038675
 30
0.0
 10
16.6780194894
 20
47.1164117559
 30
0.0
 10
16.5958887533
 20
46.9821242661
 30
0.0
 10
16.518743063
 20
46.9172679862
 30
0.0
 10
16.4775098028
 20
46.8934621127
 30
0.0
  0
SPLINE
  5
369
100
AcDbEntity
  8
0
100
AcDbSpline
 62
7
  6
CONTINUOUS
 70
0
 71
3
 72
11
 73
7
 74
0
 42
0.0000001
 43
0.0000001
 44
0.0000000001
 40
0.0
 40
0.0
 40
0.0
 40
0.0
 40
0.2897033281
 40
0.5490895198
 40
0.7822165953
 40
1.0
 40
1.0
 40
1.0
 40
1.0
 10
16.736402876
 20
51.6053563929
 30
0.0
 10
16.736402876
 20
51.5420212124
 30
0.0
 10
16.7268003308
 20
51.4215711224
 30
0.0
 10
16.6780194894
 20
51.2560790107
 30
0.0
 10
16.5958887533
 20
51.121791521
 30
0.0
 10
16.518743063
 20
51.0569352411
 30
0.0
 10
16.4775098028
 20
51.0331293676
 30
0.0
  0
SPLINE
  5
36A
100
AcDbEntity
  8
0
100
AcDbSpline
 62
7
  6
CONTINUOUS
 70
0
 71
3
 72
11
 73
7
 74
0
 42
0.0000001
 43
0.0000001
 44
0.0000000001
 40
0.0
 40
0.0
 40
0.0
 40
0.0
 40
0.2897033281
 40
0.5490895198
 40
0.7822165953
 40
1.0
 40
1.0
 40
1.0
 40
1.0
 10
16.736402876
 20
55.7450236477
 30
0.0
 10
16.736402876
 20
55.6816884672
 30
0.0
 10
16.7268003308
 20
55.5612383772
 30
0.0
 10
16.6780194894
 20
55.3957462656
 30
0.0
 10
16.5958887533
 20
55.2614587758
 30
0.0
 10
16.518743063
 20
55.1966024959
 30
0.0
 10
16.4775098028
 20
55.1727966224
 30
0.0
  0
SPLINE
  5
36B
100
AcDbEntity
  8
0
100
AcDbSpline
 62
7
  6
CONTINUOUS
 70
0
 71
3
 72
17
 73
13
 74
0
 42
0.0000001
 43
0.0000001
 44
0.0000000001
 40
0.0
 40
0.0
 40
0.0
 40
0.0
 40
0.0428592926
 40
0.087485474
 40
0.1353198781
 40
0.1872819044
 40
0.3045421965
 40
0.4382074305
 40
0.582548911
 40
0.7297129633
 40
0.8713059682
 40
1.0
 40
1.0
 40
1.0
 40
1.0
 10
15.2275206499
 20
53.1981870176
 30
0.0
 10
15.2583358933
 20
53.2159812052
 30
0.0
 10
15.3262736092
 20
53.244191346
 30
0.0
 10
15.4383987759
 20
53.2606491424
 30
0.0
 10
15.558817742
 20
53.2517769633
 30
0.0
 10
15.7337836712
 20
53.2052417887
 30
0.0
 10
15.9574504669
 20
53.0829394255
 30
0.0
 10
16.2045667371
 20
52.8640923732
 30
0.0
 10
16.4230168196
 20
52.5844968556
 30
0.0
 10
16.5949343438
 20
52.266733355
 30
0.0
 10
16.7065140038
 20
51.9368668515
 30
0.0
 10
16.736402876
 20
51.7122044618
 30
0.0
 10
16.736402876
 20
51.6053563929
 30
0.0
  0
SPLINE
  5
36C
100
AcDbEntity
  8
0
100
AcDbSpline
 62
7
  6
CONTINUOUS
 70
0
 71
3
 72
17
 73
13
 74
0
 42
0.0000001
 43
0.0000001
 44
0.0000000001
 40
0.0
 40
0.0
 40
0.0
 40
0.0
 40
0.0428592926
 40
0.087485474
 40
0.1353198781
 40
0.1872819044
 40
0.3045421965
 40
0.4382074305
 40
0.582548911
 40
0.7297129633
 40
0.8713059682
 40
1.0
 40
1.0
 40
1.0
 40
1.0
 10
15.2275206499
 20
49.0585197628
 30
0.0
 10
15.2583358933
 20
49.0763139504
 30
0.0
 10
15.3262736092
 20
49.1045240911
 30
0.0
 10
15.4383987759
 20
49.1209818876
 30
0.0
 10
15.558817742
 20
49.1121097084
 30
0.0
 10
15.7337836712
 20
49.0655745339
 30
0.0
 10
15.9574504669
 20
48.9432721707
 30
0.0
 10
16.2045667371
 20
48.7244251183
 30
0.0
 10
16.4230168196
 20
48.4448296008
 30
0.0
 10
16.5949343438
 20
48.1270661001
 30
0.0
 10
16.7065140038
 20
47.7971995967
 30
0.0
 10
16.736402876
 20
47.572537207
 30
0.0
 10
16.736402876
 20
47.465689138
 30
0.0
  0
SPLINE
  5
36D
100
AcDbEntity
  8
0
100
AcDbSpline
 62
7
  6
CONTINUOUS
 70
0
 71
3
 72
17
 73
13
 74
0
 42
0.0000001
 43
0.0000001
 44
0.0000000001
 40
0.0
 40
0.0
 40
0.0
 40
0.0
 40
0.0428592926
 40
0.087485474
 40
0.1353198781
 40
0.1872819044
 40
0.3045421965
 40
0.4382074305
 40
0.582548911
 40
0.7297129633
 40
0.8713059682
 40
1.0
 40
1.0
 40
1.0
 40
1.0
 10
15.2275206499
 20
44.9188525079
 30
0.0
 10
15.2583358933
 20
44.9366466955
 30
0.0
 10
15.3262736092
 20
44.9648568363
 30
0.0
 10
15.4383987759
 20
44.9813146327
 30
0.0
 10
15.558817742
 20
44.9724424536
 30
0.0
 10
15.7337836712
 20
44.9259072791
 30
0.0
 10
15.9574504669
 20
44.8036049158
 30
0.0
 10
16.2045667371
 20
44.5847578635
 30
0.0
 10
16.4230168196
 20
44.3051623459
 30
0.0
 10
16.5949343438
 20
43.9873988453
 30
0.0
 10
16.7065140038
 20
43.6575323418
 30
0.0
 10
16.736402876
 20
43.4328699521
 30
0.0
 10
16.736402876
 20
43.3260218832
 30
0.0
  0
SPLINE
  5
36E
100
AcDbEntity
  8
0
100
AcDbSpline
 62
7
  6
CONTINUOUS
 70
0
 71
3
 72
11
 73
7
 74
0
 42
0.0000001
 43
0.0000001
 44
0.0000000001
 40
0.0
 40
0.0
 40
0.0
 40
0.0
 40
0.290126101
 40
0.54930816
 40
0.782419862
 40
1.0
 40
1.0
 40
1.0
 40
1.0
 10
12.4629119322
 20
63.7976054387
 30
0.0
 10
12.4540546623
 20
63.7927120485
 30
0.0
 10
12.4381306488
 20
63.7817529707
 30
0.0
 10
12.4194176963
 20
63.7615778123
 30
0.0
 10
12.4074038039
 20
63.7395654645
 30
0.0
 10
12.4045797333
 20
63.7237377248
 30
0.0
 10
12.4045806961
 20
63.7161488918
 30
0.0
  0
SPLINE
  5
36F
100
AcDbEntity
  8
0
100
AcDbSpline
 62
7
  6
CONTINUOUS
 70
0
 71
3
 72
17
 73
13
 74
0
 42
0.0000001
 43
0.0000001
 44
0.0000000001
 40
0.0
 40
0.0
 40
0.0
 40
0.0
 40
0.0428592926
 40
0.087485474
 40
0.1353198781
 40
0.1872819044
 40
0.3045421965
 40
0.4382074305
 40
0.582548911
 40
0.7297129633
 40
0.8713059682
 40
1.0
 40
1.0
 40
1.0
 40
1.0
 10
15.2275206499
 20
40.7791852531
 30
0.0
 10
15.2583358933
 20
40.7969794407
 30
0.0
 10
15.3262736092
 20
40.8251895814
 30
0.0
 10
15.4383987759
 20
40.8416473779
 30
0.0
 10
15.558817742
 20
40.8327751987
 30
0.0
 10
15.7337836712
 20
40.7862400242
 30
0.0
 10
15.9574504669
 20
40.663937661
 30
0.0
 10
16.2045667371
 20
40.4450906086
 30
0.0
 10
16.4230168196
 20
40.1654950911
 30
0.0
 10
16.5949343438
 20
39.8477315904
 30
0.0
 10
16.7065140038
 20
39.517865087
 30
0.0
 10
16.736402876
 20
39.2932026973
 30
0.0
 10
16.736402876
 20
39.1863546283
 30
0.0
  0
SPLINE
  5
370
100
AcDbEntity
  8
0
100
AcDbSpline
 62
7
  6
CONTINUOUS
 70
0
 71
3
 72
11
 73
7
 74
0
 42
0.0000001
 43
0.0000001
 44
0.0000000001
 40
0.0
 40
0.0
 40
0.0
 40
0.0
 40
0.289665569
 40
0.5491312262
 40
0.7822472479
 40
1.0
 40
1.0
 40
1.0
 40
1.0
 10
14.5371517646
 20
13.3696655648
 30
0.0
 10
14.5152121172
 20
13.3823321396
 30
0.0
 10
14.4754028157
 20
13.4097580463
 30
0.0
 10
14.4278228812
 20
13.4597591022
 30
0.0
 10
14.397714867
 20
13.5150733962
 30
0.0
 10
14.3906888782
 20
13.554770869
 30
0.0
 10
14.3906853641
 20
13.5738150949
 30
0.0
  0
SPLINE
  5
371
100
AcDbEntity
  8
0
100
AcDbSpline
 62
7
  6
CONTINUOUS
 70
0
 71
3
 72
11
 73
7
 74
0
 42
0.0000001
 43
0.0000001
 44
0.0000000001
 40
0.0
 40
0.0
 40
0.0
 40
0.0
 40
0.2372306084
 40
0.4999733153
 40
0.7627306733
 40
1.0
 40
1.0
 40
1.0
 40
1.0
 10
20.2991182546
 20
10.2064317964
 30
0.0
 10
20.279033409
 20
10.1948454739
 30
0.0
 10
20.2323432528
 20
10.1779170295
 30
0.0
 10
20.1576782926
 20
10.1698096463
 30
0.0
 10
20.0830111196
 20
10.1779031493
 30
0.0
 10
20.0363052248
 20
10.1948092599
 30
0.0
 10
20.0162170177
 20
10.2063973287
 30
0.0
  0
SPLINE
  5
372
100
AcDbEntity
  8
0
100
AcDbSpline
 62
7
  6
CONTINUOUS
 70
0
 71
3
 72
17
 73
13
 74
0
 42
0.0000001
 43
0.0000001
 44
0.0000000001
 40
0.0
 40
0.0
 40
0.0
 40
0.0
 40
0.0428592926
 40
0.087485474
 40
0.1353198781
 40
0.1872819044
 40
0.3045421965
 40
0.4382074305
 40
0.582548911
 40
0.7297129633
 40
0.8713059682
 40
1.0
 40
1.0
 40
1.0
 40
1.0
 10
15.2275206499
 20
36.6395179982
 30
0.0
 10
15.2583358933
 20
36.6573121858
 30
0.0
 10
15.3262736092
 20
36.6855223266
 30
0.0
 10
15.4383987759
 20
36.701980123
 30
0.0
 10
15.558817742
 20
36.6931079439
 30
0.0
 10
15.7337836712
 20
36.6465727694
 30
0.0
 10
15.9574504669
 20
36.5242704061
 30
0.0
 10
16.2045667371
 20
36.3054233538
 30
0.0
 10
16.4230168196
 20
36.0258278362
 30
0.0
 10
16.5949343438
 20
35.7080643356
 30
0.0
 10
16.7065140038
 20
35.3781978321
 30
0.0
 10
16.736402876
 20
35.1535354424
 30
0.0
 10
16.736402876
 20
35.0466873735
 30
0.0
  0
SPLINE
  5
373
100
AcDbEntity
  8
0
100
AcDbSpline
 62
7
  6
CONTINUOUS
 70
0
 71
3
 72
17
 73
13
 74
0
 42
0.0000001
 43
0.0000001
 44
0.0000000001
 40
0.0
 40
0.0
 40
0.0
 40
0.0
 40
0.0428592926
 40
0.087485474
 40
0.1353198781
 40
0.1872819044
 40
0.3045421965
 40
0.4382074305
 40
0.582548911
 40
0.7297129633
 40
0.8713059682
 40
1.0
 40
1.0
 40
1.0
 40
1.0
 10
15.2275206499
 20
32.4998507434
 30
0.0
 10
15.2583358933
 20
32.517644931
 30
0.0
 10
15.3262736092
 20
32.5458550717
 30
0.0
 10
15.4383987759
 20
32.5623128682
 30
0.0
 10
15.558817742
 20
32.553440689
 30
0.0
 10
15.7337836712
 20
32.5069055145
 30
0.0
 10
15.9574504669
 20
32.3846031513
 30
0.0
 10
16.2045667371
 20
32.1657560989
 30
0.0
 10
16.4230168196
 20
31.8861605814
 30
0.0
 10
16.5949343438
 20
31.5683970807
 30
0.0
 10
16.7065140038
 20
31.2385305773
 30
0.0
 10
16.736402876
 20
31.0138681876
 30
0.0
 10
16.736402876
 20
30.9070201187
 30
0.0
  0
SPLINE
  5
374
100
AcDbEntity
  8
0
100
AcDbSpline
 62
7
  6
CONTINUOUS
 70
0
 71
3
 72
17
 73
13
 74
0
 42
0.0000001
 43
0.0000001
 44
0.0000000001
 40
0.0
 40
0.0
 40
0.0
 40
0.0
 40
0.0428592926
 40
0.087485474
 40
0.1353198781
 40
0.1872819044
 40
0.3045421965
 40
0.4382074305
 40
0.582548911
 40
0.7297129633
 40
0.8713059682
 40
1.0
 40
1.0
 40
1.0
 40
1.0
 10
15.2275206499
 20
28.3601834885
 30
0.0
 10
15.2583358933
 20
28.3779776761
 30
0.0
 10
15.3262736092
 20
28.4061878169
 30
0.0
 10
15.4383987759
 20
28.4226456133
 30
0.0
 10
15.558817742
 20
28.4137734342
 30
0.0
 10
15.7337836712
 20
28.3672382597
 30
0.0
 10
15.9574504669
 20
28.2449358964
 30
0.0
 10
16.2045667371
 20
28.0260888441
 30
0.0
 10
16.4230168196
 20
27.7464933265
 30
0.0
 10
16.5949343438
 20
27.4287298259
 30
0.0
 10
16.7065140038
 20
27.0988633224
 30
0.0
 10
16.736402876
 20
26.8742009327
 30
0.0
 10
16.736402876
 20
26.7673528638
 30
0.0
  0
SPLINE
  5
375
100
AcDbEntity
  8
0
100
AcDbSpline
 62
7
  6
CONTINUOUS
 70
0
 71
3
 72
17
 73
13
 74
0
 42
0.0000001
 43
0.0000001
 44
0.0000000001
 40
0.0
 40
0.0
 40
0.0
 40
0.0
 40
0.0428592926
 40
0.087485474
 40
0.1353198781
 40
0.1872819044
 40
0.3045421965
 40
0.4382074305
 40
0.582548911
 40
0.7297129633
 40
0.8713059682
 40
1.0
 40
1.0
 40
1.0
 40
1.0
 10
15.2275206499
 20
24.2205162337
 30
0.0
 10
15.2583358933
 20
24.2383104213
 30
0.0
 10
15.3262736092
 20
24.266520562
 30
0.0
 10
15.4383987759
 20
24.2829783585
 30
0.0
 10
15.558817742
 20
24.2741061793
 30
0.0
 10
15.7337836712
 20
24.2275710048
 30
0.0
 10
15.9574504669
 20
24.1052686416
 30
0.0
 10
16.2045667371
 20
23.8864215892
 30
0.0
 10
16.4230168196
 20
23.6068260717
 30
0.0
 10
16.5949343438
 20
23.289062571
 30
0.0
 10
16.7065140038
 20
22.9591960676
 30
0.0
 10
16.736402876
 20
22.7345336779
 30
0.0
 10
16.736402876
 20
22.627685609
 30
0.0
  0
SPLINE
  5
376
100
AcDbEntity
  8
0
100
AcDbSpline
 62
7
  6
CONTINUOUS
 70
0
 71
3
 72
11
 73
7
 74
0
 42
0.0000001
 43
0.0000001
 44
0.0000000001
 40
0.0
 40
0.0
 40
0.0
 40
0.0
 40
0.2177843137
 40
0.4509117637
 40
0.7102976701
 40
1.0
 40
1.0
 40
1.0
 40
1.0
 10
15.2275216362
 20
15.9411800109
 30
0.0
 10
15.2687539661
 20
15.9649853473
 30
0.0
 10
15.3634916543
 20
15.9993664303
 30
0.0
 10
15.52084934
 20
16.0033506965
 30
0.0
 10
15.6885557544
 20
15.9628525872
 30
0.0
 10
15.7976671894
 20
15.910946161
 30
0.0
 10
15.8525157195
 20
15.8792800638
 30
0.0
  0
SPLINE
  5
377
100
AcDbEntity
  8
0
100
AcDbSpline
 62
7
  6
CONTINUOUS
 70
0
 71
3
 72
17
 73
13
 74
0
 42
0.0000001
 43
0.0000001
 44
0.0000000001
 40
0.0
 40
0.0
 40
0.0
 40
0.0
 40
0.0428592926
 40
0.087485474
 40
0.1353198781
 40
0.1872819044
 40
0.3045421965
 40
0.4382074305
 40
0.582548911
 40
0.7297129633
 40
0.8713059682
 40
1.0
 40
1.0
 40
1.0
 40
1.0
 10
15.2275206499
 20
20.0808489788
 30
0.0
 10
15.2583358933
 20
20.0986431664
 30
0.0
 10
15.3262736092
 20
20.1268533072
 30
0.0
 10
15.4383987759
 20
20.1433111036
 30
0.0
 10
15.558817742
 20
20.1344389245
 30
0.0
 10
15.7337836712
 20
20.08790375
 30
0.0
 10
15.9574504669
 20
19.9656013868
 30
0.0
 10
16.2045667371
 20
19.7467543344
 30
0.0
 10
16.4230168196
 20
19.4671588169
 30
0.0
 10
16.5949343438
 20
19.1493953162
 30
0.0
 10
16.7065140038
 20
18.8195288127
 30
0.0
 10
16.736402876
 20
18.594866423
 30
0.0
 10
16.736402876
 20
18.4880183541
 30
0.0
  0
SPLINE
  5
378
100
AcDbEntity
  8
0
100
AcDbSpline
 62
7
  6
CONTINUOUS
 70
0
 71
3
 72
17
 73
13
 74
0
 42
0.0000001
 43
0.0000001
 44
0.0000000001
 40
0.0
 40
0.0
 40
0.0
 40
0.0
 40
0.0428592926
 40
0.087485474
 40
0.1353198781
 40
0.1872819044
 40
0.3045421965
 40
0.4382074305
 40
0.582548911
 40
0.7297129633
 40
0.8713059682
 40
1.0
 40
1.0
 40
1.0
 40
1.0
 10
15.2275206499
 20
57.3378542725
 30
0.0
 10
15.2583358933
 20
57.3556484601
 30
0.0
 10
15.3262736092
 20
57.3838586008
 30
0.0
 10
15.4383987759
 20
57.4003163973
 30
0.0
 10
15.558817742
 20
57.3914442181
 30
0.0
 10
15.7337836712
 20
57.3449090436
 30
0.0
 10
15.9574504669
 20
57.2226066804
 30
0.0
 10
16.2045667371
 20
57.003759628
 30
0.0
 10
16.4230168196
 20
56.7241641105
 30
0.0
 10
16.5949343438
 20
56.4064006098
 30
0.0
 10
16.7065140038
 20
56.0765341064
 30
0.0
 10
16.736402876
 20
55.8518717167
 30
0.0
 10
16.736402876
 20
55.7450236477
 30
0.0
  0
SPLINE
  5
379
100
AcDbEntity
  8
0
100
AcDbSpline
 62
7
  6
CONTINUOUS
 70
0
 71
3
 72
11
 73
7
 74
0
 42
0.0000001
 43
0.0000001
 44
0.0000000001
 40
0.0
 40
0.0
 40
0.0
 40
0.0
 40
0.2177843137
 40
0.4509117637
 40
0.7102976701
 40
1.0
 40
1.0
 40
1.0
 40
1.0
 10
16.4775098028
 20
46.8934621127
 30
0.0
 10
16.4362774729
 20
46.8696567763
 30
0.0
 10
16.3415397848
 20
46.8352756933
 30
0.0
 10
16.1841820991
 20
46.8312914271
 30
0.0
 10
16.0164756846
 20
46.8717895364
 30
0.0
 10
15.9073642496
 20
46.9236959626
 30
0.0
 10
15.8525157195
 20
46.9553620598
 30
0.0
  0
SPLINE
  5
37A
100
AcDbEntity
  8
0
100
AcDbSpline
 62
7
  6
CONTINUOUS
 70
0
 71
3
 72
11
 73
7
 74
0
 42
0.0000001
 43
0.0000001
 44
0.0000000001
 40
0.0
 40
0.0
 40
0.0
 40
0.0
 40
0.2897016594
 40
0.5490895814
 40
0.7822189142
 40
1.0
 40
1.0
 40
1.0
 40
1.0
 10
14.9686285631
 20
23.6482874953
 30
0.0
 10
14.9686285631
 20
23.7116224527
 30
0.0
 10
14.9782310067
 20
23.8320727368
 30
0.0
 10
15.0270093749
 20
23.9975663352
 30
0.0
 10
15.1091419308
 20
24.131854915
 30
0.0
 10
15.1862895434
 20
24.1967074311
 30
0.0
 10
15.2275206499
 20
24.2205162337
 30
0.0
  0
SPLINE
  5
37B
100
AcDbEntity
  8
0
100
AcDbSpline
 62
7
  6
CONTINUOUS
 70
0
 71
3
 72
15
 73
11
 74
0
 42
0.0000001
 43
0.0000001
 44
0.0000000001
 40
0.0
 40
0.0
 40
0.0
 40
0.0
 40
0.1141232787
 40
0.2373467935
 40
0.3669716251
 40
0.4999988493
 40
0.6330262331
 40
0.7626515288
 40
0.885875802
 40
1.0
 40
1.0
 40
1.0
 40
1.0
 10
15.8525157195
 20
22.1173585307
 30
0.0
 10
15.7920234612
 20
22.1522829623
 30
0.0
 10
15.6725135973
 20
22.2360901953
 30
0.0
 10
15.5080401878
 20
22.3899109024
 30
0.0
 10
15.3565029594
 20
22.571809735
 30
0.0
 10
15.2235494677
 20
22.7748423539
 30
0.0
 10
15.1141936276
 20
22.9914994851
 30
0.0
 10
15.0324317483
 20
23.2136843413
 30
0.0
 10
14.9814541288
 20
23.4330337907
 30
0.0
 10
14.9686285631
 20
23.5784368844
 30
0.0
 10
14.9686285631
 20
23.6482874953
 30
0.0
  0
SPLINE
  5
37C
100
AcDbEntity
  8
0
100
AcDbSpline
 62
7
  6
CONTINUOUS
 70
0
 71
3
 72
11
 73
7
 74
0
 42
0.0000001
 43
0.0000001
 44
0.0000000001
 40
0.0
 40
0.0
 40
0.0
 40
0.0
 40
0.2897016594
 40
0.5490895814
 40
0.7822189142
 40
1.0
 40
1.0
 40
1.0
 40
1.0
 10
14.9686285631
 20
27.7879547501
 30
0.0
 10
14.9686285631
 20
27.8512897075
 30
0.0
 10
14.9782310067
 20
27.9717399917
 30
0.0
 10
15.0270093749
 20
28.13723359
 30
0.0
 10
15.1091419308
 20
28.2715221698
 30
0.0
 10
15.1862895434
 20
28.3363746859
 30
0.0
 10
15.2275206499
 20
28.3601834885
 30
0.0
  0
SPLINE
  5
37D
100
AcDbEntity
  8
0
100
AcDbSpline
 62
7
  6
CONTINUOUS
 70
0
 71
3
 72
11
 73
7
 74
0
 42
0.0000001
 43
0.0000001
 44
0.0000000001
 40
0.0
 40
0.0
 40
0.0
 40
0.0
 40
0.2372693267
 40
0.5000266847
 40
0.7627693916
 40
1.0
 40
1.0
 40
1.0
 40
1.0
 10
20.0162170177
 20
55.930532688
 30
0.0
 10
20.0363052248
 20
55.9189446192
 30
0.0
 10
20.0830111196
 20
55.9020385085
 30
0.0
 10
20.1576782926
 20
55.8939450056
 30
0.0
 10
20.2323432528
 20
55.9020523888
 30
0.0
 10
20.279033409
 20
55.9189808332
 30
0.0
 10
20.2991182546
 20
55.9305671556
 30
0.0
  0
SPLINE
  5
37E
100
AcDbEntity
  8
0
100
AcDbSpline
 62
7
  6
CONTINUOUS
 70
0
 71
3
 72
15
 73
11
 74
0
 42
0.0000001
 43
0.0000001
 44
0.0000000001
 40
0.0
 40
0.0
 40
0.0
 40
0.0
 40
0.1141232787
 40
0.2373467935
 40
0.3669716251
 40
0.4999988493
 40
0.6330262331
 40
0.7626515288
 40
0.885875802
 40
1.0
 40
1.0
 40
1.0
 40
1.0
 10
15.8525157195
 20
26.2570257855
 30
0.0
 10
15.7920234612
 20
26.2919502171
 30
0.0
 10
15.6725135973
 20
26.3757574502
 30
0.0
 10
15.5080401878
 20
26.5295781573
 30
0.0
 10
15.3565029594
 20
26.7114769899
 30
0.0
 10
15.2235494677
 20
26.9145096088
 30
0.0
 10
15.1141936276
 20
27.13116674
 30
0.0
 10
15.0324317483
 20
27.3533515962
 30
0.0
 10
14.9814541288
 20
27.5727010456
 30
0.0
 10
14.9686285631
 20
27.7181041392
 30
0.0
 10
14.9686285631
 20
27.7879547501
 30
0.0
  0
SPLINE
  5
37F
100
AcDbEntity
  8
0
100
AcDbSpline
 62
7
  6
CONTINUOUS
 70
0
 71
3
 72
11
 73
7
 74
0
 42
0.0000001
 43
0.0000001
 44
0.0000000001
 40
0.0
 40
0.0
 40
0.0
 40
0.0
 40
0.2897016594
 40
0.5490895814
 40
0.7822189142
 40
1.0
 40
1.0
 40
1.0
 40
1.0
 10
14.9686285631
 20
31.927622005
 30
0.0
 10
14.9686285631
 20
31.9909569624
 30
0.0
 10
14.9782310067
 20
32.1114072465
 30
0.0
 10
15.0270093749
 20
32.2769008449
 30
0.0
 10
15.1091419308
 20
32.4111894246
 30
0.0
 10
15.1862895434
 20
32.4760419408
 30
0.0
 10
15.2275206499
 20
32.4998507434
 30
0.0
  0
SPLINE
  5
380
100
AcDbEntity
  8
0
100
AcDbSpline
 62
7
  6
CONTINUOUS
 70
0
 71
3
 72
15
 73
11
 74
0
 42
0.0000001
 43
0.0000001
 44
0.0000000001
 40
0.0
 40
0.0
 40
0.0
 40
0.0
 40
0.1141232787
 40
0.2373467935
 40
0.3669716251
 40
0.4999988493
 40
0.6330262331
 40
0.7626515288
 40
0.885875802
 40
1.0
 40
1.0
 40
1.0
 40
1.0
 10
15.8525157195
 20
30.3966930404
 30
0.0
 10
15.7920234612
 20
30.4316174719
 30
0.0
 10
15.6725135973
 20
30.515424705
 30
0.0
 10
15.5080401878
 20
30.6692454121
 30
0.0
 10
15.3565029594
 20
30.8511442447
 30
0.0
 10
15.2235494677
 20
31.0541768636
 30
0.0
 10
15.1141936276
 20
31.2708339948
 30
0.0
 10
15.0324317483
 20
31.493018851
 30
0.0
 10
14.9814541288
 20
31.7123683004
 30
0.0
 10
14.9686285631
 20
31.857771394
 30
0.0
 10
14.9686285631
 20
31.927622005
 30
0.0
  0
SPLINE
  5
381
100
AcDbEntity
  8
0
100
AcDbSpline
 62
7
  6
CONTINUOUS
 70
0
 71
3
 72
11
 73
7
 74
0
 42
0.0000001
 43
0.0000001
 44
0.0000000001
 40
0.0
 40
0.0
 40
0.0
 40
0.0
 40
0.2897016594
 40
0.5490895814
 40
0.7822189142
 40
1.0
 40
1.0
 40
1.0
 40
1.0
 10
14.9686285631
 20
36.0672892598
 30
0.0
 10
14.9686285631
 20
36.1306242172
 30
0.0
 10
14.9782310067
 20
36.2510745013
 30
0.0
 10
15.0270093749
 20
36.4165680997
 30
0.0
 10
15.1091419308
 20
36.5508566795
 30
0.0
 10
15.1862895434
 20
36.6157091956
 30
0.0
 10
15.2275206499
 20
36.6395179982
 30
0.0
  0
SPLINE
  5
382
100
AcDbEntity
  8
0
100
AcDbSpline
 62
7
  6
CONTINUOUS
 70
0
 71
3
 72
11
 73
7
 74
0
 42
0.0000001
 43
0.0000001
 44
0.0000000001
 40
0.0
 40
0.0
 40
0.0
 40
0.0
 40
0.2177843137
 40
0.4509117637
 40
0.7102976701
 40
1.0
 40
1.0
 40
1.0
 40
1.0
 10
16.4775098028
 20
42.7537948579
 30
0.0
 10
16.4362774729
 20
42.7299895214
 30
0.0
 10
16.3415397848
 20
42.6956084385
 30
0.0
 10
16.1841820991
 20
42.6916241722
 30
0.0
 10
16.0164756846
 20
42.7321222816
 30
0.0
 10
15.9073642496
 20
42.7840287077
 30
0.0
 10
15.8525157195
 20
42.8156948049
 30
0.0
  0
SPLINE
  5
383
100
AcDbEntity
  8
0
100
AcDbSpline
 62
7
  6
CONTINUOUS
 70
0
 71
3
 72
15
 73
11
 74
0
 42
0.0000001
 43
0.0000001
 44
0.0000000001
 40
0.0
 40
0.0
 40
0.0
 40
0.0
 40
0.1141232787
 40
0.2373467935
 40
0.3669716251
 40
0.4999988493
 40
0.6330262331
 40
0.7626515288
 40
0.885875802
 40
1.0
 40
1.0
 40
1.0
 40
1.0
 10
15.8525157195
 20
34.5363602952
 30
0.0
 10
15.7920234612
 20
34.5712847268
 30
0.0
 10
15.6725135973
 20
34.6550919599
 30
0.0
 10
15.5080401878
 20
34.808912667
 30
0.0
 10
15.3565029594
 20
34.9908114996
 30
0.0
 10
15.2235494677
 20
35.1938441185
 30
0.0
 10
15.1141936276
 20
35.4105012497
 30
0.0
 10
15.0324317483
 20
35.6326861058
 30
0.0
 10
14.9814541288
 20
35.8520355553
 30
0.0
 10
14.9686285631
 20
35.9974386489
 30
0.0
 10
14.9686285631
 20
36.0672892598
 30
0.0
  0
SPLINE
  5
384
100
AcDbEntity
  8
0
100
AcDbSpline
 62
7
  6
CONTINUOUS
 70
0
 71
3
 72
11
 73
7
 74
0
 42
0.0000001
 43
0.0000001
 44
0.0000000001
 40
0.0
 40
0.0
 40
0.0
 40
0.0
 40
0.2897016594
 40
0.5490895814
 40
0.7822189142
 40
1.0
 40
1.0
 40
1.0
 40
1.0
 10
14.9686285631
 20
40.2069565146
 30
0.0
 10
14.9686285631
 20
40.2702914721
 30
0.0
 10
14.9782310067
 20
40.3907417562
 30
0.0
 10
15.0270093749
 20
40.5562353546
 30
0.0
 10
15.1091419308
 20
40.6905239343
 30
0.0
 10
15.1862895434
 20
40.7553764504
 30
0.0
 10
15.2275206499
 20
40.7791852531
 30
0.0
  0
SPLINE
  5
385
100
AcDbEntity
  8
0
100
AcDbSpline
 62
7
  6
CONTINUOUS
 70
0
 71
3
 72
15
 73
11
 74
0
 42
0.0000001
 43
0.0000001
 44
0.0000000001
 40
0.0
 40
0.0
 40
0.0
 40
0.0
 40
0.1141232787
 40
0.2373467935
 40
0.3669716251
 40
0.4999988493
 40
0.6330262331
 40
0.7626515288
 40
0.885875802
 40
1.0
 40
1.0
 40
1.0
 40
1.0
 10
15.8525157195
 20
38.6760275501
 30
0.0
 10
15.7920234612
 20
38.7109519816
 30
0.0
 10
15.6725135973
 20
38.7947592147
 30
0.0
 10
15.5080401878
 20
38.9485799218
 30
0.0
 10
15.3565029594
 20
39.1304787544
 30
0.0
 10
15.2235494677
 20
39.3335113733
 30
0.0
 10
15.1141936276
 20
39.5501685045
 30
0.0
 10
15.0324317483
 20
39.7723533607
 30
0.0
 10
14.9814541288
 20
39.9917028101
 30
0.0
 10
14.9686285631
 20
40.1371059037
 30
0.0
 10
14.9686285631
 20
40.2069565146
 30
0.0
  0
SPLINE
  5
386
100
AcDbEntity
  8
0
100
AcDbSpline
 62
7
  6
CONTINUOUS
 70
0
 71
3
 72
11
 73
7
 74
0
 42
0.0000001
 43
0.0000001
 44
0.0000000001
 40
0.0
 40
0.0
 40
0.0
 40
0.0
 40
0.2177843137
 40
0.4509117637
 40
0.7102976701
 40
1.0
 40
1.0
 40
1.0
 40
1.0
 10
16.4775098028
 20
38.614127603
 30
0.0
 10
16.4362774729
 20
38.5903222666
 30
0.0
 10
16.3415397848
 20
38.5559411836
 30
0.0
 10
16.1841820991
 20
38.5519569174
 30
0.0
 10
16.0164756846
 20
38.5924550267
 30
0.0
 10
15.9073642496
 20
38.6443614529
 30
0.0
 10
15.8525157195
 20
38.6760275501
 30
0.0
  0
SPLINE
  5
387
100
AcDbEntity
  8
0
100
AcDbSpline
 62
7
  6
CONTINUOUS
 70
0
 71
3
 72
11
 73
7
 74
0
 42
0.0000001
 43
0.0000001
 44
0.0000000001
 40
0.0
 40
0.0
 40
0.0
 40
0.0
 40
0.2897016594
 40
0.5490895814
 40
0.7822189142
 40
1.0
 40
1.0
 40
1.0
 40
1.0
 10
14.9686285631
 20
19.5086202404
 30
0.0
 10
14.9686285631
 20
19.5719551978
 30
0.0
 10
14.9782310067
 20
19.692405482
 30
0.0
 10
15.0270093749
 20
19.8578990803
 30
0.0
 10
15.1091419308
 20
19.9921876601
 30
0.0
 10
15.1862895434
 20
20.0570401762
 30
0.0
 10
15.2275206499
 20
20.0808489788
 30
0.0
  0
SPLINE
  5
388
100
AcDbEntity
  8
0
100
AcDbSpline
 62
7
  6
CONTINUOUS
 70
0
 71
3
 72
11
 73
7
 74
0
 42
0.0000001
 43
0.0000001
 44
0.0000000001
 40
0.0
 40
0.0
 40
0.0
 40
0.0
 40
0.2897016594
 40
0.5490895814
 40
0.7822189142
 40
1.0
 40
1.0
 40
1.0
 40
1.0
 10
14.9686285631
 20
44.3466237695
 30
0.0
 10
14.9686285631
 20
44.4099587269
 30
0.0
 10
14.9782310067
 20
44.530409011
 30
0.0
 10
15.0270093749
 20
44.6959026094
 30
0.0
 10
15.1091419308
 20
44.8301911892
 30
0.0
 10
15.1862895434
 20
44.8950437053
 30
0.0
 10
15.2275206499
 20
44.9188525079
 30
0.0
  0
SPLINE
  5
389
100
AcDbEntity
  8
0
100
AcDbSpline
 62
7
  6
CONTINUOUS
 70
0
 71
3
 72
15
 73
11
 74
0
 42
0.0000001
 43
0.0000001
 44
0.0000000001
 40
0.0
 40
0.0
 40
0.0
 40
0.0
 40
0.1141232787
 40
0.2373467935
 40
0.3669716251
 40
0.4999988493
 40
0.6330262331
 40
0.7626515288
 40
0.885875802
 40
1.0
 40
1.0
 40
1.0
 40
1.0
 10
15.8525157195
 20
42.8156948049
 30
0.0
 10
15.7920234612
 20
42.8506192365
 30
0.0
 10
15.6725135973
 20
42.9344264696
 30
0.0
 10
15.5080401878
 20
43.0882471767
 30
0.0
 10
15.3565029594
 20
43.2701460093
 30
0.0
 10
15.2235494677
 20
43.4731786282
 30
0.0
 10
15.1141936276
 20
43.6898357594
 30
0.0
 10
15.0324317483
 20
43.9120206155
 30
0.0
 10
14.9814541288
 20
44.131370065
 30
0.0
 10
14.9686285631
 20
44.2767731586
 30
0.0
 10
14.9686285631
 20
44.3466237695
 30
0.0
  0
SPLINE
  5
38A
100
AcDbEntity
  8
0
100
AcDbSpline
 62
7
  6
CONTINUOUS
 70
0
 71
3
 72
15
 73
11
 74
0
 42
0.0000001
 43
0.0000001
 44
0.0000000001
 40
0.0
 40
0.0
 40
0.0
 40
0.0
 40
0.1141232787
 40
0.2373467935
 40
0.3669716251
 40
0.4999988493
 40
0.6330262331
 40
0.7626515288
 40
0.885875802
 40
1.0
 40
1.0
 40
1.0
 40
1.0
 10
15.8525157195
 20
17.9776912759
 30
0.0
 10
15.7920234612
 20
18.0126157074
 30
0.0
 10
15.6725135973
 20
18.0964229405
 30
0.0
 10
15.5080401878
 20
18.2502436476
 30
0.0
 10
15.3565029594
 20
18.4321424802
 30
0.0
 10
15.2235494677
 20
18.6351750991
 30
0.0
 10
15.1141936276
 20
18.8518322303
 30
0.0
 10
15.0324317483
 20
19.0740170865
 30
0.0
 10
14.9814541288
 20
19.2933665359
 30
0.0
 10
14.9686285631
 20
19.4387696295
 30
0.0
 10
14.9686285631
 20
19.5086202404
 30
0.0
  0
SPLINE
  5
38B
100
AcDbEntity
  8
0
100
AcDbSpline
 62
7
  6
CONTINUOUS
 70
0
 71
3
 72
11
 73
7
 74
0
 42
0.0000001
 43
0.0000001
 44
0.0000000001
 40
0.0
 40
0.0
 40
0.0
 40
0.0
 40
0.2897016594
 40
0.5490895814
 40
0.7822189142
 40
1.0
 40
1.0
 40
1.0
 40
1.0
 10
14.9686285631
 20
48.4862910243
 30
0.0
 10
14.9686285631
 20
48.5496259818
 30
0.0
 10
14.9782310067
 20
48.6700762659
 30
0.0
 10
15.0270093749
 20
48.8355698643
 30
0.0
 10
15.1091419308
 20
48.969858444
 30
0.0
 10
15.1862895434
 20
49.0347109601
 30
0.0
 10
15.2275206499
 20
49.0585197628
 30
0.0
  0
SPLINE
  5
38C
100
AcDbEntity
  8
0
100
AcDbSpline
 62
7
  6
CONTINUOUS
 70
0
 71
3
 72
15
 73
11
 74
0
 42
0.0000001
 43
0.0000001
 44
0.0000000001
 40
0.0
 40
0.0
 40
0.0
 40
0.0
 40
0.1141232787
 40
0.2373467935
 40
0.3669716251
 40
0.4999988493
 40
0.6330262331
 40
0.7626515288
 40
0.885875802
 40
1.0
 40
1.0
 40
1.0
 40
1.0
 10
15.8525157195
 20
46.9553620598
 30
0.0
 10
15.7920234612
 20
46.9902864913
 30
0.0
 10
15.6725135973
 20
47.0740937244
 30
0.0
 10
15.5080401878
 20
47.2279144315
 30
0.0
 10
15.3565029594
 20
47.4098132641
 30
0.0
 10
15.2235494677
 20
47.612845883
 30
0.0
 10
15.1141936276
 20
47.8295030142
 30
0.0
 10
15.0324317483
 20
48.0516878704
 30
0.0
 10
14.9814541288
 20
48.2710373198
 30
0.0
 10
14.9686285631
 20
48.4164404134
 30
0.0
 10
14.9686285631
 20
48.4862910243
 30
0.0
  0
SPLINE
  5
38D
100
AcDbEntity
  8
0
100
AcDbSpline
 62
7
  6
CONTINUOUS
 70
0
 71
3
 72
11
 73
7
 74
0
 42
0.0000001
 43
0.0000001
 44
0.0000000001
 40
0.0
 40
0.0
 40
0.0
 40
0.0
 40
0.2897016594
 40
0.5490895814
 40
0.7822189142
 40
1.0
 40
1.0
 40
1.0
 40
1.0
 10
14.9686285631
 20
52.6259582792
 30
0.0
 10
14.9686285631
 20
52.6892932366
 30
0.0
 10
14.9782310067
 20
52.8097435207
 30
0.0
 10
15.0270093749
 20
52.9752371191
 30
0.0
 10
15.1091419308
 20
53.1095256989
 30
0.0
 10
15.1862895434
 20
53.174378215
 30
0.0
 10
15.2275206499
 20
53.1981870176
 30
0.0
  0
SPLINE
  5
38E
100
AcDbEntity
  8
0
100
AcDbSpline
 62
7
  6
CONTINUOUS
 70
0
 71
3
 72
15
 73
11
 74
0
 42
0.0000001
 43
0.0000001
 44
0.0000000001
 40
0.0
 40
0.0
 40
0.0
 40
0.0
 40
0.1141232787
 40
0.2373467935
 40
0.3669716251
 40
0.4999988493
 40
0.6330262331
 40
0.7626515288
 40
0.885875802
 40
1.0
 40
1.0
 40
1.0
 40
1.0
 10
15.8525157195
 20
51.0950293146
 30
0.0
 10
15.7920234612
 20
51.1299537462
 30
0.0
 10
15.6725135973
 20
51.2137609793
 30
0.0
 10
15.5080401878
 20
51.3675816864
 30
0.0
 10
15.3565029594
 20
51.549480519
 30
0.0
 10
15.2235494677
 20
51.7525131379
 30
0.0
 10
15.1141936276
 20
51.9691702691
 30
0.0
 10
15.0324317483
 20
52.1913551252
 30
0.0
 10
14.9814541288
 20
52.4107045747
 30
0.0
 10
14.9686285631
 20
52.5561076683
 30
0.0
 10
14.9686285631
 20
52.6259582792
 30
0.0
  0
SPLINE
  5
38F
100
AcDbEntity
  8
0
100
AcDbSpline
 62
7
  6
CONTINUOUS
 70
0
 71
3
 72
11
 73
7
 74
0
 42
0.0000001
 43
0.0000001
 44
0.0000000001
 40
0.0
 40
0.0
 40
0.0
 40
0.0
 40
0.2177843137
 40
0.4509117637
 40
0.7102976701
 40
1.0
 40
1.0
 40
1.0
 40
1.0
 10
16.4775098028
 20
34.4744603482
 30
0.0
 10
16.4362774729
 20
34.4506550117
 30
0.0
 10
16.3415397848
 20
34.4162739288
 30
0.0
 10
16.1841820991
 20
34.4122896625
 30
0.0
 10
16.0164756846
 20
34.4527877719
 30
0.0
 10
15.9073642496
 20
34.504694198
 30
0.0
 10
15.8525157195
 20
34.5363602952
 30
0.0
  0
SPLINE
  5
390
100
AcDbEntity
  8
0
100
AcDbSpline
 62
7
  6
CONTINUOUS
 70
0
 71
3
 72
11
 73
7
 74
0
 42
0.0000001
 43
0.0000001
 44
0.0000000001
 40
0.0
 40
0.0
 40
0.0
 40
0.0
 40
0.2177843137
 40
0.4509117637
 40
0.7102976701
 40
1.0
 40
1.0
 40
1.0
 40
1.0
 10
16.4775098028
 20
30.3347930933
 30
0.0
 10
16.4362774729
 20
30.3109877569
 30
0.0
 10
16.3415397848
 20
30.2766066739
 30
0.0
 10
16.1841820991
 20
30.2726224077
 30
0.0
 10
16.0164756846
 20
30.313120517
 30
0.0
 10
15.9073642496
 20
30.3650269432
 30
0.0
 10
15.8525157195
 20
30.3966930404
 30
0.0
  0
SPLINE
  5
391
100
AcDbEntity
  8
0
100
AcDbSpline
 62
7
  6
CONTINUOUS
 70
0
 71
3
 72
11
 73
7
 74
0
 42
0.0000001
 43
0.0000001
 44
0.0000000001
 40
0.0
 40
0.0
 40
0.0
 40
0.0
 40
0.2897016594
 40
0.5490895814
 40
0.7822189142
 40
1.0
 40
1.0
 40
1.0
 40
1.0
 10
14.9686285631
 20
56.765625534
 30
0.0
 10
14.9686285631
 20
56.8289604915
 30
0.0
 10
14.9782310067
 20
56.9494107756
 30
0.0
 10
15.0270093749
 20
57.114904374
 30
0.0
 10
15.1091419308
 20
57.2491929537
 30
0.0
 10
15.1862895434
 20
57.3140454698
 30
0.0
 10
15.2275206499
 20
57.3378542725
 30
0.0
  0
SPLINE
  5
392
100
AcDbEntity
  8
0
100
AcDbSpline
 62
7
  6
CONTINUOUS
 70
0
 71
3
 72
15
 73
11
 74
0
 42
0.0000001
 43
0.0000001
 44
0.0000000001
 40
0.0
 40
0.0
 40
0.0
 40
0.0
 40
0.1141232787
 40
0.2373467935
 40
0.3669716251
 40
0.4999988493
 40
0.6330262331
 40
0.7626515288
 40
0.885875802
 40
1.0
 40
1.0
 40
1.0
 40
1.0
 10
15.8525157195
 20
55.2346965695
 30
0.0
 10
15.7920234612
 20
55.269621001
 30
0.0
 10
15.6725135973
 20
55.3534282341
 30
0.0
 10
15.5080401878
 20
55.5072489412
 30
0.0
 10
15.3565029594
 20
55.6891477738
 30
0.0
 10
15.2235494677
 20
55.8921803927
 30
0.0
 10
15.1141936276
 20
56.1088375239
 30
0.0
 10
15.0324317483
 20
56.3310223801
 30
0.0
 10
14.9814541288
 20
56.5503718295
 30
0.0
 10
14.9686285631
 20
56.6957749231
 30
0.0
 10
14.9686285631
 20
56.765625534
 30
0.0
  0
SPLINE
  5
393
100
AcDbEntity
  8
0
100
AcDbSpline
 62
7
  6
CONTINUOUS
 70
0
 71
3
 72
11
 73
7
 74
0
 42
0.0000001
 43
0.0000001
 44
0.0000000001
 40
0.0
 40
0.0
 40
0.0
 40
0.0
 40
0.2897033281
 40
0.5490895198
 40
0.7822165953
 40
1.0
 40
1.0
 40
1.0
 40
1.0
 10
14.9686285631
 20
15.3689529855
 30
0.0
 10
14.9686285631
 20
15.432288166
 30
0.0
 10
14.9782311083
 20
15.5527382561
 30
0.0
 10
15.0270119496
 20
15.7182303677
 30
0.0
 10
15.1091426857
 20
15.8525178575
 30
0.0
 10
15.1862883761
 20
15.9173741373
 30
0.0
 10
15.2275216362
 20
15.9411800109
 30
0.0
  0
SPLINE
  5
394
100
AcDbEntity
  8
0
100
AcDbSpline
 62
7
  6
CONTINUOUS
 70
0
 71
3
 72
11
 73
7
 74
0
 42
0.0000001
 43
0.0000001
 44
0.0000000001
 40
0.0
 40
0.0
 40
0.0
 40
0.0
 40
0.2177843137
 40
0.4509117637
 40
0.7102976701
 40
1.0
 40
1.0
 40
1.0
 40
1.0
 10
16.4775098028
 20
26.1951258385
 30
0.0
 10
16.4362774729
 20
26.171320502
 30
0.0
 10
16.3415397848
 20
26.1369394191
 30
0.0
 10
16.1841820991
 20
26.1329551528
 30
0.0
 10
16.0164756846
 20
26.1734532622
 30
0.0
 10
15.9073642496
 20
26.2253596883
 30
0.0
 10
15.8525157195
 20
26.2570257855
 30
0.0
  0
SPLINE
  5
395
100
AcDbEntity
  8
0
100
AcDbSpline
 62
7
  6
CONTINUOUS
 70
0
 71
3
 72
11
 73
7
 74
0
 42
0.0000001
 43
0.0000001
 44
0.0000000001
 40
0.0
 40
0.0
 40
0.0
 40
0.0
 40
0.2177843137
 40
0.4509117637
 40
0.7102976701
 40
1.0
 40
1.0
 40
1.0
 40
1.0
 10
16.4775098028
 20
22.0554585836
 30
0.0
 10
16.4362774729
 20
22.0316532472
 30
0.0
 10
16.3415397848
 20
21.9972721642
 30
0.0
 10
16.1841820991
 20
21.993287898
 30
0.0
 10
16.0164756846
 20
22.0337860073
 30
0.0
 10
15.9073642496
 20
22.0856924335
 30
0.0
 10
15.8525157195
 20
22.1173585307
 30
0.0
  0
SPLINE
  5
396
100
AcDbEntity
  8
0
100
AcDbSpline
 62
7
  6
CONTINUOUS
 70
0
 71
3
 72
11
 73
7
 74
0
 42
0.0000001
 43
0.0000001
 44
0.0000000001
 40
0.0
 40
0.0
 40
0.0
 40
0.0
 40
0.2177843137
 40
0.4509117637
 40
0.7102976701
 40
1.0
 40
1.0
 40
1.0
 40
1.0
 10
16.4775098028
 20
51.0331293676
 30
0.0
 10
16.4362774729
 20
51.0093240311
 30
0.0
 10
16.3415397848
 20
50.9749429482
 30
0.0
 10
16.1841820991
 20
50.9709586819
 30
0.0
 10
16.0164756846
 20
51.0114567913
 30
0.0
 10
15.9073642496
 20
51.0633632174
 30
0.0
 10
15.8525157195
 20
51.0950293146
 30
0.0
  0
SPLINE
  5
397
100
AcDbEntity
  8
0
100
AcDbSpline
 62
7
  6
CONTINUOUS
 70
0
 71
3
 72
11
 73
7
 74
0
 42
0.0000001
 43
0.0000001
 44
0.0000000001
 40
0.0
 40
0.0
 40
0.0
 40
0.0
 40
0.2177843137
 40
0.4509117637
 40
0.7102976701
 40
1.0
 40
1.0
 40
1.0
 40
1.0
 10
16.4775098028
 20
13.7761240739
 30
0.0
 10
16.4362774729
 20
13.7523187375
 30
0.0
 10
16.3415397848
 20
13.7179376545
 30
0.0
 10
16.1841820991
 20
13.7139533883
 30
0.0
 10
16.0164756846
 20
13.7544514976
 30
0.0
 10
15.9073642496
 20
13.8063579238
 30
0.0
 10
15.8525157195
 20
13.838024021
 30
0.0
  0
SPLINE
  5
398
100
AcDbEntity
  8
0
100
AcDbSpline
 62
7
  6
CONTINUOUS
 70
0
 71
3
 72
11
 73
7
 74
0
 42
0.0000001
 43
0.0000001
 44
0.0000000001
 40
0.0
 40
0.0
 40
0.0
 40
0.0
 40
0.2177843137
 40
0.4509117637
 40
0.7102976701
 40
1.0
 40
1.0
 40
1.0
 40
1.0
 10
16.4775098028
 20
17.9157913288
 30
0.0
 10
16.4362774729
 20
17.8919859923
 30
0.0
 10
16.3415397848
 20
17.8576049094
 30
0.0
 10
16.1841820991
 20
17.8536206431
 30
0.0
 10
16.0164756846
 20
17.8941187525
 30
0.0
 10
15.9073642496
 20
17.9460251786
 30
0.0
 10
15.8525157195
 20
17.9776912759
 30
0.0
  0
SPLINE
  5
399
100
AcDbEntity
  8
0
100
AcDbSpline
 62
7
  6
CONTINUOUS
 70
0
 71
3
 72
15
 73
11
 74
0
 42
0.0000001
 43
0.0000001
 44
0.0000000001
 40
0.0
 40
0.0
 40
0.0
 40
0.0
 40
0.1141232787
 40
0.2373467935
 40
0.3669716251
 40
0.4999988493
 40
0.6330262331
 40
0.7626515288
 40
0.885875802
 40
1.0
 40
1.0
 40
1.0
 40
1.0
 10
15.8525157195
 20
13.838024021
 30
0.0
 10
15.7920234612
 20
13.8729484525
 30
0.0
 10
15.6725135973
 20
13.9567556856
 30
0.0
 10
15.5080401878
 20
14.1105763927
 30
0.0
 10
15.3565029594
 20
14.2924752253
 30
0.0
 10
15.2235494677
 20
14.4955078442
 30
0.0
 10
15.1141936276
 20
14.7121649754
 30
0.0
 10
15.0324317483
 20
14.9343498316
 30
0.0
 10
14.9814541288
 20
15.153699281
 30
0.0
 10
14.9686285631
 20
15.2991023746
 30
0.0
 10
14.9686285631
 20
15.3689529855
 30
0.0
  0
SPLINE
  5
39A
100
AcDbEntity
  8
0
100
AcDbSpline
 62
7
  6
CONTINUOUS
 70
0
 71
3
 72
9
 73
5
 74
0
 42
0.0000001
 43
0.0000001
 44
0.0000000001
 40
0.0
 40
0.0
 40
0.0
 40
0.0
 40
0.4492435902
 40
1.0
 40
1.0
 40
1.0
 40
1.0
 10
15.7567750777
 20
61.7095014663
 30
0.0
 10
15.7567580574
 20
61.7020895952
 30
0.0
 10
15.7632476546
 20
61.6855280221
 30
0.0
 10
15.7768011135
 20
61.675249579
 30
0.0
 10
15.7846384292
 20
61.6706512332
 30
0.0
  0
SPLINE
  5
39B
100
AcDbEntity
  8
0
100
AcDbSpline
 62
7
  6
CONTINUOUS
 70
0
 71
3
 72
11
 73
7
 74
0
 42
0.0000001
 43
0.0000001
 44
0.0000000001
 40
0.0
 40
0.0
 40
0.0
 40
0.0
 40
0.2177527521
 40
0.4508687738
 40
0.710334431
 40
1.0
 40
1.0
 40
1.0
 40
1.0
 10
14.3906853641
 20
59.2979504542
 30
0.0
 10
14.3906888782
 20
59.2789062283
 30
0.0
 10
14.397714867
 20
59.2392087554
 30
0.0
 10
14.4278228812
 20
59.1838944615
 30
0.0
 10
14.4754028157
 20
59.1338934055
 30
0.0
 10
14.5152121172
 20
59.1064674989
 30
0.0
 10
14.5371517646
 20
59.0938009241
 30
0.0
  0
SPLINE
  5
39C
100
AcDbEntity
  8
0
100
AcDbSpline
 62
7
  6
CONTINUOUS
 70
0
 71
3
 72
11
 73
7
 74
0
 42
0.0000001
 43
0.0000001
 44
0.0000000001
 40
0.0
 40
0.0
 40
0.0
 40
0.0
 40
0.2177843137
 40
0.4509117637
 40
0.7102976701
 40
1.0
 40
1.0
 40
1.0
 40
1.0
 10
16.4775098028
 20
55.1727966224
 30
0.0
 10
16.4362774729
 20
55.148991286
 30
0.0
 10
16.3415397848
 20
55.114610203
 30
0.0
 10
16.1841820991
 20
55.1106259368
 30
0.0
 10
16.0164756846
 20
55.1511240461
 30
0.0
 10
15.9073642496
 20
55.2030304723
 30
0.0
 10
15.8525157195
 20
55.2346965695
 30
0.0
  0
SPLINE
  5
39D
100
AcDbEntity
  8
0
100
AcDbSpline
 62
7
  6
CONTINUOUS
 70
0
 71
3
 72
11
 73
7
 74
0
 42
0.0000001
 43
0.0000001
 44
0.0000000001
 40
0.0
 40
0.0
 40
0.0
 40
0.0
 40
0.2367285468
 40
0.4989100111
 40
0.7616834297
 40
1.0
 40
1.0
 40
1.0
 40
1.0
 10
16.0493765024
 20
92.7780146458
 30
0.0
 10
16.0493765024
 20
92.846745802
 30
0.0
 10
16.074876524
 20
92.9916959763
 30
0.0
 10
16.1640017117
 20
93.1958419333
 30
0.0
 10
16.2947417899
 20
93.3767629414
 30
0.0
 10
16.4068372206
 20
93.4730231057
 30
0.0
 10
16.4662344066
 20
93.5085130683
 30
0.0
  0
SPLINE
  5
39E
100
AcDbEntity
  8
0
100
AcDbSpline
 62
7
  6
CONTINUOUS
 70
0
 71
3
 72
11
 73
7
 74
0
 42
0.0000001
 43
0.0000001
 44
0.0000000001
 40
0.0
 40
0.0
 40
0.0
 40
0.0
 40
0.2177231993
 40
0.4508753011
 40
0.7104743705
 40
1.0
 40
1.0
 40
1.0
 40
1.0
 10
78.7810578409
 20
39.3813915964
 30
0.0
 10
78.7398348087
 20
39.4051873296
 30
0.0
 10
78.6626413963
 20
39.4699676747
 30
0.0
 10
78.5804939836
 20
39.6043106784
 30
0.0
 10
78.5318068054
 20
39.7698337225
 30
0.0
 10
78.5221394755
 20
39.8902802514
 30
0.0
 10
78.5221394755
 20
39.9535755652
 30
0.0
  0
SPLINE
  5
39F
100
AcDbEntity
  8
0
100
AcDbSpline
 62
7
  6
CONTINUOUS
 70
0
 71
3
 72
11
 73
7
 74
0
 42
0.0000001
 43
0.0000001
 44
0.0000000001
 40
0.0
 40
0.0
 40
0.0
 40
0.0
 40
0.2177231375
 40
0.4508717887
 40
0.7104673698
 40
1.0
 40
1.0
 40
1.0
 40
1.0
 10
78.7810571062
 20
106.3345884303
 30
0.0
 10
78.7398347866
 20
106.3583854953
 30
0.0
 10
78.6626411129
 20
106.4231640483
 30
0.0
 10
78.5804953361
 20
106.5575067076
 30
0.0
 10
78.5318057103
 20
106.7230291001
 30
0.0
 10
78.5221394755
 20
106.8434768428
 30
0.0
 10
78.5221394755
 20
106.9067737698
 30
0.0
  0
SPLINE
  5
3A0
100
AcDbEntity
  8
0
100
AcDbSpline
 62
7
  6
CONTINUOUS
 70
0
 71
3
 72
11
 73
7
 74
0
 42
0.0000001
 43
0.0000001
 44
0.0000000001
 40
0.0
 40
0.0
 40
0.0
 40
0.0
 40
0.2177231375
 40
0.4508717887
 40
0.7104673698
 40
1.0
 40
1.0
 40
1.0
 40
1.0
 10
51.8936572838
 20
90.7910786752
 30
0.0
 10
51.851283703
 20
90.8155403471
 30
0.0
 10
51.7719341563
 20
90.8821280422
 30
0.0
 10
51.6874942038
 20
91.0202226372
 30
0.0
 10
51.637444769
 20
91.1903677563
 30
0.0
 10
51.6275085746
 20
91.3141793761
 30
0.0
 10
51.6275085746
 20
91.3792440663
 30
0.0
  0
SPLINE
  5
3A1
100
AcDbEntity
  8
0
100
AcDbSpline
 62
7
  6
CONTINUOUS
 70
0
 71
3
 72
11
 73
7
 74
0
 42
0.0000001
 43
0.0000001
 44
0.0000000001
 40
0.0
 40
0.0
 40
0.0
 40
0.0
 40
0.2177231993
 40
0.4508753011
 40
0.7104743705
 40
1.0
 40
1.0
 40
1.0
 40
1.0
 10
51.893658039
 20
23.8378818796
 30
0.0
 10
51.8512837258
 20
23.8623421824
 30
0.0
 10
51.7719344478
 20
23.9289317196
 30
0.0
 10
51.6874928137
 20
24.0670266683
 30
0.0
 10
51.6374458949
 20
24.2371724569
 30
0.0
 10
51.6275085747
 20
24.3609828287
 30
0.0
 10
51.6275085747
 20
24.4260458605
 30
0.0
  0
SPLINE
  5
3A2
100
AcDbEntity
  8
0
100
AcDbSpline
 62
7
  6
CONTINUOUS
 70
0
 71
3
 72
17
 73
13
 74
0
 42
0.0000001
 43
0.0000001
 44
0.0000000001
 40
0.0
 40
0.0
 40
0.0
 40
0.0
 40
0.1286849204
 40
0.270303802
 40
0.4174438805
 40
0.5617821442
 40
0.6954492858
 40
0.8127130377
 40
0.8646795618
 40
0.9125091497
 40
0.9571393989
 40
1.0
 40
1.0
 40
1.0
 40
1.0
 10
51.6275085747
 20
24.4260458605
 30
0.0
 10
51.6275085747
 20
24.5358688973
 30
0.0
 10
51.6582557627
 20
24.766812308
 30
0.0
 10
51.7729032793
 20
25.1058968399
 30
0.0
 10
51.9496526631
 20
25.4325144427
 30
0.0
 10
52.1741652335
 20
25.7199084709
 30
0.0
 10
52.4281833272
 20
25.9448808635
 30
0.0
 10
52.6581077146
 20
26.0705551626
 30
0.0
 10
52.8379474519
 20
26.118473375
 30
0.0
 10
52.9617294057
 20
26.1275173725
 30
0.0
 10
53.0770069525
 20
26.110703573
 30
0.0
 10
53.1468109734
 20
26.0816129935
 30
0.0
 10
53.1784896317
 20
26.0633253499
 30
0.0
  0
SPLINE
  5
3A3
100
AcDbEntity
  8
0
100
AcDbSpline
 62
7
  6
CONTINUOUS
 70
0
 71
3
 72
17
 73
13
 74
0
 42
0.0000001
 43
0.0000001
 44
0.0000000001
 40
0.0
 40
0.0
 40
0.0
 40
0.0
 40
0.1286865535
 40
0.2703065218
 40
0.4174612681
 40
0.5617989266
 40
0.6954528234
 40
0.8127091351
 40
0.8646746914
 40
0.9125055669
 40
0.957137259
 40
1.0
 40
1.0
 40
1.0
 40
1.0
 10
51.6275085746
 20
91.3792440663
 30
0.0
 10
51.6275085746
 20
91.4890684711
 30
0.0
 10
51.6582572562
 20
91.7200138636
 30
0.0
 10
51.772907446
 20
92.0591134321
 30
0.0
 10
51.9496730107
 20
92.3857372996
 30
0.0
 10
52.1741877199
 20
92.6731302443
 30
0.0
 10
52.4281950015
 20
92.8980863261
 30
0.0
 10
52.6581023222
 20
93.0237537106
 30
0.0
 10
52.8379366166
 20
93.0716669575
 30
0.0
 10
52.9617195936
 20
93.0807169507
 30
0.0
 10
53.0770014996
 20
93.0639012956
 30
0.0
 10
53.1468080642
 20
93.0348096935
 30
0.0
 10
53.1784888767
 20
93.0165221459
 30
0.0
  0
SPLINE
  5
3A4
100
AcDbEntity
  8
0
100
AcDbSpline
 62
7
  6
CONTINUOUS
 70
0
 71
3
 72
17
 73
13
 74
0
 42
0.0000001
 43
0.0000001
 44
0.0000000001
 40
0.0
 40
0.0
 40
0.0
 40
0.0
 40
0.1286865535
 40
0.2703065218
 40
0.4174612681
 40
0.5617989266
 40
0.6954528234
 40
0.8127091351
 40
0.8646746914
 40
0.9125055669
 40
0.957137259
 40
1.0
 40
1.0
 40
1.0
 40
1.0
 10
78.5221394755
 20
106.9067737698
 30
0.0
 10
78.5221394755
 20
107.0136143206
 30
0.0
 10
78.5520527364
 20
107.2382850847
 30
0.0
 10
78.663587959
 20
107.5681715497
 30
0.0
 10
78.8355509241
 20
107.8859212701
 30
0.0
 10
79.0539657221
 20
108.1655059449
 30
0.0
 10
79.3010717995
 20
108.3843501237
 30
0.0
 10
79.5247326955
 20
108.5066032113
 30
0.0
 10
79.6996810151
 20
108.5532146881
 30
0.0
 10
79.8201008932
 20
108.5620187991
 30
0.0
 10
79.9322506686
 20
108.5456600138
 30
0.0
 10
80.0001606366
 20
108.5173588107
 30
0.0
 10
80.0309807031
 20
108.4995681233
 30
0.0
  0
SPLINE
  5
3A5
100
AcDbEntity
  8
0
100
AcDbSpline
 62
7
  6
CONTINUOUS
 70
0
 71
3
 72
17
 73
13
 74
0
 42
0.0000001
 43
0.0000001
 44
0.0000000001
 40
0.0
 40
0.0
 40
0.0
 40
0.0
 40
0.1286865535
 40
0.2703065218
 40
0.4174612681
 40
0.5617989266
 40
0.6954528234
 40
0.8127091351
 40
0.8646746914
 40
0.9125055669
 40
0.957137259
 40
1.0
 40
1.0
 40
1.0
 40
1.0
 10
78.5221394755
 20
39.9535755652
 30
0.0
 10
78.5221394755
 20
40.060416116
 30
0.0
 10
78.5520527364
 20
40.2850868801
 30
0.0
 10
78.663587959
 20
40.6149733451
 30
0.0
 10
78.8355509241
 20
40.9327230655
 30
0.0
 10
79.0539657221
 20
41.2123077402
 30
0.0
 10
79.3010717995
 20
41.4311519191
 30
0.0
 10
79.5247326955
 20
41.5534050067
 30
0.0
 10
79.6996810151
 20
41.6000164835
 30
0.0
 10
79.8201008932
 20
41.6088205944
 30
0.0
 10
79.9322506686
 20
41.5924618092
 30
0.0
 10
80.0001606366
 20
41.564160606
 30
0.0
 10
80.0309807031
 20
41.5463699186
 30
0.0
  0
SPLINE
  5
3A6
100
AcDbEntity
  8
0
100
AcDbSpline
 62
7
  6
CONTINUOUS
 70
0
 71
3
 72
11
 73
7
 74
0
 42
0.0000001
 43
0.0000001
 44
0.0000000001
 40
0.0
 40
0.0
 40
0.0
 40
0.0
 40
0.2177231993
 40
0.4508753011
 40
0.7104743705
 40
1.0
 40
1.0
 40
1.0
 40
1.0
 10
53.1784888767
 20
93.0165221459
 30
0.0
 10
53.22086319
 20
92.9920618431
 30
0.0
 10
53.3002124681
 20
92.9254723057
 30
0.0
 10
53.3846541023
 20
92.7873773566
 30
0.0
 10
53.434701021
 20
92.6172315677
 30
0.0
 10
53.4446383412
 20
92.4934211957
 30
0.0
 10
53.4446383412
 20
92.4283581638
 30
0.0
  0
SPLINE
  5
3A7
100
AcDbEntity
  8
0
100
AcDbSpline
 62
7
  6
CONTINUOUS
 70
0
 71
3
 72
11
 73
7
 74
0
 42
0.0000001
 43
0.0000001
 44
0.0000000001
 40
0.0
 40
0.0
 40
0.0
 40
0.0
 40
0.2177231375
 40
0.4508717886
 40
0.7104673698
 40
1.0
 40
1.0
 40
1.0
 40
1.0
 10
53.1784896317
 20
26.0633253499
 30
0.0
 10
53.2208632126
 20
26.0388636779
 30
0.0
 10
53.3002127593
 20
25.9722759827
 30
0.0
 10
53.3846527118
 20
25.8341813874
 30
0.0
 10
53.4347021466
 20
25.6640362681
 30
0.0
 10
53.444638341
 20
25.5402246482
 30
0.0
 10
53.444638341
 20
25.4751599579
 30
0.0
  0
SPLINE
  5
3A8
100
AcDbEntity
  8
0
100
AcDbSpline
 62
7
  6
CONTINUOUS
 70
0
 71
3
 72
11
 73
7
 74
0
 42
0.0000001
 43
0.0000001
 44
0.0000000001
 40
0.0
 40
0.0
 40
0.0
 40
0.0
 40
0.2383165703
 40
0.5010899889
 40
0.7632714532
 40
1.0
 40
1.0
 40
1.0
 40
1.0
 10
33.1540239201
 20
83.8740312616
 30
0.0
 10
33.0946267341
 20
83.838541299
 30
0.0
 10
32.9825313034
 20
83.7422811347
 30
0.0
 10
32.8517912252
 20
83.5613601266
 30
0.0
 10
32.7626660375
 20
83.3572141696
 30
0.0
 10
32.7371660159
 20
83.2122639953
 30
0.0
 10
32.7371660159
 20
83.1435328391
 30
0.0
  0
SPLINE
  5
3A9
100
AcDbEntity
  8
0
100
AcDbSpline
 62
7
  6
CONTINUOUS
 70
0
 71
3
 72
11
 73
7
 74
0
 42
0.0000001
 43
0.0000001
 44
0.0000000001
 40
0.0
 40
0.0
 40
0.0
 40
0.0
 40
0.2177231993
 40
0.4508753011
 40
0.7104743705
 40
1.0
 40
1.0
 40
1.0
 40
1.0
 10
80.0309807031
 20
41.5463699186
 30
0.0
 10
80.0722037352
 20
41.5225741855
 30
0.0
 10
80.1493971477
 20
41.4577938404
 30
0.0
 10
80.2315445604
 20
41.3234508367
 30
0.0
 10
80.2802317386
 20
41.1579277925
 30
0.0
 10
80.2898990685
 20
41.0374812637
 30
0.0
 10
80.2898990685
 20
40.9741859499
 30
0.0
  0
SPLINE
  5
3AA
100
AcDbEntity
  8
0
100
AcDbSpline
 62
7
  6
CONTINUOUS
 70
0
 71
3
 72
17
 73
13
 74
0
 42
0.0000001
 43
0.0000001
 44
0.0000000001
 40
0.0
 40
0.0
 40
0.0
 40
0.0
 40
0.1286865535
 40
0.2703065219
 40
0.4174612682
 40
0.5617989266
 40
0.6954528234
 40
0.8127091351
 40
0.8646746914
 40
0.9125055669
 40
0.957137259
 40
1.0
 40
1.0
 40
1.0
 40
1.0
 10
53.444638341
 20
25.4751599579
 30
0.0
 10
53.444638341
 20
25.3653355531
 30
0.0
 10
53.4138896593
 20
25.1343901607
 30
0.0
 10
53.2992394692
 20
24.7952905924
 30
0.0
 10
53.1224739046
 20
24.468666725
 30
0.0
 10
52.8979591953
 20
24.1812737807
 30
0.0
 10
52.6439519138
 20
23.9563176991
 30
0.0
 10
52.4140445933
 20
23.8306503148
 30
0.0
 10
52.2342102989
 20
23.7827370679
 30
0.0
 10
52.110427322
 20
23.7736870748
 30
0.0
 10
51.995145416
 20
23.7905027299
 30
0.0
 10
51.9253388515
 20
23.819594332
 30
0.0
 10
51.893658039
 20
23.8378818796
 30
0.0
  0
SPLINE
  5
3AB
100
AcDbEntity
  8
0
100
AcDbSpline
 62
7
  6
CONTINUOUS
 70
0
 71
3
 72
17
 73
13
 74
0
 42
0.0000001
 43
0.0000001
 44
0.0000000001
 40
0.0
 40
0.0
 40
0.0
 40
0.0
 40
0.1286849204
 40
0.270303802
 40
0.4174438806
 40
0.5617821443
 40
0.6954492858
 40
0.8127130378
 40
0.8646795618
 40
0.9125091497
 40
0.9571393989
 40
1.0
 40
1.0
 40
1.0
 40
1.0
 10
53.4446383412
 20
92.4283581638
 30
0.0
 10
53.4446383412
 20
92.318535127
 30
0.0
 10
53.4138911531
 20
92.0875917163
 30
0.0
 10
53.2992436362
 20
91.7485071845
 30
0.0
 10
53.1224942523
 20
91.4218895817
 30
0.0
 10
52.8979816819
 20
91.1344955537
 30
0.0
 10
52.6439635881
 20
90.9095231613
 30
0.0
 10
52.4140392007
 20
90.7838488623
 30
0.0
 10
52.2341994636
 20
90.73593065
 30
0.0
 10
52.1104175098
 20
90.7268866525
 30
0.0
 10
51.995139963
 20
90.7437004521
 30
0.0
 10
51.9253359421
 20
90.7727910316
 30
0.0
 10
51.8936572838
 20
90.7910786752
 30
0.0
  0
SPLINE
  5
3AC
100
AcDbEntity
  8
0
100
AcDbSpline
 62
7
  6
CONTINUOUS
 70
0
 71
3
 72
11
 73
7
 74
0
 42
0.0000001
 43
0.0000001
 44
0.0000000001
 40
0.0
 40
0.0
 40
0.0
 40
0.0
 40
0.2177231993
 40
0.4508753011
 40
0.7104743705
 40
1.0
 40
1.0
 40
1.0
 40
1.0
 10
80.0309807031
 20
108.4995681233
 30
0.0
 10
80.0722037352
 20
108.4757723901
 30
0.0
 10
80.1493971477
 20
108.410992045
 30
0.0
 10
80.2315445604
 20
108.2766490413
 30
0.0
 10
80.2802317386
 20
108.1111259971
 30
0.0
 10
80.2898990685
 20
107.9906794683
 30
0.0
 10
80.2898990685
 20
107.9273841545
 30
0.0
  0
SPLINE
  5
3AD
100
AcDbEntity
  8
0
100
AcDbSpline
 62
7
  6
CONTINUOUS
 70
0
 71
3
 72
17
 73
13
 74
0
 42
0.0000001
 43
0.0000001
 44
0.0000000001
 40
0.0
 40
0.0
 40
0.0
 40
0.0
 40
0.1286849204
 40
0.270303802
 40
0.4174438806
 40
0.5617821443
 40
0.6954492858
 40
0.8127130378
 40
0.8646795618
 40
0.9125091497
 40
0.9571393989
 40
1.0
 40
1.0
 40
1.0
 40
1.0
 10
80.2898990685
 20
107.9273841545
 30
0.0
 10
80.2898990685
 20
107.8205449345
 30
0.0
 10
80.2599872605
 20
107.5958760984
 30
0.0
 10
80.1484546383
 20
107.2660042615
 30
0.0
 10
79.9765074143
 20
106.9482606358
 30
0.0
 10
79.758094697
 20
106.6686749071
 30
0.0
 10
79.5109781012
 20
106.4498148608
 30
0.0
 10
79.2873006022
 20
106.3275550466
 30
0.0
 10
79.1123469877
 20
106.2809387392
 30
0.0
 10
78.991928105
 20
106.2721404611
 30
0.0
 10
78.8797825704
 20
106.2884974412
 30
0.0
 10
78.811875077
 20
106.3167976495
 30
0.0
 10
78.7810571062
 20
106.3345884303
 30
0.0
  0
SPLINE
  5
3AE
100
AcDbEntity
  8
0
100
AcDbSpline
 62
7
  6
CONTINUOUS
 70
0
 71
3
 72
17
 73
13
 74
0
 42
0.0000001
 43
0.0000001
 44
0.0000000001
 40
0.0
 40
0.0
 40
0.0
 40
0.0
 40
0.1286865535
 40
0.2703065218
 40
0.4174612681
 40
0.5617989266
 40
0.6954528234
 40
0.8127091351
 40
0.8646746914
 40
0.9125055669
 40
0.957137259
 40
1.0
 40
1.0
 40
1.0
 40
1.0
 10
80.2898990685
 20
40.9741859499
 30
0.0
 10
80.2898990685
 20
40.8673453991
 30
0.0
 10
80.2599858076
 20
40.642674635
 30
0.0
 10
80.148450585
 20
40.31278817
 30
0.0
 10
79.9764876199
 20
39.9950384496
 30
0.0
 10
79.7580728218
 20
39.7154537748
 30
0.0
 10
79.5109667444
 20
39.4966095959
 30
0.0
 10
79.2873058485
 20
39.3743565084
 30
0.0
 10
79.1123575289
 20
39.3277450316
 30
0.0
 10
78.9919376508
 20
39.3189409206
 30
0.0
 10
78.8797878753
 20
39.3352997058
 30
0.0
 10
78.8118779074
 20
39.363600909
 30
0.0
 10
78.7810578409
 20
39.3813915964
 30
0.0
  0
ELLIPSE
  5
3AF
100
AcDbEntity
  8
0
100
AcDbEllipse
 62
7
  6
CONTINUOUS
 10
16.5798487486
 20
72.7364928977
 30
0.0
 11
-1.4999932728
 21
2.5980800953
 31
0.0
 40
0.5775326816
 41
0.7855591038
 42
2.3560508411
  0
ELLIPSE
  5
3B0
100
AcDbEntity
  8
0
100
AcDbEllipse
 62
7
  6
CONTINUOUS
 10
18.9134940272
 20
88.4535118693
 30
0.0
 11
-1.5004502438
 21
2.5988715422
 31
0.0
 40
0.5771809715
 41
-0.7852193506
 42
-0.0000000026
  0
ELLIPSE
  5
3B1
100
AcDbEntity
  8
0
100
AcDbEllipse
 62
7
  6
CONTINUOUS
 10
27.5394032125
 20
66.4091343218
 30
0.0
 11
-1.5004502438
 21
2.5988715422
 31
0.0
 40
0.5771809715
 41
2.3563554196
 42
3.9268471607
  0
ELLIPSE
  5
3B2
100
AcDbEntity
  8
0
100
AcDbEllipse
 62
7
  6
CONTINUOUS
 10
29.8730484911
 20
82.1261532934
 30
0.0
 11
-1.4999932728
 21
2.5980800953
 31
0.0
 40
0.5775326816
 41
-2.3560174357
 42
-0.7855580658
  0
ELLIPSE
  5
3B3
100
AcDbEntity
  8
0
100
AcDbEllipse
 62
7
  6
CONTINUOUS
 10
29.8730484911
 20
67.7564570091
 30
0.0
 11
-1.5004502438
 21
2.5988715422
 31
0.0
 40
0.5771809715
 41
-3.1415926562
 42
-2.356354401
  0
ELLIPSE
  5
3B4
100
AcDbEntity
  8
0
100
AcDbEllipse
 62
7
  6
CONTINUOUS
 10
27.5394032125
 20
80.778830606
 30
0.0
 11
-1.4999932728
 21
2.5980800953
 31
0.0
 40
0.5775326816
 41
3.9271517538
 42
5.4976434958
  0
ELLIPSE
  5
3B5
100
AcDbEntity
  8
0
100
AcDbEllipse
 62
7
  6
CONTINUOUS
 10
16.5798487486
 20
87.106189182
 30
0.0
 11
-1.5004502438
 21
2.5988715422
 31
0.0
 40
0.5771809715
 41
-0.7852372349
 42
0.7852545033
  0
ENDSEC
  0
SECTION
  2
OBJECTS
  0
DICTIONARY
  5
C
100
AcDbDictionary
280
0
281
1
  3
ACAD_GROUP
350
D
  3
ACAD_MLINESTYLE
350
17
  3
ACAD_LAYOUT
350
1A
  3
ACAD_PLOTSETTINGS
350
19
  3
ACAD_PLOTSTYLENAME
350
E
  0
DICTIONARY
  5
D
102
{ACAD_REACTORS
330
C
102
}
100
AcDbDictionary
280
0
281
1
  0
ACDBDICTIONARYWDFLT
  5
E
102
{ACAD_REACTORS
330
C
102
}
100
AcDbDictionary
281
1
  3
Normal
350
F
100
AcDbDictionaryWithDefault
340
F
  0
DICTIONARY
  5
17
102
{ACAD_REACTORS
330
C
102
}
100
AcDbDictionary
280
0
281
1
  3
Standard
350
18
  0
DICTIONARY
  5
19
102
{ACAD_REACTORS
330
C
102
}
100
AcDbDictionary
281
1
  0
DICTIONARY
  5
1A
102
{ACAD_REACTORS
330
C
102
}
100
AcDbDictionary
281
1
  3
Model
350
3B6
  3
Layout1
350
3B7
  0
ACDBPLACEHOLDER
  5
F
102
{ACAD_REACTORS
330
E
102
}
  0
MLINESTYLE
  5
18
102
{ACAD_REACTORS
330
17
102
}
100
AcDbMlineStyle
  2
STANDARD
 70
0
  3

 62
256
 51
90.0
 52
90.0
 71
2
 49
0.5
 62
256
  6
BYLAYER
 49
-0.5
 62
256
  6
BYLAYER
  0
LAYOUT
  5
3B6
102
{ACAD_REACTORS
330
1A
102
}
100
AcDbPlotSettings
  1

  2
none_device
  4

  6

 40
0.0
 41
0.0
 42
0.0
 43
0.0
 44
210.0
 45
297.0
 46
0.0
 47
0.0
 48
0.0
 49
0.0
140
0.0
141
0.0
142
1.0
143
1.0
 70
1024
 72
1
 73
0
 74
0
  7

 75
0
147
1.0
148
0.0
149
0.0
100
AcDbLayout
  1
Model
 70
0
 71
0
 10
0.0
 20
0.0
 11
210.0
 21
297.0
 12
0.0
 22
0.0
 32
0.0
 14
0.0
 24
0.0
 34
0.0
 15
0.0
 25
0.0
 35
0.0
146
0.0
 13
0.0
 23
0.0
 33
0.0
 16
1.0
 26
0.0
 36
0.0
 17
0.0
 27
1.0
 37
0.0
 76
0
330
210
345
0
346
0
  0
LAYOUT
  5
3B7
102
{ACAD_REACTORS
330
1A
102
}
100
AcDbPlotSettings
  1

  2
none_device
  4

  6

 40
0.0
 41
0.0
 42
0.0
 43
0.0
 44
210.0
 45
297.0
 46
0.0
 47
0.0
 48
0.0
 49
0.0
140
0.0
141
0.0
142
1.0
143
1.0
 70
0
 72
1
 73
0
 74
0
  7

 75
0
147
1.0
148
0.0
149
0.0
100
AcDbLayout
  1
Layout1
 70
0
 71
1
 10
0.0
 20
0.0
 11
210.0
 21
297.0
 12
0.0
 22
0.0
 32
0.0
 14
0.0
 24
0.0
 34
0.0
 15
0.0
 25
0.0
 35
0.0
146
0.0
 13
0.0
 23
0.0
 33
0.0
 16
1.0
 26
0.0
 36
0.0
 17
0.0
 27
1.0
 37
0.0
 76
0
330
211
345
0
346
0
  0
ENDSEC
  0
EOF
