999
DXF file: C:\Users\sesa63760\Dev\_Creo\CAD\MCADID0001233_3D-CAD\drw0001_3.dxf
999
Pro/ENGINEER 2019471 by Parametric Technology Corporation
  0
SECTION
  2
HEADER
  9
$ACADVER
  1
AC1024
  9
$DWGCODEPAGE
  3
ANSI_1252
  9
$EXTMAX
 10
95.8570862508
 20
135.5693076976
 30
0.0
  9
$EXTMIN
 10
0.0
 20
0.0
 30
0.0
  9
$LIMMIN
 10
0.0
 20
0.0
  9
$LIMMAX
 10
95.8570862508
 20
135.5693076976
  9
$VIEWCTR
 10
47.9285431254
 20
67.7846538488
  9
$VIEWSIZE
 40
135.5693076976
  9
$CLAYER
  8
0
  9
$LTSCALE
 40
8.8371104277
  9
$CELTYPE
  6
BYLAYER
  9
$DIMSCALE
 40
1.0
  9
$DIMASZ
 40
1.1411557887
  9
$DIMEXO
 40
1.0
  9
$DIMDLI
 40
6.1056399319
  9
$DIMEXE
 40
1.0
  9
$DIMCEN
 40
1.4460726154
  9
$DIMLFAC
 40
1.0
  9
$DIMBLK
  1
_FILLED
  9
$DIMALT
 70
0
  9
$DIMALTF
 40
0.0393700787
  9
$DIMTXT
 40
1.5976181042
  9
$DIMTOL
 70
1
  9
$DIMLIM
 70
0
  9
$DIMTFAC
 40
1.0
  9
$DIMTP
 40
0.01
  9
$DIMTM
 40
0.01
  9
$DIMGAP
 40
0.625
  9
$DIMDSEP
 70
46
  9
$AUNITS
 70
0
  9
$PDMODE
 70
3
  9
$PDSIZE
 40
0.3125
  9
$HANDSEED
  5
2C7
  9
$TILEMODE
 70
1
  9
$MEASUREMENT
 70
1
  9
$INSUNITS
 70
4
  0
ENDSEC
  0
SECTION
  2
CLASSES
  0
CLASS
  1
ACDBDICTIONARYWDFLT
  2
AcDbDictionaryWithDefault
  3
AutoCAD 2000
 90
0
 91
1
280
0
281
0
  0
CLASS
  1
ACDBPLACEHOLDER
  2
AcDbPlaceHolder
  3
AutoCAD 2000
 90
0
 91
1
280
0
281
0
  0
CLASS
  1
LAYOUT
  2
AcDbLayout
  3
AutoCAD 2000
 90
0
 91
0
280
0
281
0
  0
ENDSEC
  0
SECTION
  2
TABLES
  0
TABLE
  2
VPORT
  5
8
100
AcDbSymbolTable
 70
2
  0
VPORT
  5
1F4
100
AcDbSymbolTableRecord
100
AcDbViewportTableRecord
  2
*ACTIVE
 70
0
 10
0.0
 20
0.0
 11
1.0
 21
1.0
 12
47.9285431254
 22
67.7846538488
 13
0.0
 23
0.0
 14
1.0
 24
1.0
 15
0.0
 25
0.0
 16
0.0
 26
0.0
 36
1.0
 17
0.0
 27
0.0
 37
0.0
 40
135.5693076976
 41
0.7070707071
 42
50.0
 43
0.0
 44
0.0
 50
0.0
 51
0.0
 71
0
 72
100
 73
1
 74
1
 75
0
 76
0
 77
0
 78
0
  0
ENDTAB
  0
TABLE
  2
LTYPE
  5
5
100
AcDbSymbolTable
 70
6
  0
LTYPE
  5
14
100
AcDbSymbolTableRecord
100
AcDbLinetypeTableRecord
  2
BYBLOCK
 70
0
  3

 72
65
 73
0
 40
0.0
  0
LTYPE
  5
15
100
AcDbSymbolTableRecord
100
AcDbLinetypeTableRecord
  2
BYLAYER
 70
0
  3

 72
65
 73
0
 40
0.0
  0
LTYPE
  5
16
100
AcDbSymbolTableRecord
100
AcDbLinetypeTableRecord
  2
CONTINUOUS
 70
64
  3
Solid line
 72
65
 73
0
 40
0.0
  0
LTYPE
  5
1F5
100
AcDbSymbolTableRecord
100
AcDbLinetypeTableRecord
  2
CENTER
 70
64
  3
____ _ ____ _ ____ _ ____ _ ____ _ ____ _ ____
 72
65
 73
4
 40
0.6
 49
0.375
 74
0
 49
-0.075
 74
0
 49
0.075
 74
0
 49
-0.075
 74
0
  0
LTYPE
  5
1F6
100
AcDbSymbolTableRecord
100
AcDbLinetypeTableRecord
  2
HIDDEN
 70
64
  3
- - - - - - - - - - - - - - - - - - - -
 72
65
 73
2
 40
0.2
 49
0.1
 74
0
 49
-0.1
 74
0
  0
LTYPE
  5
1F7
100
AcDbSymbolTableRecord
100
AcDbLinetypeTableRecord
  2
PHANTOM
 70
64
  3
_____ _ _ _____ _ _ _____ _ _ _____
 72
65
 73
6
 40
0.8
 49
0.45
 74
0
 49
-0.05
 74
0
 49
0.1
 74
0
 49
-0.05
 74
0
 49
0.1
 74
0
 49
-0.05
 74
0
  0
LTYPE
  5
1F8
100
AcDbSymbolTableRecord
100
AcDbLinetypeTableRecord
  2
DOT
 70
64
  3
. . . . . . . . . . . . . . . . . . . .
 72
65
 73
2
 40
0.2
 49
0.1
 74
0
 49
-0.1
 74
0
  0
LTYPE
  5
1F9
100
AcDbSymbolTableRecord
100
AcDbLinetypeTableRecord
  2
DASHED
 70
64
  3
- - - - - - - - - - - - - - - - - - - -
 72
65
 73
2
 40
0.2
 49
0.1
 74
0
 49
-0.1
 74
0
  0
ENDTAB
  0
TABLE
  2
LAYER
  5
2
100
AcDbSymbolTable
 70
36
  0
LAYER
  5
10
100
AcDbSymbolTableRecord
100
AcDbLayerTableRecord
  2
0
 70
0
 62
7
  6
CONTINUOUS
370
-3
390
F
  0
LAYER
  5
1FA
100
AcDbSymbolTableRecord
100
AcDbLayerTableRecord
  2
DEFAULT_1
 70
0
 62
7
  6
CENTER
370
-3
390
F
  0
LAYER
  5
1FB
100
AcDbSymbolTableRecord
100
AcDbLayerTableRecord
  2
DEFAULT_2
 70
0
 62
8
  6
HIDDEN
370
-3
390
F
  0
LAYER
  5
1FC
100
AcDbSymbolTableRecord
100
AcDbLayerTableRecord
  2
DEFAULT_3
 70
0
 62
7
  6
PHANTOM
370
-3
390
F
  0
LAYER
  5
1FD
100
AcDbSymbolTableRecord
100
AcDbLayerTableRecord
  2
00_COMPONENTS
 70
0
 62
7
  6
CONTINUOUS
370
-3
390
F
  0
LAYER
  5
1FE
100
AcDbSymbolTableRecord
100
AcDbLayerTableRecord
  2
01_1_DEFAULT_DATUMS
 70
0
 62
7
  6
CONTINUOUS
370
-3
390
F
  0
LAYER
  5
1FF
100
AcDbSymbolTableRecord
100
AcDbLayerTableRecord
  2
01_PLANES
 70
0
 62
7
  6
CONTINUOUS
370
-3
390
F
  0
LAYER
  5
200
100
AcDbSymbolTableRecord
100
AcDbLayerTableRecord
  2
02_COORD_SYS
 70
0
 62
7
  6
CONTINUOUS
370
-3
390
F
  0
LAYER
  5
201
100
AcDbSymbolTableRecord
100
AcDbLayerTableRecord
  2
03_AXES
 70
0
 62
7
  6
CONTINUOUS
370
-3
390
F
  0
LAYER
  5
202
100
AcDbSymbolTableRecord
100
AcDbLayerTableRecord
  2
04_POINTS
 70
0
 62
7
  6
CONTINUOUS
370
-3
390
F
  0
LAYER
  5
203
100
AcDbSymbolTableRecord
100
AcDbLayerTableRecord
  2
05_CURVES
 70
0
 62
7
  6
CONTINUOUS
370
-3
390
F
  0
LAYER
  5
204
100
AcDbSymbolTableRecord
100
AcDbLayerTableRecord
  2
06_SURFS
 70
0
 62
7
  6
CONTINUOUS
370
-3
390
F
  0
LAYER
  5
205
100
AcDbSymbolTableRecord
100
AcDbLayerTableRecord
  2
07_COSMETICS
 70
0
 62
7
  6
CONTINUOUS
370
-3
390
F
  0
LAYER
  5
206
100
AcDbSymbolTableRecord
100
AcDbLayerTableRecord
  2
10_NOTES
 70
0
 62
7
  6
CONTINUOUS
370
-3
390
F
  0
LAYER
  5
207
100
AcDbSymbolTableRecord
100
AcDbLayerTableRecord
  2
11_NOTES_PUB
 70
0
 62
7
  6
CONTINUOUS
370
-3
390
F
  0
LAYER
  5
208
100
AcDbSymbolTableRecord
100
AcDbLayerTableRecord
  2
13_REF_GTOL
 70
0
 62
7
  6
CONTINUOUS
370
-3
390
F
  0
LAYER
  5
209
100
AcDbSymbolTableRecord
100
AcDbLayerTableRecord
  2
16_MISC
 70
0
 62
7
  6
CONTINUOUS
370
-3
390
F
  0
LAYER
  5
20A
100
AcDbSymbolTableRecord
100
AcDbLayerTableRecord
  2
17_NO_PRINT
 70
0
 62
7
  6
CONTINUOUS
370
-3
390
F
  0
LAYER
  5
20B
100
AcDbSymbolTableRecord
100
AcDbLayerTableRecord
  2
18_DATUM_CAMS_JOINTS
 70
0
 62
7
  6
CONTINUOUS
370
-3
390
F
  0
LAYER
  5
20C
100
AcDbSymbolTableRecord
100
AcDbLayerTableRecord
  2
19_DATUM_FUNCTIONAL
 70
0
 62
7
  6
CONTINUOUS
370
-3
390
F
  0
LAYER
  5
20D
100
AcDbSymbolTableRecord
100
AcDbLayerTableRecord
  2
20_DATUM_KINEMATIC_SCHEME
 70
0
 62
7
  6
CONTINUOUS
370
-3
390
F
  0
ENDTAB
  0
TABLE
  2
STYLE
  5
3
100
AcDbSymbolTable
 70
1
  0
STYLE
  5
11
100
AcDbSymbolTableRecord
100
AcDbTextStyleTableRecord
  2
STANDARD
 70
0
 40
0.0
 41
0.8
 50
0.0
 71
0
 42
0.2
  3
txt
  4

  0
STYLE
  5
20E
100
AcDbSymbolTableRecord
100
AcDbTextStyleTableRecord
  2
TEXTSTYLE_1
 70
0
 40
0.0
 41
0.8
 50
0.0
 71
0
 42
0.2
  3
gdt
  4

  0
ENDTAB
  0
TABLE
  2
VIEW
  5
6
100
AcDbSymbolTable
 70
0
  0
ENDTAB
  0
TABLE
  2
UCS
  5
7
100
AcDbSymbolTable
 70
0
  0
ENDTAB
  0
TABLE
  2
APPID
  5
9
100
AcDbSymbolTable
 70
1
  0
APPID
  5
20F
100
AcDbSymbolTableRecord
100
AcDbRegAppTableRecord
  2
ACAD
 70
0
  0
ENDTAB
  0
TABLE
  2
BLOCK_RECORD
  5
1
100
AcDbSymbolTable
 70
0
  0
BLOCK_RECORD
  5
210
100
AcDbSymbolTableRecord
100
AcDbBlockTableRecord
  2
*Model_Space
  0
BLOCK_RECORD
  5
211
100
AcDbSymbolTableRecord
100
AcDbBlockTableRecord
  2
*Paper_Space
  0
BLOCK_RECORD
  5
212
100
AcDbSymbolTableRecord
100
AcDbBlockTableRecord
  2
_FILLED
  0
ENDTAB
  0
TABLE
  2
DIMSTYLE
  5
A
100
AcDbSymbolTable
 70
1
100
AcDbDimStyleTable
 71
0
  0
DIMSTYLE
105
213
100
AcDbSymbolTableRecord
100
AcDbDimStyleTableRecord
  2
STANDARD
 70
0
  3

  4

 40
1.0
 41
1.1411557887
 42
1.0
 43
0.38
 44
1.0
 45
0.0
 46
0.0
 47
0.01
 48
0.01
140
1.5976181042
141
0.09
142
0.0
143
25.4
144
1.0
145
0.0
146
1.0
147
0.625
 71
1
 72
0
 73
0
 74
0
 75
0
 76
0
 77
1
 78
8
 79
2
170
0
171
1
172
0
173
0
174
0
175
0
176
0
177
0
178
0
270
2
179
2
271
2
272
2
273
2
274
2
275
0
280
0
281
0
282
0
283
1
284
8
285
0
286
0
287
3
288
0
340
11
278
46
341
212
342
212
343
212
344
212
  0
ENDTAB
  0
ENDSEC
  0
SECTION
  2
BLOCKS
  0
BLOCK
  5
20
100
AcDbEntity
  8
0
100
AcDbBlockBegin
  2
*Model_Space
 70
0
 10
0.0
 20
0.0
 30
0.0
  3
*Model_Space
  1

  0
ENDBLK
  5
21
100
AcDbEntity
  8
0
100
AcDbBlockEnd
  0
BLOCK
  5
1C
100
AcDbEntity
  8
0
100
AcDbBlockBegin
  2
*Paper_Space
 70
0
 10
0.0
 20
0.0
 30
0.0
  3
*Paper_Space
  1

  0
ENDBLK
  5
1D
100
AcDbEntity
  8
0
100
AcDbBlockEnd
  0
BLOCK
  5
214
100
AcDbEntity
  8
0
100
AcDbBlockBegin
  2
_FILLED
 70
64
 10
0.0
 20
0.0
  3
_FILLED
  1

  0
SOLID
  5
215
100
AcDbEntity
  8
0
  6
BYBLOCK
 62
0
100
AcDbTrace
 10
0.0
 20
0.0
 11
-1.0
 21
0.25
 12
-1.0
 22
-0.25
 13
-1.0
 23
-0.25
  0
ENDBLK
  5
216
100
AcDbEntity
  8
0
  6
BYBLOCK
 62
0
100
AcDbBlockEnd
  0
ENDSEC
  0
SECTION
  2
ENTITIES
  0
LINE
  5
217
100
AcDbEntity
  8
0
100
AcDbLine
 62
7
  6
CONTINUOUS
 10
40.5854390565
 20
10.8687755865
 11
57.3681600064
 21
10.8687755865
  0
LINE
  5
218
100
AcDbEntity
  8
0
100
AcDbLine
 62
7
  6
CONTINUOUS
 10
38.0060334427
 20
12.2975465916
 11
60.5060208904
 21
12.2975465916
  0
LINE
  5
219
100
AcDbEntity
  8
0
100
AcDbLine
 62
7
  6
CONTINUOUS
 10
38.0060334427
 20
18.0532639438
 11
60.5060208904
 21
18.0532639438
  0
LINE
  5
21A
100
AcDbEntity
  8
0
100
AcDbLine
 62
7
  6
CONTINUOUS
 10
60.5060208904
 20
20.0877562743
 11
57.3874315994
 21
20.0877562743
  0
LINE
  5
21B
100
AcDbEntity
  8
0
100
AcDbLine
 62
7
  6
CONTINUOUS
 10
41.1246227328
 20
20.0877562743
 11
38.0060334427
 21
20.0877562743
  0
LINE
  5
21C
100
AcDbEntity
  8
0
100
AcDbLine
 62
7
  6
CONTINUOUS
 10
42.8541618754
 20
113.3717391205
 11
40.516562261
 21
111.9225352231
  0
LINE
  5
21D
100
AcDbEntity
  8
0
100
AcDbLine
 62
7
  6
CONTINUOUS
 10
43.5559770371
 20
113.0298983379
 11
41.4120504172
 21
111.7007627604
  0
LINE
  5
21E
100
AcDbEntity
  8
0
100
AcDbLine
 62
7
  6
CONTINUOUS
 10
47.8276658754
 20
113.3717391205
 11
45.490066261
 21
111.9225352231
  0
LINE
  5
21F
100
AcDbEntity
  8
0
100
AcDbLine
 62
7
  6
CONTINUOUS
 10
48.5294810371
 20
113.0298983379
 11
46.3855544172
 21
111.7007627604
  0
LINE
  5
220
100
AcDbEntity
  8
0
100
AcDbLine
 62
7
  6
CONTINUOUS
 10
52.8011698754
 20
113.3717391205
 11
50.463570261
 21
111.9225352231
  0
LINE
  5
221
100
AcDbEntity
  8
0
100
AcDbLine
 62
7
  6
CONTINUOUS
 10
53.5029850371
 20
113.0298983379
 11
51.3590584172
 21
111.7007627604
  0
LINE
  5
222
100
AcDbEntity
  8
0
100
AcDbLine
 62
7
  6
CONTINUOUS
 10
38.0060334427
 20
24.3027269255
 11
41.1246227328
 21
20.0877562743
  0
LINE
  5
223
100
AcDbEntity
  8
0
100
AcDbLine
 62
7
  6
CONTINUOUS
 10
57.7746738754
 20
113.3717391205
 11
55.437074261
 21
111.9225352231
  0
LINE
  5
224
100
AcDbEntity
  8
0
100
AcDbLine
 62
7
  6
CONTINUOUS
 10
58.4764890372
 20
113.0298983378
 11
56.3325624174
 21
111.7007627604
  0
LINE
  5
225
100
AcDbEntity
  8
0
100
AcDbLine
 62
7
  6
CONTINUOUS
 10
42.8541618754
 20
91.3855019561
 11
40.5165622609
 21
89.9362980587
  0
LINE
  5
226
100
AcDbEntity
  8
0
100
AcDbLine
 62
7
  6
CONTINUOUS
 10
43.5559770372
 20
91.0436611734
 11
41.4120504172
 21
89.7145255959
  0
LINE
  5
227
100
AcDbEntity
  8
0
100
AcDbLine
 62
7
  6
CONTINUOUS
 10
47.8276658754
 20
91.3855019561
 11
45.4900662609
 21
89.9362980587
  0
LINE
  5
228
100
AcDbEntity
  8
0
100
AcDbLine
 62
7
  6
CONTINUOUS
 10
48.5294810372
 20
91.0436611734
 11
46.3855544172
 21
89.7145255959
  0
LINE
  5
229
100
AcDbEntity
  8
0
100
AcDbLine
 62
7
  6
CONTINUOUS
 10
38.0060334427
 20
46.6056134171
 11
41.1246227328
 21
46.6056134171
  0
LINE
  5
22A
100
AcDbEntity
  8
0
100
AcDbLine
 62
7
  6
CONTINUOUS
 10
57.3874315994
 20
46.6056134171
 11
60.5060208904
 21
46.6056134171
  0
LINE
  5
22B
100
AcDbEntity
  8
0
100
AcDbLine
 62
7
  6
CONTINUOUS
 10
52.8011698754
 20
91.3855019561
 11
50.4635702609
 21
89.9362980587
  0
LINE
  5
22C
100
AcDbEntity
  8
0
100
AcDbLine
 62
7
  6
CONTINUOUS
 10
53.5029850372
 20
91.0436611734
 11
51.3590584172
 21
89.7145255959
  0
LINE
  5
22D
100
AcDbEntity
  8
0
100
AcDbLine
 62
7
  6
CONTINUOUS
 10
57.7746738754
 20
91.3855019561
 11
55.4370742609
 21
89.9362980587
  0
LINE
  5
22E
100
AcDbEntity
  8
0
100
AcDbLine
 62
7
  6
CONTINUOUS
 10
38.0060334427
 20
12.2975465916
 11
38.0060334427
 21
125.3642741316
  0
LINE
  5
22F
100
AcDbEntity
  8
0
100
AcDbLine
 62
7
  6
CONTINUOUS
 10
58.4764890372
 20
91.0436611733
 11
56.3325624174
 21
89.7145255959
  0
LINE
  5
230
100
AcDbEntity
  8
0
100
AcDbLine
 62
7
  6
CONTINUOUS
 10
39.2616075237
 20
69.9520992117
 11
39.2616075237
 21
115.3196312742
  0
LINE
  5
231
100
AcDbEntity
  8
0
100
AcDbLine
 62
7
  6
CONTINUOUS
 10
39.7806922435
 20
101.5106615159
 11
39.7806922435
 21
97.0577762818
  0
LINE
  5
232
100
AcDbEntity
  8
0
100
AcDbLine
 62
7
  6
CONTINUOUS
 10
39.7806922435
 20
79.5244245038
 11
39.7806922435
 21
75.0715391173
  0
LINE
  5
233
100
AcDbEntity
  8
0
100
AcDbLine
 62
7
  6
CONTINUOUS
 10
40.5854390565
 20
12.2975465916
 11
40.5854390565
 21
10.8687755865
  0
LINE
  5
234
100
AcDbEntity
  8
0
100
AcDbLine
 62
7
  6
CONTINUOUS
 10
41.1246227328
 20
20.0877562743
 11
41.1246227328
 21
46.6056134172
  0
LINE
  5
235
100
AcDbEntity
  8
0
100
AcDbLine
 62
7
  6
CONTINUOUS
 10
42.8541618754
 20
90.6085681568
 11
42.8541618754
 21
91.3855019561
  0
LINE
  5
236
100
AcDbEntity
  8
0
100
AcDbLine
 62
7
  6
CONTINUOUS
 10
42.8541618754
 20
112.5948053213
 11
42.8541618754
 21
113.3717391205
  0
LINE
  5
237
100
AcDbEntity
  8
0
100
AcDbLine
 62
7
  6
CONTINUOUS
 10
43.4522459594
 20
12.2975465916
 11
43.4522459594
 21
10.8687755865
  0
LINE
  5
238
100
AcDbEntity
  8
0
100
AcDbLine
 62
7
  6
CONTINUOUS
 10
43.7725744616
 20
75.0715391173
 11
43.7725744616
 21
79.5244244574
  0
LINE
  5
239
100
AcDbEntity
  8
0
100
AcDbLine
 62
7
  6
CONTINUOUS
 10
43.7725744616
 20
97.0577762818
 11
43.7725744616
 21
101.5106616219
  0
LINE
  5
23A
100
AcDbEntity
  8
0
100
AcDbLine
 62
7
  6
CONTINUOUS
 10
44.7541962435
 20
101.5106615159
 11
44.7541962435
 21
97.0577762818
  0
LINE
  5
23B
100
AcDbEntity
  8
0
100
AcDbLine
 62
7
  6
CONTINUOUS
 10
44.7541962435
 20
79.5244245038
 11
44.7541962435
 21
75.0715391173
  0
LINE
  5
23C
100
AcDbEntity
  8
0
100
AcDbLine
 62
7
  6
CONTINUOUS
 10
60.5060208905
 20
42.3906427642
 11
57.3874315994
 21
46.6056134169
  0
LINE
  5
23D
100
AcDbEntity
  8
0
100
AcDbLine
 62
7
  6
CONTINUOUS
 10
45.9353941713
 20
10.8687755865
 11
45.9353941713
 21
12.2975465916
  0
LINE
  5
23E
100
AcDbEntity
  8
0
100
AcDbLine
 62
7
  6
CONTINUOUS
 10
47.8276658754
 20
90.6085681568
 11
47.8276658754
 21
91.3855019561
  0
LINE
  5
23F
100
AcDbEntity
  8
0
100
AcDbLine
 62
7
  6
CONTINUOUS
 10
47.8276658754
 20
112.5948053213
 11
47.8276658754
 21
113.3717391205
  0
LINE
  5
240
100
AcDbEntity
  8
0
100
AcDbLine
 62
7
  6
CONTINUOUS
 10
48.7460784616
 20
75.0715391173
 11
48.7460784616
 21
79.5244244574
  0
LINE
  5
241
100
AcDbEntity
  8
0
100
AcDbLine
 62
7
  6
CONTINUOUS
 10
48.7460784616
 20
97.0577762818
 11
48.7460784616
 21
101.5106616219
  0
LINE
  5
242
100
AcDbEntity
  8
0
100
AcDbLine
 62
7
  6
CONTINUOUS
 10
49.7277002435
 20
101.5106615159
 11
49.7277002435
 21
97.0577762818
  0
LINE
  5
243
100
AcDbEntity
  8
0
100
AcDbLine
 62
7
  6
CONTINUOUS
 10
49.7277002435
 20
79.5244245038
 11
49.7277002435
 21
75.0715391173
  0
LINE
  5
244
100
AcDbEntity
  8
0
100
AcDbLine
 62
7
  6
CONTINUOUS
 10
52.0837825171
 20
12.2975465916
 11
52.0837825171
 21
10.8687755865
  0
LINE
  5
245
100
AcDbEntity
  8
0
100
AcDbLine
 62
7
  6
CONTINUOUS
 10
52.8011698754
 20
90.6085681568
 11
52.8011698754
 21
91.3855019561
  0
LINE
  5
246
100
AcDbEntity
  8
0
100
AcDbLine
 62
7
  6
CONTINUOUS
 10
52.8011698754
 20
112.5948053213
 11
52.8011698754
 21
113.3717391205
  0
LINE
  5
247
100
AcDbEntity
  8
0
100
AcDbLine
 62
7
  6
CONTINUOUS
 10
59.2504468094
 20
69.9520992117
 11
39.2616075237
 21
69.9520992117
  0
LINE
  5
248
100
AcDbEntity
  8
0
100
AcDbLine
 62
7
  6
CONTINUOUS
 10
39.2616075237
 20
72.1192847746
 11
59.2504468094
 21
72.1192847746
  0
LINE
  5
249
100
AcDbEntity
  8
0
100
AcDbLine
 62
7
  6
CONTINUOUS
 10
53.7195824616
 20
75.0715391173
 11
53.7195824616
 21
79.5244244574
  0
LINE
  5
24A
100
AcDbEntity
  8
0
100
AcDbLine
 62
7
  6
CONTINUOUS
 10
53.7195824616
 20
97.0577762818
 11
53.7195824616
 21
101.5106616219
  0
LINE
  5
24B
100
AcDbEntity
  8
0
100
AcDbLine
 62
7
  6
CONTINUOUS
 10
54.501353103
 20
10.8687755865
 11
54.501353103
 21
12.2975465916
  0
LINE
  5
24C
100
AcDbEntity
  8
0
100
AcDbLine
 62
7
  6
CONTINUOUS
 10
54.7012042435
 20
101.5106615159
 11
54.7012042435
 21
97.0577762818
  0
LINE
  5
24D
100
AcDbEntity
  8
0
100
AcDbLine
 62
7
  6
CONTINUOUS
 10
54.7012042435
 20
79.5244245038
 11
54.7012042435
 21
75.0715391173
  0
LINE
  5
24E
100
AcDbEntity
  8
0
100
AcDbLine
 62
7
  6
CONTINUOUS
 10
57.3681600064
 20
12.2975465916
 11
57.3681600064
 21
10.8687755865
  0
LINE
  5
24F
100
AcDbEntity
  8
0
100
AcDbLine
 62
7
  6
CONTINUOUS
 10
57.3874315994
 20
20.0877562743
 11
57.3874315994
 21
46.6056134171
  0
LINE
  5
250
100
AcDbEntity
  8
0
100
AcDbLine
 62
7
  6
CONTINUOUS
 10
41.1246227328
 20
46.6056134172
 11
38.0060334427
 21
42.3906427659
  0
LINE
  5
251
100
AcDbEntity
  8
0
100
AcDbLine
 62
7
  6
CONTINUOUS
 10
39.2616075237
 20
74.7067743287
 11
59.2504468094
 21
74.7067743287
  0
LINE
  5
252
100
AcDbEntity
  8
0
100
AcDbLine
 62
7
  6
CONTINUOUS
 10
58.6930864614
 20
75.0715391173
 11
54.7012042435
 21
75.0715391173
  0
LINE
  5
253
100
AcDbEntity
  8
0
100
AcDbLine
 62
7
  6
CONTINUOUS
 10
53.7195824616
 20
75.0715391173
 11
49.7277002435
 21
75.0715391173
  0
LINE
  5
254
100
AcDbEntity
  8
0
100
AcDbLine
 62
7
  6
CONTINUOUS
 10
48.7460784616
 20
75.0715391173
 11
44.7541962435
 21
75.0715391173
  0
LINE
  5
255
100
AcDbEntity
  8
0
100
AcDbLine
 62
7
  6
CONTINUOUS
 10
43.7725744616
 20
75.0715391173
 11
39.7806922435
 21
75.0715391173
  0
LINE
  5
256
100
AcDbEntity
  8
0
100
AcDbLine
 62
7
  6
CONTINUOUS
 10
57.7746738754
 20
90.6085681567
 11
57.7746738754
 21
91.3855019561
  0
LINE
  5
257
100
AcDbEntity
  8
0
100
AcDbLine
 62
7
  6
CONTINUOUS
 10
57.7746738754
 20
112.5948053212
 11
57.7746738754
 21
113.3717391205
  0
LINE
  5
258
100
AcDbEntity
  8
0
100
AcDbLine
 62
7
  6
CONTINUOUS
 10
58.6930864614
 20
75.0715391173
 11
58.6930864614
 21
79.5244244574
  0
LINE
  5
259
100
AcDbEntity
  8
0
100
AcDbLine
 62
7
  6
CONTINUOUS
 10
58.6930864614
 20
97.0577762818
 11
58.6930864614
 21
101.5106616219
  0
LINE
  5
25A
100
AcDbEntity
  8
0
100
AcDbLine
 62
7
  6
CONTINUOUS
 10
59.2504468094
 20
69.9520992117
 11
59.2504468094
 21
115.3196312742
  0
LINE
  5
25B
100
AcDbEntity
  8
0
100
AcDbLine
 62
7
  6
CONTINUOUS
 10
60.5060208904
 20
12.2975465916
 11
60.5060208904
 21
125.3642741316
  0
LINE
  5
25C
100
AcDbEntity
  8
0
100
AcDbLine
 62
7
  6
CONTINUOUS
 10
39.7806922435
 20
79.1552944958
 11
43.7725744616
 21
79.1552944958
  0
LINE
  5
25D
100
AcDbEntity
  8
0
100
AcDbLine
 62
7
  6
CONTINUOUS
 10
44.7541962435
 20
79.1552944958
 11
48.7460784616
 21
79.1552944958
  0
LINE
  5
25E
100
AcDbEntity
  8
0
100
AcDbLine
 62
7
  6
CONTINUOUS
 10
49.7277002435
 20
79.1552944958
 11
53.7195824616
 21
79.1552944958
  0
LINE
  5
25F
100
AcDbEntity
  8
0
100
AcDbLine
 62
7
  6
CONTINUOUS
 10
54.7012042435
 20
79.1552944958
 11
58.6930864614
 21
79.1552944958
  0
LINE
  5
260
100
AcDbEntity
  8
0
100
AcDbLine
 62
7
  6
CONTINUOUS
 10
39.7806922435
 20
79.5244244574
 11
43.7725744616
 21
79.5244244574
  0
LINE
  5
261
100
AcDbEntity
  8
0
100
AcDbLine
 62
7
  6
CONTINUOUS
 10
44.7541962435
 20
79.5244244574
 11
48.7460784616
 21
79.5244244574
  0
LINE
  5
262
100
AcDbEntity
  8
0
100
AcDbLine
 62
7
  6
CONTINUOUS
 10
49.7277002435
 20
79.5244244574
 11
53.7195824616
 21
79.5244244574
  0
LINE
  5
263
100
AcDbEntity
  8
0
100
AcDbLine
 62
7
  6
CONTINUOUS
 10
54.7012042435
 20
79.5244244574
 11
58.6930864614
 21
79.5244244574
  0
LINE
  5
264
100
AcDbEntity
  8
0
100
AcDbLine
 62
7
  6
CONTINUOUS
 10
59.2504468094
 20
87.9609882614
 11
39.2616075237
 21
87.9609882614
  0
LINE
  5
265
100
AcDbEntity
  8
0
100
AcDbLine
 62
7
  6
CONTINUOUS
 10
39.2616075237
 20
91.9813989913
 11
59.2504468094
 21
91.9813989913
  0
LINE
  5
266
100
AcDbEntity
  8
0
100
AcDbLine
 62
7
  6
CONTINUOUS
 10
39.2616075237
 20
94.1055219391
 11
59.2504468094
 21
94.1055219391
  0
LINE
  5
267
100
AcDbEntity
  8
0
100
AcDbLine
 62
7
  6
CONTINUOUS
 10
39.2616075237
 20
96.6930114932
 11
59.2504468094
 21
96.6930114932
  0
LINE
  5
268
100
AcDbEntity
  8
0
100
AcDbLine
 62
7
  6
CONTINUOUS
 10
58.6930864614
 20
97.0577762818
 11
54.7012042435
 21
97.0577762818
  0
LINE
  5
269
100
AcDbEntity
  8
0
100
AcDbLine
 62
7
  6
CONTINUOUS
 10
53.7195824616
 20
97.0577762818
 11
49.7277002435
 21
97.0577762818
  0
LINE
  5
26A
100
AcDbEntity
  8
0
100
AcDbLine
 62
7
  6
CONTINUOUS
 10
48.7460784616
 20
97.0577762818
 11
44.7541962435
 21
97.0577762818
  0
LINE
  5
26B
100
AcDbEntity
  8
0
100
AcDbLine
 62
7
  6
CONTINUOUS
 10
43.7725744616
 20
97.0577762818
 11
39.7806922435
 21
97.0577762818
  0
LINE
  5
26C
100
AcDbEntity
  8
0
100
AcDbLine
 62
7
  6
CONTINUOUS
 10
60.5060208904
 20
24.3027269275
 11
57.3874315988
 21
20.0877562743
  0
LINE
  5
26D
100
AcDbEntity
  8
0
100
AcDbLine
 62
7
  6
CONTINUOUS
 10
39.7806922435
 20
101.1415316603
 11
43.7725744616
 21
101.1415316603
  0
LINE
  5
26E
100
AcDbEntity
  8
0
100
AcDbLine
 62
7
  6
CONTINUOUS
 10
44.7541962435
 20
101.1415316603
 11
48.7460784616
 21
101.1415316603
  0
LINE
  5
26F
100
AcDbEntity
  8
0
100
AcDbLine
 62
7
  6
CONTINUOUS
 10
49.7277002435
 20
101.1415316603
 11
53.7195824616
 21
101.1415316603
  0
LINE
  5
270
100
AcDbEntity
  8
0
100
AcDbLine
 62
7
  6
CONTINUOUS
 10
54.7012042435
 20
101.1415316603
 11
58.6930864614
 21
101.1415316603
  0
LINE
  5
271
100
AcDbEntity
  8
0
100
AcDbLine
 62
7
  6
CONTINUOUS
 10
39.7806922435
 20
101.5106616218
 11
43.7725744616
 21
101.5106616218
  0
LINE
  5
272
100
AcDbEntity
  8
0
100
AcDbLine
 62
7
  6
CONTINUOUS
 10
44.7541962435
 20
101.5106616218
 11
48.7460784616
 21
101.5106616218
  0
LINE
  5
273
100
AcDbEntity
  8
0
100
AcDbLine
 62
7
  6
CONTINUOUS
 10
49.7277002435
 20
101.5106616218
 11
53.7195824616
 21
101.5106616218
  0
LINE
  5
274
100
AcDbEntity
  8
0
100
AcDbLine
 62
7
  6
CONTINUOUS
 10
54.7012042435
 20
101.5106616218
 11
58.6930864614
 21
101.5106616218
  0
LINE
  5
275
100
AcDbEntity
  8
0
100
AcDbLine
 62
7
  6
CONTINUOUS
 10
59.2504468094
 20
109.9472254259
 11
39.2616075237
 21
109.9472254259
  0
LINE
  5
276
100
AcDbEntity
  8
0
100
AcDbLine
 62
7
  6
CONTINUOUS
 10
59.2504468094
 20
115.3196312742
 11
39.2616075237
 21
115.3196312742
  0
LINE
  5
277
100
AcDbEntity
  8
0
100
AcDbLine
 62
7
  6
CONTINUOUS
 10
38.0060334427
 20
117.9932080342
 11
60.5060208904
 21
117.9932080342
  0
LINE
  5
278
100
AcDbEntity
  8
0
100
AcDbLine
 62
7
  6
CONTINUOUS
 10
38.0060334427
 20
125.3642741316
 11
60.5060208904
 21
125.3642741316
  0
ARC
  5
279
100
AcDbEntity
  8
0
100
AcDbCircle
 62
7
  6
CONTINUOUS
 10
56.2524780005
 20
92.0928136689
 40
2.334601929
100
AcDbArc
 50
244.1068662354
 51
244.7839584485
  0
ARC
  5
27A
100
AcDbEntity
  8
0
100
AcDbCircle
 62
7
  6
CONTINUOUS
 10
41.3319660004
 20
92.0928136688
 40
2.3346019288
100
AcDbArc
 50
244.1068662354
 51
244.7839584485
  0
ARC
  5
27B
100
AcDbEntity
  8
0
100
AcDbCircle
 62
7
  6
CONTINUOUS
 10
46.3054700003
 20
92.0928136685
 40
2.3346019286
100
AcDbArc
 50
244.1068662353
 51
244.7839584485
  0
ARC
  5
27C
100
AcDbEntity
  8
0
100
AcDbCircle
 62
7
  6
CONTINUOUS
 10
56.2524780002
 20
114.0790508328
 40
2.3346019283
100
AcDbArc
 50
244.1068662371
 51
244.7839584486
  0
ARC
  5
27D
100
AcDbEntity
  8
0
100
AcDbCircle
 62
7
  6
CONTINUOUS
 10
41.331966
 20
114.0790508325
 40
2.334601928
100
AcDbArc
 50
244.1068662372
 51
244.7839584486
  0
ARC
  5
27E
100
AcDbEntity
  8
0
100
AcDbCircle
 62
7
  6
CONTINUOUS
 10
51.2789739999
 20
114.0790508323
 40
2.3346019277
100
AcDbArc
 50
244.1068662372
 51
244.7839584487
  0
ARC
  5
27F
100
AcDbEntity
  8
0
100
AcDbCircle
 62
7
  6
CONTINUOUS
 10
51.2789739997
 20
92.0928136674
 40
2.3346019273
100
AcDbArc
 50
244.1068662352
 51
244.7839584487
  0
ARC
  5
280
100
AcDbEntity
  8
0
100
AcDbCircle
 62
7
  6
CONTINUOUS
 10
46.3054699998
 20
114.079050832
 40
2.3346019274
100
AcDbArc
 50
244.1068662371
 51
244.7839584487
  0
ARC
  5
281
100
AcDbEntity
  8
0
100
AcDbCircle
 62
7
  6
CONTINUOUS
 10
55.3684636282
 20
90.2451612817
 40
0.8987160208
100
AcDbArc
 50
147.5612081071
 51
150.6331798409
  0
ARC
  5
282
100
AcDbEntity
  8
0
100
AcDbCircle
 62
7
  6
CONTINUOUS
 10
40.4479516281
 20
112.2313984462
 40
0.8987160207
100
AcDbArc
 50
147.5612081061
 51
150.633179841
  0
ARC
  5
283
100
AcDbEntity
  8
0
100
AcDbCircle
 62
7
  6
CONTINUOUS
 10
45.4214556281
 20
112.2313984461
 40
0.8987160207
100
AcDbArc
 50
147.5612081061
 51
150.6331798409
  0
ARC
  5
284
100
AcDbEntity
  8
0
100
AcDbCircle
 62
7
  6
CONTINUOUS
 10
40.4479516281
 20
90.2451612817
 40
0.8987160207
100
AcDbArc
 50
147.5612081071
 51
150.6331798409
  0
ARC
  5
285
100
AcDbEntity
  8
0
100
AcDbCircle
 62
7
  6
CONTINUOUS
 10
50.3949596281
 20
112.2313984461
 40
0.8987160207
100
AcDbArc
 50
147.5612081061
 51
150.633179841
  0
ARC
  5
286
100
AcDbEntity
  8
0
100
AcDbCircle
 62
7
  6
CONTINUOUS
 10
45.4214556281
 20
90.2451612817
 40
0.8987160207
100
AcDbArc
 50
147.561208107
 51
150.633179841
  0
ARC
  5
287
100
AcDbEntity
  8
0
100
AcDbCircle
 62
7
  6
CONTINUOUS
 10
50.3949596281
 20
90.2451612817
 40
0.8987160207
100
AcDbArc
 50
147.5612081071
 51
150.633179841
  0
ARC
  5
288
100
AcDbEntity
  8
0
100
AcDbCircle
 62
7
  6
CONTINUOUS
 10
55.3684636281
 20
112.2313984461
 40
0.8987160207
100
AcDbArc
 50
147.5612081061
 51
150.633179841
  0
ARC
  5
289
100
AcDbEntity
  8
0
100
AcDbCircle
 62
7
  6
CONTINUOUS
 10
55.3161915938
 20
90.2745068359
 40
0.8387700174
100
AcDbArc
 50
150.6291105801
 51
156.3656558985
  0
ARC
  5
28A
100
AcDbEntity
  8
0
100
AcDbCircle
 62
7
  6
CONTINUOUS
 10
40.3956795938
 20
112.2607440004
 40
0.8387700174
100
AcDbArc
 50
150.6291105801
 51
156.3656558974
  0
ARC
  5
28B
100
AcDbEntity
  8
0
100
AcDbCircle
 62
7
  6
CONTINUOUS
 10
45.3691835938
 20
112.2607440004
 40
0.8387700174
100
AcDbArc
 50
150.6291105801
 51
156.3656558974
  0
ARC
  5
28C
100
AcDbEntity
  8
0
100
AcDbCircle
 62
7
  6
CONTINUOUS
 10
40.3956795938
 20
90.2745068359
 40
0.8387700174
100
AcDbArc
 50
150.6291105801
 51
156.3656558984
  0
ARC
  5
28D
100
AcDbEntity
  8
0
100
AcDbCircle
 62
7
  6
CONTINUOUS
 10
50.3426875938
 20
112.2607440004
 40
0.8387700174
100
AcDbArc
 50
150.6291105801
 51
156.3656558974
  0
ARC
  5
28E
100
AcDbEntity
  8
0
100
AcDbCircle
 62
7
  6
CONTINUOUS
 10
45.3691835938
 20
90.2745068359
 40
0.8387700174
100
AcDbArc
 50
150.6291105801
 51
156.3656558985
  0
ARC
  5
28F
100
AcDbEntity
  8
0
100
AcDbCircle
 62
7
  6
CONTINUOUS
 10
50.3426875938
 20
90.2745068359
 40
0.8387700173
100
AcDbArc
 50
150.6291105801
 51
156.3656558985
  0
ARC
  5
290
100
AcDbEntity
  8
0
100
AcDbCircle
 62
7
  6
CONTINUOUS
 10
55.3161915938
 20
112.2607440004
 40
0.8387700174
100
AcDbArc
 50
150.6291105801
 51
156.3656558973
  0
SPLINE
  5
291
100
AcDbEntity
  8
0
100
AcDbSpline
 62
7
  6
CONTINUOUS
 70
0
 71
3
 72
17
 73
13
 74
0
 42
0.0000001
 43
0.0000001
 44
0.0000000001
 40
0.0
 40
0.0
 40
0.0
 40
0.0
 40
0.0411706537
 40
0.0842609042
 40
0.1306497095
 40
0.1812953958
 40
0.2965228291
 40
0.4290987675
 40
0.5735778621
 40
0.7223232529
 40
0.8670197786
 40
1.0
 40
1.0
 40
1.0
 40
1.0
 10
53.9288407375
 20
90.9019501599
 30
0.0
 10
53.9288407375
 20
90.8441102072
 30
0.0
 10
53.9129159303
 20
90.7252456418
 30
0.0
 10
53.8437707861
 20
90.5534731178
 30
0.0
 10
53.7311838792
 20
90.3903024278
 30
0.0
 10
53.5186266992
 20
90.1792350811
 30
0.0
 10
53.1555466629
 20
89.9588194097
 30
0.0
 10
52.6314604749
 20
89.7792729849
 30
0.0
 10
52.0379505994
 20
89.6851789118
 30
0.0
 10
51.4202645202
 20
89.6839741715
 30
0.0
 10
50.8258764079
 20
89.7754948262
 30
0.0
 10
50.4533748936
 20
89.9010856167
 30
0.0
 10
50.2843574557
 20
89.9806810747
 30
0.0
  0
SPLINE
  5
292
100
AcDbEntity
  8
0
100
AcDbSpline
 62
7
  6
CONTINUOUS
 70
0
 71
3
 72
11
 73
7
 74
0
 42
0.0000001
 43
0.0000001
 44
0.0000000001
 40
0.0
 40
0.0
 40
0.0
 40
0.0
 40
0.2977213854
 40
0.5596034762
 40
0.7896894308
 40
1.0
 40
1.0
 40
1.0
 40
1.0
 10
50.2594673839
 20
89.9925821518
 30
0.0
 10
50.1492128177
 20
90.0461052723
 30
0.0
 10
49.9490944317
 20
90.1631826585
 30
0.0
 10
49.7062212653
 20
90.3837545722
 30
0.0
 10
49.5503928859
 20
90.632699258
 30
0.0
 10
49.513124421
 20
90.8153741613
 30
0.0
 10
49.513124421
 20
90.9019501599
 30
0.0
  0
SPLINE
  5
293
100
AcDbEntity
  8
0
100
AcDbSpline
 62
7
  6
CONTINUOUS
 70
0
 71
3
 72
17
 73
13
 74
0
 42
0.0000001
 43
0.0000001
 44
0.0000000001
 40
0.0
 40
0.0
 40
0.0
 40
0.0
 40
0.0411706537
 40
0.0842609042
 40
0.1306497095
 40
0.1812953958
 40
0.2965228291
 40
0.4290987675
 40
0.5735778621
 40
0.7223232529
 40
0.8670197786
 40
1.0
 40
1.0
 40
1.0
 40
1.0
 10
58.9023447375
 20
90.9019501599
 30
0.0
 10
58.9023447375
 20
90.8441102072
 30
0.0
 10
58.8864199303
 20
90.7252456418
 30
0.0
 10
58.8172747861
 20
90.5534731178
 30
0.0
 10
58.7046878792
 20
90.3903024278
 30
0.0
 10
58.4921306992
 20
90.1792350811
 30
0.0
 10
58.1290506629
 20
89.9588194097
 30
0.0
 10
57.6049644749
 20
89.7792729849
 30
0.0
 10
57.0114545994
 20
89.6851789118
 30
0.0
 10
56.3937685202
 20
89.6839741715
 30
0.0
 10
55.7993804079
 20
89.7754948262
 30
0.0
 10
55.4268788936
 20
89.9010856167
 30
0.0
 10
55.2578614557
 20
89.9806810747
 30
0.0
  0
SPLINE
  5
294
100
AcDbEntity
  8
0
100
AcDbSpline
 62
7
  6
CONTINUOUS
 70
0
 71
3
 72
11
 73
7
 74
0
 42
0.0000001
 43
0.0000001
 44
0.0000000001
 40
0.0
 40
0.0
 40
0.0
 40
0.0
 40
0.2977213854
 40
0.5596034762
 40
0.7896894308
 40
1.0
 40
1.0
 40
1.0
 40
1.0
 10
55.2329713839
 20
89.9925821518
 30
0.0
 10
55.1227168177
 20
90.0461052723
 30
0.0
 10
54.9225984317
 20
90.1631826585
 30
0.0
 10
54.6797252653
 20
90.3837545722
 30
0.0
 10
54.5238968859
 20
90.632699258
 30
0.0
 10
54.486628421
 20
90.8153741613
 30
0.0
 10
54.486628421
 20
90.9019501599
 30
0.0
  0
SPLINE
  5
295
100
AcDbEntity
  8
0
100
AcDbSpline
 62
7
  6
CONTINUOUS
 70
0
 71
3
 72
17
 73
13
 74
0
 42
0.0000001
 43
0.0000001
 44
0.0000000001
 40
0.0
 40
0.0
 40
0.0
 40
0.0
 40
0.0411706537
 40
0.0842609042
 40
0.1306497095
 40
0.1812953958
 40
0.2965228291
 40
0.4290987675
 40
0.5735778621
 40
0.7223232529
 40
0.8670197786
 40
1.0
 40
1.0
 40
1.0
 40
1.0
 10
43.9818327375
 20
90.9019501599
 30
0.0
 10
43.9818327375
 20
90.8441102072
 30
0.0
 10
43.9659079303
 20
90.7252456418
 30
0.0
 10
43.8967627861
 20
90.5534731178
 30
0.0
 10
43.7841758792
 20
90.3903024278
 30
0.0
 10
43.5716186992
 20
90.1792350811
 30
0.0
 10
43.2085386629
 20
89.9588194097
 30
0.0
 10
42.6844524749
 20
89.7792729849
 30
0.0
 10
42.0909425994
 20
89.6851789118
 30
0.0
 10
41.4732565202
 20
89.6839741715
 30
0.0
 10
40.8788684079
 20
89.7754948262
 30
0.0
 10
40.5063668936
 20
89.9010856167
 30
0.0
 10
40.3373494557
 20
89.9806810747
 30
0.0
  0
SPLINE
  5
296
100
AcDbEntity
  8
0
100
AcDbSpline
 62
7
  6
CONTINUOUS
 70
0
 71
3
 72
11
 73
7
 74
0
 42
0.0000001
 43
0.0000001
 44
0.0000000001
 40
0.0
 40
0.0
 40
0.0
 40
0.0
 40
0.2977213854
 40
0.5596034762
 40
0.7896894308
 40
1.0
 40
1.0
 40
1.0
 40
1.0
 10
40.3124593839
 20
89.9925821518
 30
0.0
 10
40.2022048177
 20
90.0461052723
 30
0.0
 10
40.0020864317
 20
90.1631826585
 30
0.0
 10
39.7592132653
 20
90.3837545722
 30
0.0
 10
39.6033848859
 20
90.632699258
 30
0.0
 10
39.566116421
 20
90.8153741613
 30
0.0
 10
39.566116421
 20
90.9019501599
 30
0.0
  0
SPLINE
  5
297
100
AcDbEntity
  8
0
100
AcDbSpline
 62
7
  6
CONTINUOUS
 70
0
 71
3
 72
17
 73
13
 74
0
 42
0.0000001
 43
0.0000001
 44
0.0000000001
 40
0.0
 40
0.0
 40
0.0
 40
0.0
 40
0.0411706537
 40
0.0842609042
 40
0.1306497095
 40
0.1812953958
 40
0.2965228291
 40
0.4290987675
 40
0.5735778621
 40
0.7223232529
 40
0.8670197786
 40
1.0
 40
1.0
 40
1.0
 40
1.0
 10
48.9553367375
 20
90.9019501599
 30
0.0
 10
48.9553367375
 20
90.8441102072
 30
0.0
 10
48.9394119303
 20
90.7252456418
 30
0.0
 10
48.8702667861
 20
90.5534731178
 30
0.0
 10
48.7576798792
 20
90.3903024278
 30
0.0
 10
48.5451226992
 20
90.1792350811
 30
0.0
 10
48.1820426629
 20
89.9588194097
 30
0.0
 10
47.6579564749
 20
89.7792729849
 30
0.0
 10
47.0644465994
 20
89.6851789118
 30
0.0
 10
46.4467605202
 20
89.6839741715
 30
0.0
 10
45.8523724079
 20
89.7754948262
 30
0.0
 10
45.4798708936
 20
89.9010856167
 30
0.0
 10
45.3108534557
 20
89.9806810747
 30
0.0
  0
SPLINE
  5
298
100
AcDbEntity
  8
0
100
AcDbSpline
 62
7
  6
CONTINUOUS
 70
0
 71
3
 72
11
 73
7
 74
0
 42
0.0000001
 43
0.0000001
 44
0.0000000001
 40
0.0
 40
0.0
 40
0.0
 40
0.0
 40
0.2977213854
 40
0.5596034762
 40
0.7896894308
 40
1.0
 40
1.0
 40
1.0
 40
1.0
 10
45.2859633839
 20
89.9925821518
 30
0.0
 10
45.1757088177
 20
90.0461052723
 30
0.0
 10
44.9755904317
 20
90.1631826585
 30
0.0
 10
44.7327172653
 20
90.3837545722
 30
0.0
 10
44.5768888859
 20
90.632699258
 30
0.0
 10
44.539620421
 20
90.8153741613
 30
0.0
 10
44.539620421
 20
90.9019501599
 30
0.0
  0
SPLINE
  5
299
100
AcDbEntity
  8
0
100
AcDbSpline
 62
7
  6
CONTINUOUS
 70
0
 71
3
 72
17
 73
13
 74
0
 42
0.0000001
 43
0.0000001
 44
0.0000000001
 40
0.0
 40
0.0
 40
0.0
 40
0.0
 40
0.0411706537
 40
0.0842609042
 40
0.1306497095
 40
0.1812953958
 40
0.2965228291
 40
0.4290987675
 40
0.5735778621
 40
0.7223232529
 40
0.8670197786
 40
1.0
 40
1.0
 40
1.0
 40
1.0
 10
58.9023447375
 20
112.8881873244
 30
0.0
 10
58.9023447375
 20
112.8303473717
 30
0.0
 10
58.8864199303
 20
112.7114828063
 30
0.0
 10
58.8172747861
 20
112.5397102823
 30
0.0
 10
58.7046878792
 20
112.3765395923
 30
0.0
 10
58.4921306992
 20
112.1654722456
 30
0.0
 10
58.1290506629
 20
111.9450565742
 30
0.0
 10
57.6049644749
 20
111.7655101494
 30
0.0
 10
57.0114545994
 20
111.6714160763
 30
0.0
 10
56.3937685202
 20
111.670211336
 30
0.0
 10
55.7993804079
 20
111.7617319907
 30
0.0
 10
55.4268788936
 20
111.8873227812
 30
0.0
 10
55.2578614557
 20
111.9669182392
 30
0.0
  0
SPLINE
  5
29A
100
AcDbEntity
  8
0
100
AcDbSpline
 62
7
  6
CONTINUOUS
 70
0
 71
3
 72
11
 73
7
 74
0
 42
0.0000001
 43
0.0000001
 44
0.0000000001
 40
0.0
 40
0.0
 40
0.0
 40
0.0
 40
0.2977213854
 40
0.5596034762
 40
0.7896894308
 40
1.0
 40
1.0
 40
1.0
 40
1.0
 10
55.2329713839
 20
111.9788193162
 30
0.0
 10
55.1227168178
 20
112.0323424368
 30
0.0
 10
54.9225984317
 20
112.1494198229
 30
0.0
 10
54.6797252653
 20
112.3699917367
 30
0.0
 10
54.5238968859
 20
112.6189364225
 30
0.0
 10
54.486628421
 20
112.8016113258
 30
0.0
 10
54.486628421
 20
112.8881873244
 30
0.0
  0
SPLINE
  5
29B
100
AcDbEntity
  8
0
100
AcDbSpline
 62
7
  6
CONTINUOUS
 70
0
 71
3
 72
17
 73
13
 74
0
 42
0.0000001
 43
0.0000001
 44
0.0000000001
 40
0.0
 40
0.0
 40
0.0
 40
0.0
 40
0.0411706537
 40
0.0842609042
 40
0.1306497095
 40
0.1812953958
 40
0.2965228291
 40
0.4290987675
 40
0.5735778621
 40
0.7223232529
 40
0.8670197786
 40
1.0
 40
1.0
 40
1.0
 40
1.0
 10
53.9288407375
 20
112.8881873244
 30
0.0
 10
53.9288407375
 20
112.8303473717
 30
0.0
 10
53.9129159303
 20
112.7114828063
 30
0.0
 10
53.8437707861
 20
112.5397102823
 30
0.0
 10
53.7311838792
 20
112.3765395923
 30
0.0
 10
53.5186266992
 20
112.1654722456
 30
0.0
 10
53.1555466629
 20
111.9450565742
 30
0.0
 10
52.6314604749
 20
111.7655101494
 30
0.0
 10
52.0379505994
 20
111.6714160763
 30
0.0
 10
51.4202645202
 20
111.670211336
 30
0.0
 10
50.8258764079
 20
111.7617319907
 30
0.0
 10
50.4533748936
 20
111.8873227812
 30
0.0
 10
50.2843574557
 20
111.9669182392
 30
0.0
  0
SPLINE
  5
29C
100
AcDbEntity
  8
0
100
AcDbSpline
 62
7
  6
CONTINUOUS
 70
0
 71
3
 72
11
 73
7
 74
0
 42
0.0000001
 43
0.0000001
 44
0.0000000001
 40
0.0
 40
0.0
 40
0.0
 40
0.0
 40
0.2977213854
 40
0.5596034762
 40
0.7896894308
 40
1.0
 40
1.0
 40
1.0
 40
1.0
 10
50.2594673839
 20
111.9788193162
 30
0.0
 10
50.1492128178
 20
112.0323424368
 30
0.0
 10
49.9490944317
 20
112.1494198229
 30
0.0
 10
49.7062212653
 20
112.3699917367
 30
0.0
 10
49.5503928859
 20
112.6189364225
 30
0.0
 10
49.513124421
 20
112.8016113258
 30
0.0
 10
49.513124421
 20
112.8881873244
 30
0.0
  0
SPLINE
  5
29D
100
AcDbEntity
  8
0
100
AcDbSpline
 62
7
  6
CONTINUOUS
 70
0
 71
3
 72
17
 73
13
 74
0
 42
0.0000001
 43
0.0000001
 44
0.0000000001
 40
0.0
 40
0.0
 40
0.0
 40
0.0
 40
0.0411706537
 40
0.0842609042
 40
0.1306497095
 40
0.1812953958
 40
0.2965228291
 40
0.4290987675
 40
0.5735778621
 40
0.7223232529
 40
0.8670197786
 40
1.0
 40
1.0
 40
1.0
 40
1.0
 10
48.9553367375
 20
112.8881873244
 30
0.0
 10
48.9553367375
 20
112.8303473717
 30
0.0
 10
48.9394119303
 20
112.7114828063
 30
0.0
 10
48.8702667861
 20
112.5397102823
 30
0.0
 10
48.7576798792
 20
112.3765395923
 30
0.0
 10
48.5451226992
 20
112.1654722456
 30
0.0
 10
48.1820426629
 20
111.9450565742
 30
0.0
 10
47.6579564749
 20
111.7655101494
 30
0.0
 10
47.0644465994
 20
111.6714160763
 30
0.0
 10
46.4467605202
 20
111.670211336
 30
0.0
 10
45.8523724079
 20
111.7617319907
 30
0.0
 10
45.4798708936
 20
111.8873227812
 30
0.0
 10
45.3108534557
 20
111.9669182392
 30
0.0
  0
SPLINE
  5
29E
100
AcDbEntity
  8
0
100
AcDbSpline
 62
7
  6
CONTINUOUS
 70
0
 71
3
 72
11
 73
7
 74
0
 42
0.0000001
 43
0.0000001
 44
0.0000000001
 40
0.0
 40
0.0
 40
0.0
 40
0.0
 40
0.2977213854
 40
0.5596034762
 40
0.7896894308
 40
1.0
 40
1.0
 40
1.0
 40
1.0
 10
45.2859633839
 20
111.9788193162
 30
0.0
 10
45.1757088178
 20
112.0323424368
 30
0.0
 10
44.9755904317
 20
112.1494198229
 30
0.0
 10
44.7327172653
 20
112.3699917367
 30
0.0
 10
44.5768888859
 20
112.6189364225
 30
0.0
 10
44.539620421
 20
112.8016113258
 30
0.0
 10
44.539620421
 20
112.8881873244
 30
0.0
  0
SPLINE
  5
29F
100
AcDbEntity
  8
0
100
AcDbSpline
 62
7
  6
CONTINUOUS
 70
0
 71
3
 72
17
 73
13
 74
0
 42
0.0000001
 43
0.0000001
 44
0.0000000001
 40
0.0
 40
0.0
 40
0.0
 40
0.0
 40
0.0411706537
 40
0.0842609042
 40
0.1306497095
 40
0.1812953958
 40
0.2965228291
 40
0.4290987675
 40
0.5735778621
 40
0.7223232529
 40
0.8670197786
 40
1.0
 40
1.0
 40
1.0
 40
1.0
 10
43.9818327375
 20
112.8881873244
 30
0.0
 10
43.9818327375
 20
112.8303473717
 30
0.0
 10
43.9659079303
 20
112.7114828063
 30
0.0
 10
43.8967627861
 20
112.5397102823
 30
0.0
 10
43.7841758792
 20
112.3765395923
 30
0.0
 10
43.5716186992
 20
112.1654722456
 30
0.0
 10
43.2085386629
 20
111.9450565742
 30
0.0
 10
42.6844524749
 20
111.7655101494
 30
0.0
 10
42.0909425994
 20
111.6714160763
 30
0.0
 10
41.4732565202
 20
111.670211336
 30
0.0
 10
40.8788684079
 20
111.7617319907
 30
0.0
 10
40.5063668936
 20
111.8873227812
 30
0.0
 10
40.3373494557
 20
111.9669182392
 30
0.0
  0
SPLINE
  5
2A0
100
AcDbEntity
  8
0
100
AcDbSpline
 62
7
  6
CONTINUOUS
 70
0
 71
3
 72
11
 73
7
 74
0
 42
0.0000001
 43
0.0000001
 44
0.0000000001
 40
0.0
 40
0.0
 40
0.0
 40
0.0
 40
0.2977213854
 40
0.5596034762
 40
0.7896894308
 40
1.0
 40
1.0
 40
1.0
 40
1.0
 10
40.3124593839
 20
111.9788193162
 30
0.0
 10
40.2022048178
 20
112.0323424368
 30
0.0
 10
40.0020864317
 20
112.1494198229
 30
0.0
 10
39.7592132653
 20
112.3699917367
 30
0.0
 10
39.6033848859
 20
112.6189364225
 30
0.0
 10
39.566116421
 20
112.8016113258
 30
0.0
 10
39.566116421
 20
112.8881873244
 30
0.0
  0
SPLINE
  5
2A1
100
AcDbEntity
  8
0
100
AcDbSpline
 62
7
  6
CONTINUOUS
 70
0
 71
3
 72
15
 73
11
 74
0
 42
0.0000001
 43
0.0000001
 44
0.0000000001
 40
0.0
 40
0.0
 40
0.0
 40
0.0
 40
0.1331948849
 40
0.2726220859
 40
0.4135175266
 40
0.5513989572
 40
0.6818560111
 40
0.8012881892
 40
0.9074085048
 40
1.0
 40
1.0
 40
1.0
 40
1.0
 10
57.7746738755
 20
91.3855019562
 30
0.0
 10
57.6299393127
 20
91.4301180433
 30
0.0
 10
57.326693822
 20
91.4996063966
 30
0.0
 10
56.8577905072
 20
91.5468105072
 30
0.0
 10
56.3811963988
 20
91.5378574898
 30
0.0
 10
55.9191468921
 20
91.4734306834
 30
0.0
 10
55.4926128016
 20
91.3563661254
 30
0.0
 10
55.1207780489
 20
91.1916510796
 30
0.0
 10
54.8200348311
 20
90.9865873386
 30
0.0
 10
54.6664283901
 20
90.8161042377
 30
0.0
 10
54.6099788044
 20
90.7272310464
 30
0.0
  0
SPLINE
  5
2A2
100
AcDbEntity
  8
0
100
AcDbSpline
 62
7
  6
CONTINUOUS
 70
0
 71
3
 72
9
 73
5
 74
0
 42
0.0000001
 43
0.0000001
 44
0.0000000001
 40
0.0
 40
0.0
 40
0.0
 40
0.0
 40
0.2411689947
 40
1.0
 40
1.0
 40
1.0
 40
1.0
 10
43.9151473697
 20
112.6095483524
 30
0.0
 10
43.9072274816
 20
112.6268552134
 30
0.0
 10
43.8718565765
 20
112.6974517998
 30
0.0
 10
43.82684915
 20
112.7630542315
 30
0.0
 10
43.789008333
 20
112.8094704684
 30
0.0
  0
SPLINE
  5
2A3
100
AcDbEntity
  8
0
100
AcDbSpline
 62
7
  6
CONTINUOUS
 70
0
 71
3
 72
9
 73
5
 74
0
 42
0.0000001
 43
0.0000001
 44
0.0000000001
 40
0.0
 40
0.0
 40
0.0
 40
0.0
 40
0.2380348306
 40
1.0
 40
1.0
 40
1.0
 40
1.0
 10
43.789008333
 20
112.8094704684
 30
0.0
 10
43.7729035152
 20
112.8292249319
 30
0.0
 10
43.7023227628
 20
112.9098231706
 30
0.0
 10
43.6212075025
 20
112.9808946316
 30
0.0
 10
43.5559770371
 20
113.0298983379
 30
0.0
  0
SPLINE
  5
2A4
100
AcDbEntity
  8
0
100
AcDbSpline
 62
7
  6
CONTINUOUS
 70
0
 71
3
 72
15
 73
11
 74
0
 42
0.0000001
 43
0.0000001
 44
0.0000000001
 40
0.0
 40
0.0
 40
0.0
 40
0.0
 40
0.1331948849
 40
0.2726220859
 40
0.4135175266
 40
0.5513989572
 40
0.6818560111
 40
0.8012881892
 40
0.9074085048
 40
1.0
 40
1.0
 40
1.0
 40
1.0
 10
42.8541618755
 20
113.3717391206
 30
0.0
 10
42.7094273127
 20
113.4163552078
 30
0.0
 10
42.406181822
 20
113.4858435611
 30
0.0
 10
41.9372785072
 20
113.5330476717
 30
0.0
 10
41.4606843988
 20
113.5240946543
 30
0.0
 10
40.9986348921
 20
113.4596678478
 30
0.0
 10
40.5721008017
 20
113.3426032899
 30
0.0
 10
40.2002660489
 20
113.1778882441
 30
0.0
 10
39.8995228311
 20
112.972824503
 30
0.0
 10
39.7459163901
 20
112.8023414021
 30
0.0
 10
39.6894668044
 20
112.7134682109
 30
0.0
  0
SPLINE
  5
2A5
100
AcDbEntity
  8
0
100
AcDbSpline
 62
7
  6
CONTINUOUS
 70
0
 71
3
 72
9
 73
5
 74
0
 42
0.0000001
 43
0.0000001
 44
0.0000000001
 40
0.0
 40
0.0
 40
0.0
 40
0.0
 40
0.2411689947
 40
1.0
 40
1.0
 40
1.0
 40
1.0
 10
43.9151473697
 20
90.6233111879
 30
0.0
 10
43.9072274817
 20
90.6406180489
 30
0.0
 10
43.8718565765
 20
90.7112146354
 30
0.0
 10
43.82684915
 20
90.776817067
 30
0.0
 10
43.789008333
 20
90.8232333039
 30
0.0
  0
SPLINE
  5
2A6
100
AcDbEntity
  8
0
100
AcDbSpline
 62
7
  6
CONTINUOUS
 70
0
 71
3
 72
9
 73
5
 74
0
 42
0.0000001
 43
0.0000001
 44
0.0000000001
 40
0.0
 40
0.0
 40
0.0
 40
0.0
 40
0.2380348306
 40
1.0
 40
1.0
 40
1.0
 40
1.0
 10
43.789008333
 20
90.8232333039
 30
0.0
 10
43.7729035152
 20
90.8429877674
 30
0.0
 10
43.7023227628
 20
90.9235860062
 30
0.0
 10
43.6212075025
 20
90.9946574671
 30
0.0
 10
43.5559770372
 20
91.0436611734
 30
0.0
  0
SPLINE
  5
2A7
100
AcDbEntity
  8
0
100
AcDbSpline
 62
7
  6
CONTINUOUS
 70
0
 71
3
 72
9
 73
5
 74
0
 42
0.0000001
 43
0.0000001
 44
0.0000000001
 40
0.0
 40
0.0
 40
0.0
 40
0.0
 40
0.2411689947
 40
1.0
 40
1.0
 40
1.0
 40
1.0
 10
48.8886513697
 20
112.6095483524
 30
0.0
 10
48.8807314816
 20
112.6268552134
 30
0.0
 10
48.8453605765
 20
112.6974517998
 30
0.0
 10
48.80035315
 20
112.7630542315
 30
0.0
 10
48.762512333
 20
112.8094704684
 30
0.0
  0
SPLINE
  5
2A8
100
AcDbEntity
  8
0
100
AcDbSpline
 62
7
  6
CONTINUOUS
 70
0
 71
3
 72
9
 73
5
 74
0
 42
0.0000001
 43
0.0000001
 44
0.0000000001
 40
0.0
 40
0.0
 40
0.0
 40
0.0
 40
0.2380348306
 40
1.0
 40
1.0
 40
1.0
 40
1.0
 10
48.762512333
 20
112.8094704684
 30
0.0
 10
48.7464075152
 20
112.8292249319
 30
0.0
 10
48.6758267628
 20
112.9098231706
 30
0.0
 10
48.5947115025
 20
112.9808946316
 30
0.0
 10
48.5294810371
 20
113.0298983379
 30
0.0
  0
SPLINE
  5
2A9
100
AcDbEntity
  8
0
100
AcDbSpline
 62
7
  6
CONTINUOUS
 70
0
 71
3
 72
15
 73
11
 74
0
 42
0.0000001
 43
0.0000001
 44
0.0000000001
 40
0.0
 40
0.0
 40
0.0
 40
0.0
 40
0.1331948849
 40
0.2726220859
 40
0.4135175266
 40
0.5513989572
 40
0.6818560111
 40
0.8012881892
 40
0.9074085048
 40
1.0
 40
1.0
 40
1.0
 40
1.0
 10
47.8276658755
 20
113.3717391206
 30
0.0
 10
47.6829313127
 20
113.4163552078
 30
0.0
 10
47.379685822
 20
113.4858435611
 30
0.0
 10
46.9107825072
 20
113.5330476717
 30
0.0
 10
46.4341883988
 20
113.5240946543
 30
0.0
 10
45.9721388921
 20
113.4596678478
 30
0.0
 10
45.5456048017
 20
113.3426032899
 30
0.0
 10
45.1737700489
 20
113.1778882441
 30
0.0
 10
44.8730268311
 20
112.972824503
 30
0.0
 10
44.7194203901
 20
112.8023414021
 30
0.0
 10
44.6629708044
 20
112.7134682109
 30
0.0
  0
SPLINE
  5
2AA
100
AcDbEntity
  8
0
100
AcDbSpline
 62
7
  6
CONTINUOUS
 70
0
 71
3
 72
9
 73
5
 74
0
 42
0.0000001
 43
0.0000001
 44
0.0000000001
 40
0.0
 40
0.0
 40
0.0
 40
0.0
 40
0.2411689947
 40
1.0
 40
1.0
 40
1.0
 40
1.0
 10
53.8621553697
 20
112.6095483524
 30
0.0
 10
53.8542354816
 20
112.6268552134
 30
0.0
 10
53.8188645765
 20
112.6974517998
 30
0.0
 10
53.77385715
 20
112.7630542315
 30
0.0
 10
53.736016333
 20
112.8094704684
 30
0.0
  0
SPLINE
  5
2AB
100
AcDbEntity
  8
0
100
AcDbSpline
 62
7
  6
CONTINUOUS
 70
0
 71
3
 72
9
 73
5
 74
0
 42
0.0000001
 43
0.0000001
 44
0.0000000001
 40
0.0
 40
0.0
 40
0.0
 40
0.0
 40
0.2380348306
 40
1.0
 40
1.0
 40
1.0
 40
1.0
 10
53.736016333
 20
112.8094704684
 30
0.0
 10
53.7199115152
 20
112.8292249319
 30
0.0
 10
53.6493307628
 20
112.9098231706
 30
0.0
 10
53.5682155025
 20
112.9808946316
 30
0.0
 10
53.5029850371
 20
113.0298983379
 30
0.0
  0
SPLINE
  5
2AC
100
AcDbEntity
  8
0
100
AcDbSpline
 62
7
  6
CONTINUOUS
 70
0
 71
3
 72
13
 73
9
 74
0
 42
0.0000001
 43
0.0000001
 44
0.0000000001
 40
0.0
 40
0.0
 40
0.0
 40
0.0
 40
0.0970214711
 40
0.1982485639
 40
0.3067532737
 40
0.4247195696
 40
0.6922034496
 40
1.0
 40
1.0
 40
1.0
 40
1.0
 10
49.513124421
 20
90.9019501599
 30
0.0
 10
49.513124421
 20
90.9575948013
 30
0.0
 10
49.5278008231
 20
91.0717367084
 30
0.0
 10
49.5917469497
 20
91.2372020167
 30
0.0
 10
49.6961019231
 20
91.3950284222
 30
0.0
 10
49.8933203942
 20
91.6001466857
 30
0.0
 10
50.2320389489
 20
91.8177985082
 30
0.0
 10
50.5431511785
 20
91.9334924668
 30
0.0
 10
50.7130567672
 20
91.9813989913
 30
0.0
  0
SPLINE
  5
2AD
100
AcDbEntity
  8
0
100
AcDbSpline
 62
7
  6
CONTINUOUS
 70
0
 71
3
 72
15
 73
11
 74
0
 42
0.0000001
 43
0.0000001
 44
0.0000000001
 40
0.0
 40
0.0
 40
0.0
 40
0.0
 40
0.1331948849
 40
0.2726220859
 40
0.4135175266
 40
0.5513989572
 40
0.6818560111
 40
0.8012881892
 40
0.9074085048
 40
1.0
 40
1.0
 40
1.0
 40
1.0
 10
42.8541618755
 20
91.3855019562
 30
0.0
 10
42.7094273127
 20
91.4301180433
 30
0.0
 10
42.406181822
 20
91.4996063966
 30
0.0
 10
41.9372785072
 20
91.5468105072
 30
0.0
 10
41.4606843988
 20
91.5378574898
 30
0.0
 10
40.9986348921
 20
91.4734306834
 30
0.0
 10
40.5721008016
 20
91.3563661254
 30
0.0
 10
40.2002660489
 20
91.1916510796
 30
0.0
 10
39.8995228311
 20
90.9865873386
 30
0.0
 10
39.7459163901
 20
90.8161042377
 30
0.0
 10
39.6894668044
 20
90.7272310464
 30
0.0
  0
SPLINE
  5
2AE
100
AcDbEntity
  8
0
100
AcDbSpline
 62
7
  6
CONTINUOUS
 70
0
 71
3
 72
13
 73
9
 74
0
 42
0.0000001
 43
0.0000001
 44
0.0000000001
 40
0.0
 40
0.0
 40
0.0
 40
0.0
 40
0.3077965504
 40
0.5752804304
 40
0.6932467263
 40
0.8017514361
 40
0.9029785289
 40
1.0
 40
1.0
 40
1.0
 40
1.0
 10
52.7289083914
 20
91.9813989913
 30
0.0
 10
52.8988139801
 20
91.9334924668
 30
0.0
 10
53.2099262096
 20
91.8177985082
 30
0.0
 10
53.5486447644
 20
91.6001466857
 30
0.0
 10
53.7458632354
 20
91.3950284222
 30
0.0
 10
53.8502182088
 20
91.2372020167
 30
0.0
 10
53.9141643354
 20
91.0717367084
 30
0.0
 10
53.9288407375
 20
90.9575948013
 30
0.0
 10
53.9288407375
 20
90.9019501599
 30
0.0
  0
SPLINE
  5
2AF
100
AcDbEntity
  8
0
100
AcDbSpline
 62
7
  6
CONTINUOUS
 70
0
 71
3
 72
13
 73
9
 74
0
 42
0.0000001
 43
0.0000001
 44
0.0000000001
 40
0.0
 40
0.0
 40
0.0
 40
0.0
 40
0.0970214711
 40
0.1982485639
 40
0.3067532737
 40
0.4247195696
 40
0.6922034496
 40
1.0
 40
1.0
 40
1.0
 40
1.0
 10
54.486628421
 20
90.9019501599
 30
0.0
 10
54.486628421
 20
90.9575948013
 30
0.0
 10
54.5013048231
 20
91.0717367084
 30
0.0
 10
54.5652509497
 20
91.2372020167
 30
0.0
 10
54.6696059231
 20
91.3950284222
 30
0.0
 10
54.8668243942
 20
91.6001466857
 30
0.0
 10
55.2055429489
 20
91.8177985082
 30
0.0
 10
55.5166551785
 20
91.9334924668
 30
0.0
 10
55.6865607672
 20
91.9813989913
 30
0.0
  0
SPLINE
  5
2B0
100
AcDbEntity
  8
0
100
AcDbSpline
 62
7
  6
CONTINUOUS
 70
0
 71
3
 72
13
 73
9
 74
0
 42
0.0000001
 43
0.0000001
 44
0.0000000001
 40
0.0
 40
0.0
 40
0.0
 40
0.0
 40
0.3077965504
 40
0.5752804304
 40
0.6932467263
 40
0.8017514361
 40
0.9029785289
 40
1.0
 40
1.0
 40
1.0
 40
1.0
 10
57.7024123914
 20
91.9813989913
 30
0.0
 10
57.8723179801
 20
91.9334924668
 30
0.0
 10
58.1834302096
 20
91.8177985082
 30
0.0
 10
58.5221487644
 20
91.6001466857
 30
0.0
 10
58.7193672354
 20
91.3950284222
 30
0.0
 10
58.8237222088
 20
91.2372020167
 30
0.0
 10
58.8876683354
 20
91.0717367084
 30
0.0
 10
58.9023447376
 20
90.9575948013
 30
0.0
 10
58.9023447375
 20
90.9019501599
 30
0.0
  0
SPLINE
  5
2B1
100
AcDbEntity
  8
0
100
AcDbSpline
 62
7
  6
CONTINUOUS
 70
0
 71
3
 72
13
 73
9
 74
0
 42
0.0000001
 43
0.0000001
 44
0.0000000001
 40
0.0
 40
0.0
 40
0.0
 40
0.0
 40
0.0970214711
 40
0.1982485639
 40
0.3067532737
 40
0.4247195696
 40
0.6922034496
 40
1.0
 40
1.0
 40
1.0
 40
1.0
 10
39.566116421
 20
90.9019501599
 30
0.0
 10
39.566116421
 20
90.9575948013
 30
0.0
 10
39.5807928231
 20
91.0717367084
 30
0.0
 10
39.6447389497
 20
91.2372020167
 30
0.0
 10
39.7490939231
 20
91.3950284222
 30
0.0
 10
39.9463123942
 20
91.6001466857
 30
0.0
 10
40.2850309489
 20
91.8177985082
 30
0.0
 10
40.5961431785
 20
91.9334924668
 30
0.0
 10
40.7660487672
 20
91.9813989913
 30
0.0
  0
SPLINE
  5
2B2
100
AcDbEntity
  8
0
100
AcDbSpline
 62
7
  6
CONTINUOUS
 70
0
 71
3
 72
9
 73
5
 74
0
 42
0.0000001
 43
0.0000001
 44
0.0000000001
 40
0.0
 40
0.0
 40
0.0
 40
0.0
 40
0.2411689947
 40
1.0
 40
1.0
 40
1.0
 40
1.0
 10
48.8886513697
 20
90.6233111879
 30
0.0
 10
48.8807314817
 20
90.6406180489
 30
0.0
 10
48.8453605765
 20
90.7112146354
 30
0.0
 10
48.80035315
 20
90.776817067
 30
0.0
 10
48.762512333
 20
90.8232333039
 30
0.0
  0
SPLINE
  5
2B3
100
AcDbEntity
  8
0
100
AcDbSpline
 62
7
  6
CONTINUOUS
 70
0
 71
3
 72
9
 73
5
 74
0
 42
0.0000001
 43
0.0000001
 44
0.0000000001
 40
0.0
 40
0.0
 40
0.0
 40
0.0
 40
0.2380348306
 40
1.0
 40
1.0
 40
1.0
 40
1.0
 10
48.762512333
 20
90.8232333039
 30
0.0
 10
48.7464075152
 20
90.8429877674
 30
0.0
 10
48.6758267628
 20
90.9235860062
 30
0.0
 10
48.5947115025
 20
90.9946574671
 30
0.0
 10
48.5294810372
 20
91.0436611734
 30
0.0
  0
SPLINE
  5
2B4
100
AcDbEntity
  8
0
100
AcDbSpline
 62
7
  6
CONTINUOUS
 70
0
 71
3
 72
13
 73
9
 74
0
 42
0.0000001
 43
0.0000001
 44
0.0000000001
 40
0.0
 40
0.0
 40
0.0
 40
0.0
 40
0.3077965504
 40
0.5752804304
 40
0.6932467263
 40
0.8017514361
 40
0.9029785289
 40
1.0
 40
1.0
 40
1.0
 40
1.0
 10
42.7819003914
 20
91.9813989913
 30
0.0
 10
42.9518059801
 20
91.9334924668
 30
0.0
 10
43.2629182096
 20
91.8177985082
 30
0.0
 10
43.6016367644
 20
91.6001466857
 30
0.0
 10
43.7988552354
 20
91.3950284222
 30
0.0
 10
43.9032102088
 20
91.2372020167
 30
0.0
 10
43.9671563354
 20
91.0717367084
 30
0.0
 10
43.9818327375
 20
90.9575948013
 30
0.0
 10
43.9818327375
 20
90.9019501599
 30
0.0
  0
SPLINE
  5
2B5
100
AcDbEntity
  8
0
100
AcDbSpline
 62
7
  6
CONTINUOUS
 70
0
 71
3
 72
13
 73
9
 74
0
 42
0.0000001
 43
0.0000001
 44
0.0000000001
 40
0.0
 40
0.0
 40
0.0
 40
0.0
 40
0.0970214711
 40
0.1982485639
 40
0.3067532737
 40
0.4247195696
 40
0.6922034496
 40
1.0
 40
1.0
 40
1.0
 40
1.0
 10
44.539620421
 20
90.9019501599
 30
0.0
 10
44.539620421
 20
90.9575948013
 30
0.0
 10
44.5542968231
 20
91.0717367084
 30
0.0
 10
44.6182429497
 20
91.2372020167
 30
0.0
 10
44.7225979231
 20
91.3950284222
 30
0.0
 10
44.9198163942
 20
91.6001466857
 30
0.0
 10
45.2585349489
 20
91.8177985082
 30
0.0
 10
45.5696471785
 20
91.9334924668
 30
0.0
 10
45.7395527672
 20
91.9813989913
 30
0.0
  0
SPLINE
  5
2B6
100
AcDbEntity
  8
0
100
AcDbSpline
 62
7
  6
CONTINUOUS
 70
0
 71
3
 72
13
 73
9
 74
0
 42
0.0000001
 43
0.0000001
 44
0.0000000001
 40
0.0
 40
0.0
 40
0.0
 40
0.0
 40
0.3077965504
 40
0.5752804304
 40
0.6932467263
 40
0.8017514361
 40
0.9029785289
 40
1.0
 40
1.0
 40
1.0
 40
1.0
 10
47.7554043914
 20
91.9813989913
 30
0.0
 10
47.9253099801
 20
91.9334924668
 30
0.0
 10
48.2364222096
 20
91.8177985082
 30
0.0
 10
48.5751407644
 20
91.6001466857
 30
0.0
 10
48.7723592354
 20
91.3950284222
 30
0.0
 10
48.8767142088
 20
91.2372020167
 30
0.0
 10
48.9406603354
 20
91.0717367084
 30
0.0
 10
48.9553367375
 20
90.9575948013
 30
0.0
 10
48.9553367375
 20
90.9019501599
 30
0.0
  0
SPLINE
  5
2B7
100
AcDbEntity
  8
0
100
AcDbSpline
 62
7
  6
CONTINUOUS
 70
0
 71
3
 72
15
 73
11
 74
0
 42
0.0000001
 43
0.0000001
 44
0.0000000001
 40
0.0
 40
0.0
 40
0.0
 40
0.0
 40
0.1331948849
 40
0.2726220859
 40
0.4135175266
 40
0.5513989572
 40
0.6818560111
 40
0.8012881892
 40
0.9074085048
 40
1.0
 40
1.0
 40
1.0
 40
1.0
 10
52.8011698755
 20
113.3717391206
 30
0.0
 10
52.6564353127
 20
113.4163552078
 30
0.0
 10
52.353189822
 20
113.4858435611
 30
0.0
 10
51.8842865072
 20
113.5330476717
 30
0.0
 10
51.4076923988
 20
113.5240946543
 30
0.0
 10
50.9456428921
 20
113.4596678478
 30
0.0
 10
50.5191088017
 20
113.3426032899
 30
0.0
 10
50.1472740489
 20
113.1778882441
 30
0.0
 10
49.8465308311
 20
112.972824503
 30
0.0
 10
49.6929243901
 20
112.8023414021
 30
0.0
 10
49.6364748044
 20
112.7134682109
 30
0.0
  0
SPLINE
  5
2B8
100
AcDbEntity
  8
0
100
AcDbSpline
 62
7
  6
CONTINUOUS
 70
0
 71
3
 72
15
 73
11
 74
0
 42
0.0000001
 43
0.0000001
 44
0.0000000001
 40
0.0
 40
0.0
 40
0.0
 40
0.0
 40
0.1331948849
 40
0.2726220859
 40
0.4135175266
 40
0.5513989572
 40
0.6818560111
 40
0.8012881892
 40
0.9074085048
 40
1.0
 40
1.0
 40
1.0
 40
1.0
 10
47.8276658755
 20
91.3855019562
 30
0.0
 10
47.6829313127
 20
91.4301180433
 30
0.0
 10
47.379685822
 20
91.4996063966
 30
0.0
 10
46.9107825072
 20
91.5468105072
 30
0.0
 10
46.4341883988
 20
91.5378574898
 30
0.0
 10
45.9721388921
 20
91.4734306834
 30
0.0
 10
45.5456048016
 20
91.3563661254
 30
0.0
 10
45.1737700489
 20
91.1916510796
 30
0.0
 10
44.8730268311
 20
90.9865873386
 30
0.0
 10
44.7194203901
 20
90.8161042377
 30
0.0
 10
44.6629708044
 20
90.7272310464
 30
0.0
  0
SPLINE
  5
2B9
100
AcDbEntity
  8
0
100
AcDbSpline
 62
7
  6
CONTINUOUS
 70
0
 71
3
 72
9
 73
5
 74
0
 42
0.0000001
 43
0.0000001
 44
0.0000000001
 40
0.0
 40
0.0
 40
0.0
 40
0.0
 40
0.2411689947
 40
1.0
 40
1.0
 40
1.0
 40
1.0
 10
53.8621553697
 20
90.6233111879
 30
0.0
 10
53.8542354817
 20
90.6406180489
 30
0.0
 10
53.8188645765
 20
90.7112146354
 30
0.0
 10
53.77385715
 20
90.776817067
 30
0.0
 10
53.736016333
 20
90.8232333039
 30
0.0
  0
SPLINE
  5
2BA
100
AcDbEntity
  8
0
100
AcDbSpline
 62
7
  6
CONTINUOUS
 70
0
 71
3
 72
9
 73
5
 74
0
 42
0.0000001
 43
0.0000001
 44
0.0000000001
 40
0.0
 40
0.0
 40
0.0
 40
0.0
 40
0.2380348306
 40
1.0
 40
1.0
 40
1.0
 40
1.0
 10
53.736016333
 20
90.8232333039
 30
0.0
 10
53.7199115152
 20
90.8429877674
 30
0.0
 10
53.6493307628
 20
90.9235860062
 30
0.0
 10
53.5682155025
 20
90.9946574671
 30
0.0
 10
53.5029850372
 20
91.0436611734
 30
0.0
  0
SPLINE
  5
2BB
100
AcDbEntity
  8
0
100
AcDbSpline
 62
7
  6
CONTINUOUS
 70
0
 71
3
 72
9
 73
5
 74
0
 42
0.0000001
 43
0.0000001
 44
0.0000000001
 40
0.0
 40
0.0
 40
0.0
 40
0.0
 40
0.2411689947
 40
1.0
 40
1.0
 40
1.0
 40
1.0
 10
58.8356593697
 20
112.6095483524
 30
0.0
 10
58.8277394817
 20
112.6268552134
 30
0.0
 10
58.7923685765
 20
112.6974517998
 30
0.0
 10
58.7473611501
 20
112.7630542314
 30
0.0
 10
58.709520333
 20
112.8094704683
 30
0.0
  0
SPLINE
  5
2BC
100
AcDbEntity
  8
0
100
AcDbSpline
 62
7
  6
CONTINUOUS
 70
0
 71
3
 72
9
 73
5
 74
0
 42
0.0000001
 43
0.0000001
 44
0.0000000001
 40
0.0
 40
0.0
 40
0.0
 40
0.0
 40
0.2380348306
 40
1.0
 40
1.0
 40
1.0
 40
1.0
 10
58.709520333
 20
112.8094704683
 30
0.0
 10
58.6934155152
 20
112.8292249319
 30
0.0
 10
58.6228347629
 20
112.9098231706
 30
0.0
 10
58.5417195026
 20
112.9808946315
 30
0.0
 10
58.4764890372
 20
113.0298983378
 30
0.0
  0
SPLINE
  5
2BD
100
AcDbEntity
  8
0
100
AcDbSpline
 62
7
  6
CONTINUOUS
 70
0
 71
3
 72
21
 73
17
 74
0
 42
0.0000001
 43
0.0000001
 44
0.0000000001
 40
0.0
 40
0.0
 40
0.0
 40
0.0
 40
0.0438874865
 40
0.0913864916
 40
0.1448066979
 40
0.2051435342
 40
0.2721566104
 40
0.3447941717
 40
0.4999890301
 40
0.6551842224
 40
0.7278246047
 40
0.7948421964
 40
0.8551847198
 40
0.9086096003
 40
0.9561118761
 40
1.0
 40
1.0
 40
1.0
 40
1.0
 10
54.486628421
 20
112.8881873244
 30
0.0
 10
54.486628421
 20
112.9683041488
 30
0.0
 10
54.5181866725
 20
113.1362889538
 30
0.0
 10
54.6516343119
 20
113.3688590536
 30
0.0
 10
54.8619378597
 20
113.5786622073
 30
0.0
 10
55.1395734198
 20
113.7602884221
 30
0.0
 10
55.4746219603
 20
113.908631624
 30
0.0
 10
55.9929720777
 20
114.0583798982
 30
0.0
 10
56.6944257706
 20
114.1307143742
 30
0.0
 10
57.3958865285
 20
114.0584021074
 30
0.0
 10
57.9142555228
 20
113.9086666103
 30
0.0
 10
58.2493278018
 20
113.7603197312
 30
0.0
 10
58.5269982615
 20
113.5786967233
 30
0.0
 10
58.7373233525
 20
113.3688785621
 30
0.0
 10
58.8707829322
 20
113.1362971488
 30
0.0
 10
58.9023447375
 20
112.9683053123
 30
0.0
 10
58.9023447375
 20
112.8881873244
 30
0.0
  0
SPLINE
  5
2BE
100
AcDbEntity
  8
0
100
AcDbSpline
 62
7
  6
CONTINUOUS
 70
0
 71
3
 72
21
 73
17
 74
0
 42
0.0000001
 43
0.0000001
 44
0.0000000001
 40
0.0
 40
0.0
 40
0.0
 40
0.0
 40
0.0438874865
 40
0.0913864916
 40
0.1448066979
 40
0.2051435342
 40
0.2721566104
 40
0.3447941717
 40
0.4999890301
 40
0.6551842224
 40
0.7278246047
 40
0.7948421964
 40
0.8551847198
 40
0.9086096003
 40
0.9561118761
 40
1.0
 40
1.0
 40
1.0
 40
1.0
 10
49.513124421
 20
112.8881873244
 30
0.0
 10
49.513124421
 20
112.9683041488
 30
0.0
 10
49.5446826725
 20
113.1362889538
 30
0.0
 10
49.6781303119
 20
113.3688590536
 30
0.0
 10
49.8884338597
 20
113.5786622073
 30
0.0
 10
50.1660694198
 20
113.7602884221
 30
0.0
 10
50.5011179603
 20
113.908631624
 30
0.0
 10
51.0194680777
 20
114.0583798982
 30
0.0
 10
51.7209217706
 20
114.1307143742
 30
0.0
 10
52.4223825285
 20
114.0584021074
 30
0.0
 10
52.9407515228
 20
113.9086666103
 30
0.0
 10
53.2758238018
 20
113.7603197312
 30
0.0
 10
53.5534942615
 20
113.5786967233
 30
0.0
 10
53.7638193525
 20
113.3688785621
 30
0.0
 10
53.8972789322
 20
113.1362971488
 30
0.0
 10
53.9288407375
 20
112.9683053123
 30
0.0
 10
53.9288407375
 20
112.8881873244
 30
0.0
  0
SPLINE
  5
2BF
100
AcDbEntity
  8
0
100
AcDbSpline
 62
7
  6
CONTINUOUS
 70
0
 71
3
 72
15
 73
11
 74
0
 42
0.0000001
 43
0.0000001
 44
0.0000000001
 40
0.0
 40
0.0
 40
0.0
 40
0.0
 40
0.1331948849
 40
0.2726220859
 40
0.4135175266
 40
0.5513989572
 40
0.6818560111
 40
0.8012881892
 40
0.9074085048
 40
1.0
 40
1.0
 40
1.0
 40
1.0
 10
52.8011698755
 20
91.3855019562
 30
0.0
 10
52.6564353127
 20
91.4301180433
 30
0.0
 10
52.353189822
 20
91.4996063966
 30
0.0
 10
51.8842865072
 20
91.5468105072
 30
0.0
 10
51.4076923988
 20
91.5378574898
 30
0.0
 10
50.9456428921
 20
91.4734306834
 30
0.0
 10
50.5191088016
 20
91.3563661254
 30
0.0
 10
50.1472740489
 20
91.1916510796
 30
0.0
 10
49.8465308311
 20
90.9865873386
 30
0.0
 10
49.6929243901
 20
90.8161042377
 30
0.0
 10
49.6364748044
 20
90.7272310464
 30
0.0
  0
SPLINE
  5
2C0
100
AcDbEntity
  8
0
100
AcDbSpline
 62
7
  6
CONTINUOUS
 70
0
 71
3
 72
21
 73
17
 74
0
 42
0.0000001
 43
0.0000001
 44
0.0000000001
 40
0.0
 40
0.0
 40
0.0
 40
0.0
 40
0.0438874865
 40
0.0913864916
 40
0.1448066979
 40
0.2051435342
 40
0.2721566104
 40
0.3447941717
 40
0.4999890301
 40
0.6551842224
 40
0.7278246047
 40
0.7948421964
 40
0.8551847198
 40
0.9086096003
 40
0.9561118761
 40
1.0
 40
1.0
 40
1.0
 40
1.0
 10
44.539620421
 20
112.8881873244
 30
0.0
 10
44.539620421
 20
112.9683041488
 30
0.0
 10
44.5711786725
 20
113.1362889538
 30
0.0
 10
44.7046263119
 20
113.3688590536
 30
0.0
 10
44.9149298597
 20
113.5786622073
 30
0.0
 10
45.1925654198
 20
113.7602884221
 30
0.0
 10
45.5276139603
 20
113.908631624
 30
0.0
 10
46.0459640777
 20
114.0583798982
 30
0.0
 10
46.7474177706
 20
114.1307143742
 30
0.0
 10
47.4488785285
 20
114.0584021074
 30
0.0
 10
47.9672475228
 20
113.9086666103
 30
0.0
 10
48.3023198018
 20
113.7603197312
 30
0.0
 10
48.5799902615
 20
113.5786967233
 30
0.0
 10
48.7903153525
 20
113.3688785621
 30
0.0
 10
48.9237749322
 20
113.1362971488
 30
0.0
 10
48.9553367375
 20
112.9683053123
 30
0.0
 10
48.9553367375
 20
112.8881873244
 30
0.0
  0
SPLINE
  5
2C1
100
AcDbEntity
  8
0
100
AcDbSpline
 62
7
  6
CONTINUOUS
 70
0
 71
3
 72
9
 73
5
 74
0
 42
0.0000001
 43
0.0000001
 44
0.0000000001
 40
0.0
 40
0.0
 40
0.0
 40
0.0
 40
0.2411689947
 40
1.0
 40
1.0
 40
1.0
 40
1.0
 10
58.8356593697
 20
90.6233111879
 30
0.0
 10
58.8277394817
 20
90.6406180489
 30
0.0
 10
58.7923685765
 20
90.7112146353
 30
0.0
 10
58.7473611501
 20
90.7768170669
 30
0.0
 10
58.7095203331
 20
90.8232333038
 30
0.0
  0
SPLINE
  5
2C2
100
AcDbEntity
  8
0
100
AcDbSpline
 62
7
  6
CONTINUOUS
 70
0
 71
3
 72
9
 73
5
 74
0
 42
0.0000001
 43
0.0000001
 44
0.0000000001
 40
0.0
 40
0.0
 40
0.0
 40
0.0
 40
0.2380348306
 40
1.0
 40
1.0
 40
1.0
 40
1.0
 10
58.7095203331
 20
90.8232333038
 30
0.0
 10
58.6934155152
 20
90.8429877674
 30
0.0
 10
58.6228347629
 20
90.9235860061
 30
0.0
 10
58.5417195026
 20
90.994657467
 30
0.0
 10
58.4764890372
 20
91.0436611733
 30
0.0
  0
SPLINE
  5
2C3
100
AcDbEntity
  8
0
100
AcDbSpline
 62
7
  6
CONTINUOUS
 70
0
 71
3
 72
21
 73
17
 74
0
 42
0.0000001
 43
0.0000001
 44
0.0000000001
 40
0.0
 40
0.0
 40
0.0
 40
0.0
 40
0.0438874865
 40
0.0913864916
 40
0.1448066979
 40
0.2051435342
 40
0.2721566104
 40
0.3447941717
 40
0.4999890301
 40
0.6551842224
 40
0.7278246047
 40
0.7948421964
 40
0.8551847198
 40
0.9086096003
 40
0.9561118761
 40
1.0
 40
1.0
 40
1.0
 40
1.0
 10
39.566116421
 20
112.8881873244
 30
0.0
 10
39.566116421
 20
112.9683041488
 30
0.0
 10
39.5976746725
 20
113.1362889538
 30
0.0
 10
39.7311223119
 20
113.3688590536
 30
0.0
 10
39.9414258597
 20
113.5786622073
 30
0.0
 10
40.2190614198
 20
113.7602884221
 30
0.0
 10
40.5541099603
 20
113.908631624
 30
0.0
 10
41.0724600777
 20
114.0583798982
 30
0.0
 10
41.7739137706
 20
114.1307143742
 30
0.0
 10
42.4753745285
 20
114.0584021074
 30
0.0
 10
42.9937435228
 20
113.9086666103
 30
0.0
 10
43.3288158018
 20
113.7603197312
 30
0.0
 10
43.6064862615
 20
113.5786967233
 30
0.0
 10
43.8168113525
 20
113.3688785621
 30
0.0
 10
43.9502709322
 20
113.1362971488
 30
0.0
 10
43.9818327375
 20
112.9683053123
 30
0.0
 10
43.9818327375
 20
112.8881873244
 30
0.0
  0
SPLINE
  5
2C4
100
AcDbEntity
  8
0
100
AcDbSpline
 62
7
  6
CONTINUOUS
 70
0
 71
3
 72
15
 73
11
 74
0
 42
0.0000001
 43
0.0000001
 44
0.0000000001
 40
0.0
 40
0.0
 40
0.0
 40
0.0
 40
0.1331948849
 40
0.2726220859
 40
0.4135175266
 40
0.5513989572
 40
0.6818560111
 40
0.8012881892
 40
0.9074085048
 40
1.0
 40
1.0
 40
1.0
 40
1.0
 10
57.7746738755
 20
113.3717391206
 30
0.0
 10
57.6299393127
 20
113.4163552078
 30
0.0
 10
57.326693822
 20
113.4858435611
 30
0.0
 10
56.8577905072
 20
113.5330476717
 30
0.0
 10
56.3811963988
 20
113.5240946543
 30
0.0
 10
55.9191468921
 20
113.4596678478
 30
0.0
 10
55.4926128017
 20
113.3426032899
 30
0.0
 10
55.1207780489
 20
113.1778882441
 30
0.0
 10
54.8200348311
 20
112.972824503
 30
0.0
 10
54.6664283901
 20
112.8023414021
 30
0.0
 10
54.6099788044
 20
112.7134682109
 30
0.0
  0
ENDSEC
  0
SECTION
  2
OBJECTS
  0
DICTIONARY
  5
C
100
AcDbDictionary
280
0
281
1
  3
ACAD_GROUP
350
D
  3
ACAD_MLINESTYLE
350
17
  3
ACAD_LAYOUT
350
1A
  3
ACAD_PLOTSETTINGS
350
19
  3
ACAD_PLOTSTYLENAME
350
E
  0
DICTIONARY
  5
D
102
{ACAD_REACTORS
330
C
102
}
100
AcDbDictionary
280
0
281
1
  0
ACDBDICTIONARYWDFLT
  5
E
102
{ACAD_REACTORS
330
C
102
}
100
AcDbDictionary
281
1
  3
Normal
350
F
100
AcDbDictionaryWithDefault
340
F
  0
DICTIONARY
  5
17
102
{ACAD_REACTORS
330
C
102
}
100
AcDbDictionary
280
0
281
1
  3
Standard
350
18
  0
DICTIONARY
  5
19
102
{ACAD_REACTORS
330
C
102
}
100
AcDbDictionary
281
1
  0
DICTIONARY
  5
1A
102
{ACAD_REACTORS
330
C
102
}
100
AcDbDictionary
281
1
  3
Model
350
2C5
  3
Layout1
350
2C6
  0
ACDBPLACEHOLDER
  5
F
102
{ACAD_REACTORS
330
E
102
}
  0
MLINESTYLE
  5
18
102
{ACAD_REACTORS
330
17
102
}
100
AcDbMlineStyle
  2
STANDARD
 70
0
  3

 62
256
 51
90.0
 52
90.0
 71
2
 49
0.5
 62
256
  6
BYLAYER
 49
-0.5
 62
256
  6
BYLAYER
  0
LAYOUT
  5
2C5
102
{ACAD_REACTORS
330
1A
102
}
100
AcDbPlotSettings
  1

  2
none_device
  4

  6

 40
0.0
 41
0.0
 42
0.0
 43
0.0
 44
210.0
 45
297.0
 46
0.0
 47
0.0
 48
0.0
 49
0.0
140
0.0
141
0.0
142
1.0
143
1.0
 70
1024
 72
1
 73
0
 74
0
  7

 75
0
147
1.0
148
0.0
149
0.0
100
AcDbLayout
  1
Model
 70
0
 71
0
 10
0.0
 20
0.0
 11
210.0
 21
297.0
 12
0.0
 22
0.0
 32
0.0
 14
0.0
 24
0.0
 34
0.0
 15
0.0
 25
0.0
 35
0.0
146
0.0
 13
0.0
 23
0.0
 33
0.0
 16
1.0
 26
0.0
 36
0.0
 17
0.0
 27
1.0
 37
0.0
 76
0
330
210
345
0
346
0
  0
LAYOUT
  5
2C6
102
{ACAD_REACTORS
330
1A
102
}
100
AcDbPlotSettings
  1

  2
none_device
  4

  6

 40
0.0
 41
0.0
 42
0.0
 43
0.0
 44
210.0
 45
297.0
 46
0.0
 47
0.0
 48
0.0
 49
0.0
140
0.0
141
0.0
142
1.0
143
1.0
 70
0
 72
1
 73
0
 74
0
  7

 75
0
147
1.0
148
0.0
149
0.0
100
AcDbLayout
  1
Layout1
 70
0
 71
1
 10
0.0
 20
0.0
 11
210.0
 21
297.0
 12
0.0
 22
0.0
 32
0.0
 14
0.0
 24
0.0
 34
0.0
 15
0.0
 25
0.0
 35
0.0
146
0.0
 13
0.0
 23
0.0
 33
0.0
 16
1.0
 26
0.0
 36
0.0
 17
0.0
 27
1.0
 37
0.0
 76
0
330
211
345
0
346
0
  0
ENDSEC
  0
EOF
