999
DXF file: C:\Users\sesa63760\Dev\_Creo\CAD\MCADID0002245_3D-CAD\drw0001_3.dxf
999
Pro/ENGINEER 2019471 by Parametric Technology Corporation
  0
SECTION
  2
HEADER
  9
$ACADVER
  1
AC1024
  9
$DWGCODEPAGE
  3
ANSI_1252
  9
$EXTMAX
 10
95.9757510751
 20
135.7371336634
 30
0.0
  9
$EXTMIN
 10
0.0
 20
0.0
 30
0.0
  9
$LIMMIN
 10
0.0
 20
0.0
  9
$LIMMAX
 10
95.9757510751
 20
135.7371336634
  9
$VIEWCTR
 10
47.9878755376
 20
67.8685668317
  9
$VIEWSIZE
 40
135.7371336634
  9
$CLAYER
  8
0
  9
$LTSCALE
 40
8.8480501944
  9
$CELTYPE
  6
BYLAYER
  9
$DIMSCALE
 40
1.0
  9
$DIMASZ
 40
1.1425684652
  9
$DIMEXO
 40
1.0
  9
$DIMDLI
 40
6.1131983161
  9
$DIMEXE
 40
1.0
  9
$DIMCEN
 40
1.4478627591
  9
$DIMLFAC
 40
1.0
  9
$DIMBLK
  1
_FILLED
  9
$DIMALT
 70
0
  9
$DIMALTF
 40
0.0393700787
  9
$DIMTXT
 40
1.5995958513
  9
$DIMTOL
 70
1
  9
$DIMLIM
 70
0
  9
$DIMTFAC
 40
1.0
  9
$DIMTP
 40
0.01
  9
$DIMTM
 40
0.01
  9
$DIMGAP
 40
0.625
  9
$DIMDSEP
 70
46
  9
$AUNITS
 70
0
  9
$PDMODE
 70
3
  9
$PDSIZE
 40
0.3125
  9
$HANDSEED
  5
3E1
  9
$TILEMODE
 70
1
  9
$MEASUREMENT
 70
1
  9
$INSUNITS
 70
4
  0
ENDSEC
  0
SECTION
  2
CLASSES
  0
CLASS
  1
ACDBDICTIONARYWDFLT
  2
AcDbDictionaryWithDefault
  3
AutoCAD 2000
 90
0
 91
1
280
0
281
0
  0
CLASS
  1
ACDBPLACEHOLDER
  2
AcDbPlaceHolder
  3
AutoCAD 2000
 90
0
 91
1
280
0
281
0
  0
CLASS
  1
LAYOUT
  2
AcDbLayout
  3
AutoCAD 2000
 90
0
 91
0
280
0
281
0
  0
ENDSEC
  0
SECTION
  2
TABLES
  0
TABLE
  2
VPORT
  5
8
100
AcDbSymbolTable
 70
2
  0
VPORT
  5
1F4
100
AcDbSymbolTableRecord
100
AcDbViewportTableRecord
  2
*ACTIVE
 70
0
 10
0.0
 20
0.0
 11
1.0
 21
1.0
 12
47.9878755376
 22
67.8685668317
 13
0.0
 23
0.0
 14
1.0
 24
1.0
 15
0.0
 25
0.0
 16
0.0
 26
0.0
 36
1.0
 17
0.0
 27
0.0
 37
0.0
 40
135.7371336634
 41
0.7070707071
 42
50.0
 43
0.0
 44
0.0
 50
0.0
 51
0.0
 71
0
 72
100
 73
1
 74
1
 75
0
 76
0
 77
0
 78
0
  0
ENDTAB
  0
TABLE
  2
LTYPE
  5
5
100
AcDbSymbolTable
 70
6
  0
LTYPE
  5
14
100
AcDbSymbolTableRecord
100
AcDbLinetypeTableRecord
  2
BYBLOCK
 70
0
  3

 72
65
 73
0
 40
0.0
  0
LTYPE
  5
15
100
AcDbSymbolTableRecord
100
AcDbLinetypeTableRecord
  2
BYLAYER
 70
0
  3

 72
65
 73
0
 40
0.0
  0
LTYPE
  5
16
100
AcDbSymbolTableRecord
100
AcDbLinetypeTableRecord
  2
CONTINUOUS
 70
64
  3
Solid line
 72
65
 73
0
 40
0.0
  0
LTYPE
  5
1F5
100
AcDbSymbolTableRecord
100
AcDbLinetypeTableRecord
  2
CENTER
 70
64
  3
____ _ ____ _ ____ _ ____ _ ____ _ ____ _ ____
 72
65
 73
4
 40
0.6
 49
0.375
 74
0
 49
-0.075
 74
0
 49
0.075
 74
0
 49
-0.075
 74
0
  0
LTYPE
  5
1F6
100
AcDbSymbolTableRecord
100
AcDbLinetypeTableRecord
  2
HIDDEN
 70
64
  3
- - - - - - - - - - - - - - - - - - - -
 72
65
 73
2
 40
0.2
 49
0.1
 74
0
 49
-0.1
 74
0
  0
LTYPE
  5
1F7
100
AcDbSymbolTableRecord
100
AcDbLinetypeTableRecord
  2
PHANTOM
 70
64
  3
_____ _ _ _____ _ _ _____ _ _ _____
 72
65
 73
6
 40
0.8
 49
0.45
 74
0
 49
-0.05
 74
0
 49
0.1
 74
0
 49
-0.05
 74
0
 49
0.1
 74
0
 49
-0.05
 74
0
  0
LTYPE
  5
1F8
100
AcDbSymbolTableRecord
100
AcDbLinetypeTableRecord
  2
DOT
 70
64
  3
. . . . . . . . . . . . . . . . . . . .
 72
65
 73
2
 40
0.2
 49
0.1
 74
0
 49
-0.1
 74
0
  0
LTYPE
  5
1F9
100
AcDbSymbolTableRecord
100
AcDbLinetypeTableRecord
  2
DASHED
 70
64
  3
- - - - - - - - - - - - - - - - - - - -
 72
65
 73
2
 40
0.2
 49
0.1
 74
0
 49
-0.1
 74
0
  0
ENDTAB
  0
TABLE
  2
LAYER
  5
2
100
AcDbSymbolTable
 70
36
  0
LAYER
  5
10
100
AcDbSymbolTableRecord
100
AcDbLayerTableRecord
  2
0
 70
0
 62
7
  6
CONTINUOUS
370
-3
390
F
  0
LAYER
  5
1FA
100
AcDbSymbolTableRecord
100
AcDbLayerTableRecord
  2
DEFAULT_1
 70
0
 62
7
  6
CENTER
370
-3
390
F
  0
LAYER
  5
1FB
100
AcDbSymbolTableRecord
100
AcDbLayerTableRecord
  2
DEFAULT_2
 70
0
 62
8
  6
HIDDEN
370
-3
390
F
  0
LAYER
  5
1FC
100
AcDbSymbolTableRecord
100
AcDbLayerTableRecord
  2
DEFAULT_3
 70
0
 62
7
  6
PHANTOM
370
-3
390
F
  0
LAYER
  5
1FD
100
AcDbSymbolTableRecord
100
AcDbLayerTableRecord
  2
00_COMPONENTS
 70
0
 62
7
  6
CONTINUOUS
370
-3
390
F
  0
LAYER
  5
1FE
100
AcDbSymbolTableRecord
100
AcDbLayerTableRecord
  2
01_1_DEFAULT_DATUMS
 70
0
 62
7
  6
CONTINUOUS
370
-3
390
F
  0
LAYER
  5
1FF
100
AcDbSymbolTableRecord
100
AcDbLayerTableRecord
  2
01_PLANES
 70
0
 62
7
  6
CONTINUOUS
370
-3
390
F
  0
LAYER
  5
200
100
AcDbSymbolTableRecord
100
AcDbLayerTableRecord
  2
02_COORD_SYS
 70
0
 62
7
  6
CONTINUOUS
370
-3
390
F
  0
LAYER
  5
201
100
AcDbSymbolTableRecord
100
AcDbLayerTableRecord
  2
03_AXES
 70
0
 62
7
  6
CONTINUOUS
370
-3
390
F
  0
LAYER
  5
202
100
AcDbSymbolTableRecord
100
AcDbLayerTableRecord
  2
04_POINTS
 70
0
 62
7
  6
CONTINUOUS
370
-3
390
F
  0
LAYER
  5
203
100
AcDbSymbolTableRecord
100
AcDbLayerTableRecord
  2
05_CURVES
 70
0
 62
7
  6
CONTINUOUS
370
-3
390
F
  0
LAYER
  5
204
100
AcDbSymbolTableRecord
100
AcDbLayerTableRecord
  2
06_SURFS
 70
0
 62
7
  6
CONTINUOUS
370
-3
390
F
  0
LAYER
  5
205
100
AcDbSymbolTableRecord
100
AcDbLayerTableRecord
  2
07_COSMETICS
 70
0
 62
7
  6
CONTINUOUS
370
-3
390
F
  0
LAYER
  5
206
100
AcDbSymbolTableRecord
100
AcDbLayerTableRecord
  2
10_NOTES
 70
0
 62
7
  6
CONTINUOUS
370
-3
390
F
  0
LAYER
  5
207
100
AcDbSymbolTableRecord
100
AcDbLayerTableRecord
  2
11_NOTES_PUB
 70
0
 62
7
  6
CONTINUOUS
370
-3
390
F
  0
LAYER
  5
208
100
AcDbSymbolTableRecord
100
AcDbLayerTableRecord
  2
13_REF_GTOL
 70
0
 62
7
  6
CONTINUOUS
370
-3
390
F
  0
LAYER
  5
209
100
AcDbSymbolTableRecord
100
AcDbLayerTableRecord
  2
16_MISC
 70
0
 62
7
  6
CONTINUOUS
370
-3
390
F
  0
LAYER
  5
20A
100
AcDbSymbolTableRecord
100
AcDbLayerTableRecord
  2
17_NO_PRINT
 70
0
 62
7
  6
CONTINUOUS
370
-3
390
F
  0
LAYER
  5
20B
100
AcDbSymbolTableRecord
100
AcDbLayerTableRecord
  2
18_DATUM_CAMS_JOINTS
 70
0
 62
7
  6
CONTINUOUS
370
-3
390
F
  0
LAYER
  5
20C
100
AcDbSymbolTableRecord
100
AcDbLayerTableRecord
  2
19_DATUM_FUNCTIONAL
 70
0
 62
7
  6
CONTINUOUS
370
-3
390
F
  0
LAYER
  5
20D
100
AcDbSymbolTableRecord
100
AcDbLayerTableRecord
  2
20_DATUM_KINEMATIC_SCHEME
 70
0
 62
7
  6
CONTINUOUS
370
-3
390
F
  0
ENDTAB
  0
TABLE
  2
STYLE
  5
3
100
AcDbSymbolTable
 70
1
  0
STYLE
  5
11
100
AcDbSymbolTableRecord
100
AcDbTextStyleTableRecord
  2
STANDARD
 70
0
 40
0.0
 41
0.8
 50
0.0
 71
0
 42
0.2
  3
txt
  4

  0
STYLE
  5
20E
100
AcDbSymbolTableRecord
100
AcDbTextStyleTableRecord
  2
TEXTSTYLE_1
 70
0
 40
0.0
 41
0.8
 50
0.0
 71
0
 42
0.2
  3
gdt
  4

  0
ENDTAB
  0
TABLE
  2
VIEW
  5
6
100
AcDbSymbolTable
 70
0
  0
ENDTAB
  0
TABLE
  2
UCS
  5
7
100
AcDbSymbolTable
 70
0
  0
ENDTAB
  0
TABLE
  2
APPID
  5
9
100
AcDbSymbolTable
 70
1
  0
APPID
  5
20F
100
AcDbSymbolTableRecord
100
AcDbRegAppTableRecord
  2
ACAD
 70
0
  0
ENDTAB
  0
TABLE
  2
BLOCK_RECORD
  5
1
100
AcDbSymbolTable
 70
0
  0
BLOCK_RECORD
  5
210
100
AcDbSymbolTableRecord
100
AcDbBlockTableRecord
  2
*Model_Space
  0
BLOCK_RECORD
  5
211
100
AcDbSymbolTableRecord
100
AcDbBlockTableRecord
  2
*Paper_Space
  0
BLOCK_RECORD
  5
212
100
AcDbSymbolTableRecord
100
AcDbBlockTableRecord
  2
_FILLED
  0
ENDTAB
  0
TABLE
  2
DIMSTYLE
  5
A
100
AcDbSymbolTable
 70
1
100
AcDbDimStyleTable
 71
0
  0
DIMSTYLE
105
213
100
AcDbSymbolTableRecord
100
AcDbDimStyleTableRecord
  2
STANDARD
 70
0
  3

  4

 40
1.0
 41
1.1425684652
 42
1.0
 43
0.38
 44
1.0
 45
0.0
 46
0.0
 47
0.01
 48
0.01
140
1.5995958513
141
0.09
142
0.0
143
25.4
144
1.0
145
0.0
146
1.0
147
0.625
 71
1
 72
0
 73
0
 74
0
 75
0
 76
0
 77
1
 78
8
 79
2
170
0
171
1
172
0
173
0
174
0
175
0
176
0
177
0
178
0
270
2
179
2
271
2
272
2
273
2
274
2
275
0
280
0
281
0
282
0
283
1
284
8
285
0
286
0
287
3
288
0
340
11
278
46
341
212
342
212
343
212
344
212
  0
ENDTAB
  0
ENDSEC
  0
SECTION
  2
BLOCKS
  0
BLOCK
  5
20
100
AcDbEntity
  8
0
100
AcDbBlockBegin
  2
*Model_Space
 70
0
 10
0.0
 20
0.0
 30
0.0
  3
*Model_Space
  1

  0
ENDBLK
  5
21
100
AcDbEntity
  8
0
100
AcDbBlockEnd
  0
BLOCK
  5
1C
100
AcDbEntity
  8
0
100
AcDbBlockBegin
  2
*Paper_Space
 70
0
 10
0.0
 20
0.0
 30
0.0
  3
*Paper_Space
  1

  0
ENDBLK
  5
1D
100
AcDbEntity
  8
0
100
AcDbBlockEnd
  0
BLOCK
  5
214
100
AcDbEntity
  8
0
100
AcDbBlockBegin
  2
_FILLED
 70
64
 10
0.0
 20
0.0
  3
_FILLED
  1

  0
SOLID
  5
215
100
AcDbEntity
  8
0
  6
BYBLOCK
 62
0
100
AcDbTrace
 10
0.0
 20
0.0
 11
-1.0
 21
0.25
 12
-1.0
 22
-0.25
 13
-1.0
 23
-0.25
  0
ENDBLK
  5
216
100
AcDbEntity
  8
0
  6
BYBLOCK
 62
0
100
AcDbBlockEnd
  0
ENDSEC
  0
SECTION
  2
ENTITIES
  0
LINE
  5
217
100
AcDbEntity
  8
0
100
AcDbLine
 62
7
  6
CONTINUOUS
 10
26.2488193969
 20
98.3957004228
 11
26.3169993347
 21
98.4518791789
  0
LINE
  5
218
100
AcDbEntity
  8
0
100
AcDbLine
 62
7
  6
CONTINUOUS
 10
26.2479183776
 20
98.3972824443
 11
26.3169993347
 21
98.4518791789
  0
LINE
  5
219
100
AcDbEntity
  8
0
100
AcDbLine
 62
7
  6
CONTINUOUS
 10
26.3170184486
 20
37.6741217561
 11
26.2480768419
 21
37.7286056142
  0
LINE
  5
21A
100
AcDbEntity
  8
0
100
AcDbLine
 62
7
  6
CONTINUOUS
 10
26.3170184486
 20
37.6741217561
 11
26.248965758
 21
37.7301665474
  0
LINE
  5
21B
100
AcDbEntity
  8
0
100
AcDbLine
 62
7
  6
CONTINUOUS
 10
16.5170029174
 20
68.8629357577
 11
16.5170029174
 21
66.5629357577
  0
LINE
  5
21C
100
AcDbEntity
  8
0
100
AcDbLine
 62
7
  6
CONTINUOUS
 10
17.3170029174
 20
67.2629357577
 11
17.3170029174
 21
66.5629357577
  0
LINE
  5
21D
100
AcDbEntity
  8
0
100
AcDbLine
 62
7
  6
CONTINUOUS
 10
18.5170029174
 20
67.2629357577
 11
18.5170026785
 21
66.7629357595
  0
LINE
  5
21E
100
AcDbEntity
  8
0
100
AcDbLine
 62
7
  6
CONTINUOUS
 10
18.5170029174
 20
68.8629357577
 11
18.5170029174
 21
69.6929627261
  0
LINE
  5
21F
100
AcDbEntity
  8
0
100
AcDbLine
 62
7
  6
CONTINUOUS
 10
19.2170029174
 20
72.2629357577
 11
19.2170029174
 21
63.8629357577
  0
LINE
  5
220
100
AcDbEntity
  8
0
100
AcDbLine
 62
7
  6
CONTINUOUS
 10
19.7170029174
 20
64.3629357577
 11
19.7170029174
 21
71.7629357577
  0
LINE
  5
221
100
AcDbEntity
  8
0
100
AcDbLine
 62
7
  6
CONTINUOUS
 10
20.0170029174
 20
71.4629357577
 11
20.0170029174
 21
64.6629357577
  0
LINE
  5
222
100
AcDbEntity
  8
0
100
AcDbLine
 62
7
  6
CONTINUOUS
 10
20.0170029174
 20
63.6629357561
 11
20.0170029174
 21
63.8629357577
  0
LINE
  5
223
100
AcDbEntity
  8
0
100
AcDbLine
 62
7
  6
CONTINUOUS
 10
20.4170029174
 20
68.0629357577
 11
20.4170029174
 21
69.5629357577
  0
LINE
  5
224
100
AcDbEntity
  8
0
100
AcDbLine
 62
7
  6
CONTINUOUS
 10
20.5170029174
 20
68.0629357577
 11
20.5170029174
 21
69.5629357577
  0
LINE
  5
225
100
AcDbEntity
  8
0
100
AcDbLine
 62
7
  6
CONTINUOUS
 10
52.0670029169
 20
38.8129357577
 11
46.5670029179
 21
38.8129357577
  0
LINE
  5
226
100
AcDbEntity
  8
0
100
AcDbLine
 62
7
  6
CONTINUOUS
 10
21.3170029174
 20
67.7129357577
 11
21.3170029174
 21
69.5629357577
  0
LINE
  5
227
100
AcDbEntity
  8
0
100
AcDbLine
 62
7
  6
CONTINUOUS
 10
21.4170029174
 20
68.3629357577
 11
21.4170029174
 21
69.5629357577
  0
LINE
  5
228
100
AcDbEntity
  8
0
100
AcDbLine
 62
7
  6
CONTINUOUS
 10
22.3170080358
 20
94.7701949197
 11
22.3170079942
 21
94.8496558302
  0
LINE
  5
229
100
AcDbEntity
  8
0
100
AcDbLine
 62
7
  6
CONTINUOUS
 10
22.8670029174
 20
68.3629357577
 11
22.8670029174
 21
69.5629357577
  0
LINE
  5
22A
100
AcDbEntity
  8
0
100
AcDbLine
 62
7
  6
CONTINUOUS
 10
22.9170029174
 20
70.5629357577
 11
22.9170029174
 21
64.6629357577
  0
LINE
  5
22B
100
AcDbEntity
  8
0
100
AcDbLine
 62
7
  6
CONTINUOUS
 10
23.1849521098
 20
70.5629357577
 11
23.1849521098
 21
64.6629357577
  0
LINE
  5
22C
100
AcDbEntity
  8
0
100
AcDbLine
 62
7
  6
CONTINUOUS
 10
23.7170029174
 20
70.5629357577
 11
23.7170029174
 21
64.6629357577
  0
LINE
  5
22D
100
AcDbEntity
  8
0
100
AcDbLine
 62
7
  6
CONTINUOUS
 10
24.6170029174
 20
67.7129357577
 11
24.6170028096
 21
69.5629357577
  0
LINE
  5
22E
100
AcDbEntity
  8
0
100
AcDbLine
 62
7
  6
CONTINUOUS
 10
24.6670029174
 20
68.3629357577
 11
24.6670029174
 21
69.5629357577
  0
LINE
  5
22F
100
AcDbEntity
  8
0
100
AcDbLine
 62
7
  6
CONTINUOUS
 10
26.1670029174
 20
68.3629357577
 11
26.1670029174
 21
69.5629357577
  0
LINE
  5
230
100
AcDbEntity
  8
0
100
AcDbLine
 62
7
  6
CONTINUOUS
 10
26.2170029174
 20
70.5629357577
 11
26.2170029174
 21
64.6629357577
  0
LINE
  5
231
100
AcDbEntity
  8
0
100
AcDbLine
 62
7
  6
CONTINUOUS
 10
26.3170029174
 20
98.3353409349
 11
26.3170029174
 21
98.312951204
  0
LINE
  5
232
100
AcDbEntity
  8
0
100
AcDbLine
 62
7
  6
CONTINUOUS
 10
26.3170029174
 20
98.451909449
 11
26.3170029174
 21
98.3769928767
  0
LINE
  5
233
100
AcDbEntity
  8
0
100
AcDbLine
 62
7
  6
CONTINUOUS
 10
26.3170029174
 20
37.7488786149
 11
26.3170029174
 21
37.6741063888
  0
LINE
  5
234
100
AcDbEntity
  8
0
100
AcDbLine
 62
7
  6
CONTINUOUS
 10
26.4849521098
 20
70.5629357577
 11
26.4849521098
 21
64.6629357577
  0
LINE
  5
235
100
AcDbEntity
  8
0
100
AcDbLine
 62
7
  6
CONTINUOUS
 10
27.0170029174
 20
70.5629357577
 11
27.0170029174
 21
64.6629357577
  0
LINE
  5
236
100
AcDbEntity
  8
0
100
AcDbLine
 62
7
  6
CONTINUOUS
 10
27.9170029174
 20
67.7129357577
 11
27.9170028096
 21
69.5629357577
  0
LINE
  5
237
100
AcDbEntity
  8
0
100
AcDbLine
 62
7
  6
CONTINUOUS
 10
27.9670029174
 20
68.3629357577
 11
27.9670029174
 21
69.5629357577
  0
LINE
  5
238
100
AcDbEntity
  8
0
100
AcDbLine
 62
7
  6
CONTINUOUS
 10
29.256167056
 20
39.4130930864
 11
29.256167056
 21
39.3444049976
  0
LINE
  5
239
100
AcDbEntity
  8
0
100
AcDbLine
 62
7
  6
CONTINUOUS
 10
29.4670029174
 20
68.3629357577
 11
29.4670029174
 21
69.5629357577
  0
LINE
  5
23A
100
AcDbEntity
  8
0
100
AcDbLine
 62
7
  6
CONTINUOUS
 10
29.5170029174
 20
70.5629357577
 11
29.5170029174
 21
64.6629357577
  0
LINE
  5
23B
100
AcDbEntity
  8
0
100
AcDbLine
 62
7
  6
CONTINUOUS
 10
29.7849521098
 20
64.6629357577
 11
29.7849521098
 21
70.5629357577
  0
LINE
  5
23C
100
AcDbEntity
  8
0
100
AcDbLine
 62
7
  6
CONTINUOUS
 10
30.3170029174
 20
70.5629357577
 11
30.3170029174
 21
64.6629357577
  0
LINE
  5
23D
100
AcDbEntity
  8
0
100
AcDbLine
 62
7
  6
CONTINUOUS
 10
31.2170029174
 20
67.7129357577
 11
31.2170028096
 21
69.5629357577
  0
LINE
  5
23E
100
AcDbEntity
  8
0
100
AcDbLine
 62
7
  6
CONTINUOUS
 10
31.2670029174
 20
68.3629357577
 11
31.2670029174
 21
69.5629357577
  0
LINE
  5
23F
100
AcDbEntity
  8
0
100
AcDbLine
 62
7
  6
CONTINUOUS
 10
29.3174559092
 20
96.8715691492
 11
29.317208632
 21
96.7554234348
  0
LINE
  5
240
100
AcDbEntity
  8
0
100
AcDbLine
 62
7
  6
CONTINUOUS
 10
46.3170245116
 20
106.2629357577
 11
46.2170050559
 21
106.0629638355
  0
LINE
  5
241
100
AcDbEntity
  8
0
100
AcDbLine
 62
7
  6
CONTINUOUS
 10
19.7170029174
 20
64.3629357577
 11
20.0170029174
 21
64.6629357577
  0
LINE
  5
242
100
AcDbEntity
  8
0
100
AcDbLine
 62
7
  6
CONTINUOUS
 10
19.7170029174
 20
71.7629357577
 11
20.0170029174
 21
71.4629357577
  0
LINE
  5
243
100
AcDbEntity
  8
0
100
AcDbLine
 62
7
  6
CONTINUOUS
 10
32.3170029174
 20
102.1061701639
 11
32.3170029174
 21
102.0690860625
  0
LINE
  5
244
100
AcDbEntity
  8
0
100
AcDbLine
 62
7
  6
CONTINUOUS
 10
32.7670029174
 20
68.3629357577
 11
32.7670029174
 21
69.5629357577
  0
LINE
  5
245
100
AcDbEntity
  8
0
100
AcDbLine
 62
7
  6
CONTINUOUS
 10
32.8170029174
 20
70.5629357577
 11
32.8170029174
 21
64.6629357577
  0
LINE
  5
246
100
AcDbEntity
  8
0
100
AcDbLine
 62
7
  6
CONTINUOUS
 10
33.0849521098
 20
64.6629357577
 11
33.0849521098
 21
70.5629357577
  0
LINE
  5
247
100
AcDbEntity
  8
0
100
AcDbLine
 62
7
  6
CONTINUOUS
 10
33.6170029174
 20
70.5629357577
 11
33.6170029174
 21
64.6629357577
  0
LINE
  5
248
100
AcDbEntity
  8
0
100
AcDbLine
 62
7
  6
CONTINUOUS
 10
33.7170029174
 20
33.4699545307
 11
33.7170029174
 21
33.3447452563
  0
LINE
  5
249
100
AcDbEntity
  8
0
100
AcDbLine
 62
7
  6
CONTINUOUS
 10
33.7170029174
 20
102.6346193011
 11
33.7170029174
 21
102.7811262591
  0
LINE
  5
24A
100
AcDbEntity
  8
0
100
AcDbLine
 62
7
  6
CONTINUOUS
 10
34.5170030252
 20
67.7129357577
 11
34.5170029174
 21
69.5629357577
  0
LINE
  5
24B
100
AcDbEntity
  8
0
100
AcDbLine
 62
7
  6
CONTINUOUS
 10
34.5670029174
 20
68.3629357577
 11
34.5670029174
 21
69.5629357577
  0
LINE
  5
24C
100
AcDbEntity
  8
0
100
AcDbLine
 62
7
  6
CONTINUOUS
 10
34.6170029174
 20
68.3129357577
 11
34.6170029174
 21
67.7129357577
  0
LINE
  5
24D
100
AcDbEntity
  8
0
100
AcDbLine
 62
7
  6
CONTINUOUS
 10
34.8170029174
 20
68.3129357577
 11
34.8170029174
 21
67.7129357577
  0
LINE
  5
24E
100
AcDbEntity
  8
0
100
AcDbLine
 62
7
  6
CONTINUOUS
 10
49.9175427735
 20
106.2629357577
 11
49.8175643678
 21
106.0629357577
  0
LINE
  5
24F
100
AcDbEntity
  8
0
100
AcDbLine
 62
7
  6
CONTINUOUS
 10
38.6318717127
 20
69.5629362245
 11
38.6905356595
 21
68.2629400619
  0
LINE
  5
250
100
AcDbEntity
  8
0
100
AcDbLine
 62
7
  6
CONTINUOUS
 10
35.8170029174
 20
68.3129357577
 11
35.8170029174
 21
67.7129357577
  0
LINE
  5
251
100
AcDbEntity
  8
0
100
AcDbLine
 62
7
  6
CONTINUOUS
 10
36.0170029174
 20
68.3129357577
 11
36.0170029174
 21
67.7129357577
  0
LINE
  5
252
100
AcDbEntity
  8
0
100
AcDbLine
 62
7
  6
CONTINUOUS
 10
36.0170029174
 20
68.3629357577
 11
36.0170029174
 21
69.5629357577
  0
LINE
  5
253
100
AcDbEntity
  8
0
100
AcDbLine
 62
7
  6
CONTINUOUS
 10
36.1170029174
 20
67.7129357577
 11
36.1170029174
 21
69.5629357577
  0
LINE
  5
254
100
AcDbEntity
  8
0
100
AcDbLine
 62
7
  6
CONTINUOUS
 10
36.9170029174
 20
63.8629357577
 11
36.9170029174
 21
72.2629357577
  0
LINE
  5
255
100
AcDbEntity
  8
0
100
AcDbLine
 62
7
  6
CONTINUOUS
 10
38.6904587557
 20
68.3629357577
 11
38.6905356595
 21
66.7629357577
  0
LINE
  5
256
100
AcDbEntity
  8
0
100
AcDbLine
 62
7
  6
CONTINUOUS
 10
38.6905409489
 20
69.5629357577
 11
38.6905409489
 21
70.3629357577
  0
LINE
  5
257
100
AcDbEntity
  8
0
100
AcDbLine
 62
7
  6
CONTINUOUS
 10
17.9540110185
 20
83.7670232559
 11
16.6931464645
 21
85.0091030706
  0
LINE
  5
258
100
AcDbEntity
  8
0
100
AcDbLine
 62
7
  6
CONTINUOUS
 10
40.9172319916
 20
68.4629357577
 11
40.9172319916
 21
67.6629357577
  0
LINE
  5
259
100
AcDbEntity
  8
0
100
AcDbLine
 62
7
  6
CONTINUOUS
 10
41.4670029174
 20
68.4629357577
 11
41.4670029174
 21
69.5629357577
  0
LINE
  5
25A
100
AcDbEntity
  8
0
100
AcDbLine
 62
7
  6
CONTINUOUS
 10
41.6170029174
 20
67.6629357577
 11
41.6170029174
 21
67.5629357577
  0
LINE
  5
25B
100
AcDbEntity
  8
0
100
AcDbLine
 62
7
  6
CONTINUOUS
 10
42.1670029174
 20
67.6629357577
 11
42.1670029174
 21
66.1629357577
  0
LINE
  5
25C
100
AcDbEntity
  8
0
100
AcDbLine
 62
7
  6
CONTINUOUS
 10
42.1670029174
 20
69.5629357577
 11
42.1670029174
 21
69.9629357577
  0
LINE
  5
25D
100
AcDbEntity
  8
0
100
AcDbLine
 62
7
  6
CONTINUOUS
 10
42.2670029174
 20
67.6629357577
 11
42.2670029174
 21
66.1629357577
  0
LINE
  5
25E
100
AcDbEntity
  8
0
100
AcDbLine
 62
7
  6
CONTINUOUS
 10
42.2670029174
 20
69.5629357577
 11
42.2670029174
 21
69.9629357577
  0
LINE
  5
25F
100
AcDbEntity
  8
0
100
AcDbLine
 62
7
  6
CONTINUOUS
 10
43.5670029174
 20
68.4629357577
 11
43.5670029174
 21
69.5629357577
  0
LINE
  5
260
100
AcDbEntity
  8
0
100
AcDbLine
 62
7
  6
CONTINUOUS
 10
43.7172319916
 20
68.4629357577
 11
43.7172319916
 21
67.6629357577
  0
LINE
  5
261
100
AcDbEntity
  8
0
100
AcDbLine
 62
7
  6
CONTINUOUS
 10
44.3170029174
 20
106.0956795451
 11
44.3173060195
 21
105.7807770465
  0
LINE
  5
262
100
AcDbEntity
  8
0
100
AcDbLine
 62
7
  6
CONTINUOUS
 10
44.3670029174
 20
67.6629357577
 11
44.3670029174
 21
66.1629357577
  0
LINE
  5
263
100
AcDbEntity
  8
0
100
AcDbLine
 62
7
  6
CONTINUOUS
 10
44.3670029174
 20
68.4629357577
 11
44.3670029174
 21
69.9629357577
  0
LINE
  5
264
100
AcDbEntity
  8
0
100
AcDbLine
 62
7
  6
CONTINUOUS
 10
44.4670029174
 20
67.6629357577
 11
44.4670029174
 21
66.1629357577
  0
LINE
  5
265
100
AcDbEntity
  8
0
100
AcDbLine
 62
7
  6
CONTINUOUS
 10
44.4670029174
 20
68.4629357577
 11
44.4670029174
 21
69.9629357577
  0
LINE
  5
266
100
AcDbEntity
  8
0
100
AcDbLine
 62
7
  6
CONTINUOUS
 10
44.5170029174
 20
68.4629357577
 11
44.5170029174
 21
70.2629357577
  0
LINE
  5
267
100
AcDbEntity
  8
0
100
AcDbLine
 62
7
  6
CONTINUOUS
 10
45.3172319916
 20
68.4629357577
 11
45.3172319916
 21
67.6629357577
  0
LINE
  5
268
100
AcDbEntity
  8
0
100
AcDbLine
 62
7
  6
CONTINUOUS
 10
45.4670029174
 20
67.6629357577
 11
45.4670029174
 21
65.4629357577
  0
LINE
  5
269
100
AcDbEntity
  8
0
100
AcDbLine
 62
7
  6
CONTINUOUS
 10
45.6170029174
 20
102.9422365678
 11
45.6170029174
 21
103.2439054004
  0
LINE
  5
26A
100
AcDbEntity
  8
0
100
AcDbLine
 62
7
  6
CONTINUOUS
 10
45.7170029174
 20
74.8129357577
 11
45.7170029174
 21
76.583645822
  0
LINE
  5
26B
100
AcDbEntity
  8
0
100
AcDbLine
 62
7
  6
CONTINUOUS
 10
45.8670029174
 20
65.4629357577
 11
45.8670029174
 21
62.8629357577
  0
LINE
  5
26C
100
AcDbEntity
  8
0
100
AcDbLine
 62
7
  6
CONTINUOUS
 10
42.6773932927
 20
31.9048914348
 11
42.7072669775
 21
33.616353695
  0
LINE
  5
26D
100
AcDbEntity
  8
0
100
AcDbLine
 62
7
  6
CONTINUOUS
 10
44.7794249131
 20
66.9920214252
 11
44.7952619718
 21
67.6629357577
  0
LINE
  5
26E
100
AcDbEntity
  8
0
100
AcDbLine
 62
7
  6
CONTINUOUS
 10
44.8997330925
 20
66.8586372111
 11
44.9187187107
 21
67.6629357577
  0
LINE
  5
26F
100
AcDbEntity
  8
0
100
AcDbLine
 62
7
  6
CONTINUOUS
 10
45.3007042877
 20
67.2575513819
 11
45.310273462
 21
67.6629357577
  0
LINE
  5
270
100
AcDbEntity
  8
0
100
AcDbLine
 62
7
  6
CONTINUOUS
 10
80.291723486
 20
84.5196155777
 11
81.8863626299
 21
85.1136071754
  0
LINE
  5
271
100
AcDbEntity
  8
0
100
AcDbLine
 62
7
  6
CONTINUOUS
 10
52.7670029174
 20
62.8629357577
 11
45.8670029174
 21
62.8629357577
  0
LINE
  5
272
100
AcDbEntity
  8
0
100
AcDbLine
 62
7
  6
CONTINUOUS
 10
19.2887903128
 20
62.9629357577
 11
19.2497398398
 21
62.9629357577
  0
LINE
  5
273
100
AcDbEntity
  8
0
100
AcDbLine
 62
7
  6
CONTINUOUS
 10
79.4769297533
 20
63.6629357577
 11
78.6170027493
 21
63.6629357577
  0
LINE
  5
274
100
AcDbEntity
  8
0
100
AcDbLine
 62
7
  6
CONTINUOUS
 10
20.017002246
 20
63.6629357577
 11
19.1570760771
 21
63.6629357577
  0
LINE
  5
275
100
AcDbEntity
  8
0
100
AcDbLine
 62
7
  6
CONTINUOUS
 10
74.4170029174
 20
63.8629357577
 11
68.2170029174
 21
63.8629357577
  0
LINE
  5
276
100
AcDbEntity
  8
0
100
AcDbLine
 62
7
  6
CONTINUOUS
 10
36.9170029174
 20
63.8629357577
 11
19.2170029174
 21
63.8629357577
  0
LINE
  5
277
100
AcDbEntity
  8
0
100
AcDbLine
 62
7
  6
CONTINUOUS
 10
19.7170029174
 20
64.3629357577
 11
36.9170029174
 21
64.3629357577
  0
LINE
  5
278
100
AcDbEntity
  8
0
100
AcDbLine
 62
7
  6
CONTINUOUS
 10
68.7170029174
 20
64.3629357577
 11
73.9170029174
 21
64.3629357577
  0
LINE
  5
279
100
AcDbEntity
  8
0
100
AcDbLine
 62
7
  6
CONTINUOUS
 10
20.0170029174
 20
64.6629357577
 11
36.9170029174
 21
64.6629357577
  0
LINE
  5
27A
100
AcDbEntity
  8
0
100
AcDbLine
 62
7
  6
CONTINUOUS
 10
69.0170029174
 20
64.6629357577
 11
73.6170029174
 21
64.6629357577
  0
LINE
  5
27B
100
AcDbEntity
  8
0
100
AcDbLine
 62
7
  6
CONTINUOUS
 10
44.7794249131
 20
66.9920214252
 11
44.8997330925
 21
66.8586372111
  0
LINE
  5
27C
100
AcDbEntity
  8
0
100
AcDbLine
 62
7
  6
CONTINUOUS
 10
45.2642997879
 20
62.9039608832
 11
45.1440174681
 21
63.038440605
  0
LINE
  5
27D
100
AcDbEntity
  8
0
100
AcDbLine
 62
7
  6
CONTINUOUS
 10
44.8145618372
 20
66.8965666677
 11
44.934844157
 21
66.7620869459
  0
LINE
  5
27E
100
AcDbEntity
  8
0
100
AcDbLine
 62
7
  6
CONTINUOUS
 10
45.3238866965
 20
67.2493377593
 11
45.4441690163
 21
67.1148580375
  0
LINE
  5
27F
100
AcDbEntity
  8
0
100
AcDbLine
 62
7
  6
CONTINUOUS
 10
45.0801517294
 20
66.7085360174
 11
45.1935051479
 21
66.5816961465
  0
LINE
  5
280
100
AcDbEntity
  8
0
100
AcDbLine
 62
7
  6
CONTINUOUS
 10
49.7170088236
 20
33.090223374
 11
49.7170860683
 21
33.023928839
  0
LINE
  5
281
100
AcDbEntity
  8
0
100
AcDbLine
 62
7
  6
CONTINUOUS
 10
46.2170050559
 20
106.0629638355
 11
46.2170025784
 21
105.9841874688
  0
LINE
  5
282
100
AcDbEntity
  8
0
100
AcDbLine
 62
7
  6
CONTINUOUS
 10
46.5670029174
 20
38.8129357577
 11
46.5670029174
 21
38.5865438144
  0
LINE
  5
283
100
AcDbEntity
  8
0
100
AcDbLine
 62
7
  6
CONTINUOUS
 10
46.9172319916
 20
68.4629357577
 11
46.9172319916
 21
67.6629357577
  0
LINE
  5
284
100
AcDbEntity
  8
0
100
AcDbLine
 62
7
  6
CONTINUOUS
 10
47.6170029174
 20
68.4629357577
 11
47.6170029174
 21
69.5629357577
  0
LINE
  5
285
100
AcDbEntity
  8
0
100
AcDbLine
 62
7
  6
CONTINUOUS
 10
47.7172319916
 20
67.6629357577
 11
47.7172319916
 21
68.4629357577
  0
LINE
  5
286
100
AcDbEntity
  8
0
100
AcDbLine
 62
7
  6
CONTINUOUS
 10
47.8170029174
 20
103.0057551202
 11
47.8170029174
 21
103.1817742053
  0
LINE
  5
287
100
AcDbEntity
  8
0
100
AcDbLine
 62
7
  6
CONTINUOUS
 10
48.7170029174
 20
75.689370049
 11
48.7170029174
 21
77.2934557864
  0
LINE
  5
288
100
AcDbEntity
  8
0
100
AcDbLine
 62
7
  6
CONTINUOUS
 10
48.7670029174
 20
67.6629357577
 11
48.7670029174
 21
65.4629357577
  0
LINE
  5
289
100
AcDbEntity
  8
0
100
AcDbLine
 62
7
  6
CONTINUOUS
 10
48.9170029174
 20
69.5629357577
 11
48.9170029174
 21
70.2629357577
  0
LINE
  5
28A
100
AcDbEntity
  8
0
100
AcDbLine
 62
7
  6
CONTINUOUS
 10
49.0170029174
 20
68.4629357577
 11
49.0170029174
 21
69.5629357577
  0
LINE
  5
28B
100
AcDbEntity
  8
0
100
AcDbLine
 62
7
  6
CONTINUOUS
 10
48.9169984109
 20
33.0641344651
 11
48.9170010299
 21
33.0902232578
  0
LINE
  5
28C
100
AcDbEntity
  8
0
100
AcDbLine
 62
7
  6
CONTINUOUS
 10
45.4670029174
 20
67.115394206
 11
45.4441690163
 21
67.1148580375
  0
LINE
  5
28D
100
AcDbEntity
  8
0
100
AcDbLine
 62
7
  6
CONTINUOUS
 10
45.4670029174
 20
67.2526983066
 11
45.3238866965
 21
67.2493377593
  0
LINE
  5
28E
100
AcDbEntity
  8
0
100
AcDbLine
 62
7
  6
CONTINUOUS
 10
18.9305471153
 20
65.2629357577
 11
19.2170029174
 21
65.2629357577
  0
LINE
  5
28F
100
AcDbEntity
  8
0
100
AcDbLine
 62
7
  6
CONTINUOUS
 10
78.617002242
 20
65.2629357577
 11
79.7034587102
 21
65.2629357577
  0
LINE
  5
290
100
AcDbEntity
  8
0
100
AcDbLine
 62
7
  6
CONTINUOUS
 10
48.7670029174
 20
65.4629357577
 11
45.4670029174
 21
65.4629357577
  0
LINE
  5
291
100
AcDbEntity
  8
0
100
AcDbLine
 62
7
  6
CONTINUOUS
 10
57.2670029174
 20
65.8629357577
 11
55.1670029174
 21
65.8629357577
  0
LINE
  5
292
100
AcDbEntity
  8
0
100
AcDbLine
 62
7
  6
CONTINUOUS
 10
55.1670029174
 20
66.1629357577
 11
54.1670029174
 21
66.1629357577
  0
LINE
  5
293
100
AcDbEntity
  8
0
100
AcDbLine
 62
7
  6
CONTINUOUS
 10
50.4670029174
 20
66.1629357577
 11
48.7670029174
 21
66.1629357577
  0
LINE
  5
294
100
AcDbEntity
  8
0
100
AcDbLine
 62
7
  6
CONTINUOUS
 10
44.4670029174
 20
66.1629357577
 11
42.1670029174
 21
66.1629357577
  0
LINE
  5
295
100
AcDbEntity
  8
0
100
AcDbLine
 62
7
  6
CONTINUOUS
 10
82.1170029174
 20
66.5629357577
 11
81.6170029174
 21
66.5629357577
  0
LINE
  5
296
100
AcDbEntity
  8
0
100
AcDbLine
 62
7
  6
CONTINUOUS
 10
55.1670029174
 20
66.5629357577
 11
51.6670029174
 21
66.5629357577
  0
LINE
  5
297
100
AcDbEntity
  8
0
100
AcDbLine
 62
7
  6
CONTINUOUS
 10
17.3170029174
 20
66.5629357577
 11
16.5170029174
 21
66.5629357577
  0
LINE
  5
298
100
AcDbEntity
  8
0
100
AcDbLine
 62
7
  6
CONTINUOUS
 10
80.1170031597
 20
66.7629357577
 11
74.4170029174
 21
66.7629357577
  0
LINE
  5
299
100
AcDbEntity
  8
0
100
AcDbLine
 62
7
  6
CONTINUOUS
 10
40.4922422974
 20
66.7629357577
 11
36.9170029174
 21
66.7629357577
  0
LINE
  5
29A
100
AcDbEntity
  8
0
100
AcDbLine
 62
7
  6
CONTINUOUS
 10
18.5170026785
 20
66.7629357595
 11
19.2170029174
 21
66.7629357577
  0
LINE
  5
29B
100
AcDbEntity
  8
0
100
AcDbLine
 62
7
  6
CONTINUOUS
 10
58.1417635374
 20
66.7629357577
 11
68.2170029174
 21
66.7629357577
  0
LINE
  5
29C
100
AcDbEntity
  8
0
100
AcDbLine
 62
7
  6
CONTINUOUS
 10
80.9170029174
 20
67.2629357577
 11
80.1170029174
 21
67.2629357577
  0
LINE
  5
29D
100
AcDbEntity
  8
0
100
AcDbLine
 62
7
  6
CONTINUOUS
 10
18.5170029174
 20
67.2629357577
 11
17.3170029174
 21
67.2629357577
  0
LINE
  5
29E
100
AcDbEntity
  8
0
100
AcDbLine
 62
7
  6
CONTINUOUS
 10
41.6170029174
 20
67.5629357577
 11
41.6833602745
 21
67.5629357577
  0
LINE
  5
29F
100
AcDbEntity
  8
0
100
AcDbLine
 62
7
  6
CONTINUOUS
 10
57.7172319916
 20
67.6629357577
 11
40.9172319916
 21
67.6629357577
  0
LINE
  5
2A0
100
AcDbEntity
  8
0
100
AcDbLine
 62
7
  6
CONTINUOUS
 10
21.3170029174
 20
67.7129357577
 11
22.9170029174
 21
67.7129357577
  0
LINE
  5
2A1
100
AcDbEntity
  8
0
100
AcDbLine
 62
7
  6
CONTINUOUS
 10
24.6170029174
 20
67.7129357577
 11
26.2170029174
 21
67.7129357577
  0
LINE
  5
2A2
100
AcDbEntity
  8
0
100
AcDbLine
 62
7
  6
CONTINUOUS
 10
27.9170029174
 20
67.7129357577
 11
29.5170029174
 21
67.7129357577
  0
LINE
  5
2A3
100
AcDbEntity
  8
0
100
AcDbLine
 62
7
  6
CONTINUOUS
 10
31.2170029174
 20
67.7129357577
 11
32.8170029174
 21
67.7129357577
  0
LINE
  5
2A4
100
AcDbEntity
  8
0
100
AcDbLine
 62
7
  6
CONTINUOUS
 10
34.5170030252
 20
67.7129357577
 11
36.1170029174
 21
67.7129357577
  0
LINE
  5
2A5
100
AcDbEntity
  8
0
100
AcDbLine
 62
7
  6
CONTINUOUS
 10
70.5170029174
 20
67.7129357577
 11
72.1170029174
 21
67.7129357577
  0
LINE
  5
2A6
100
AcDbEntity
  8
0
100
AcDbLine
 62
7
  6
CONTINUOUS
 10
70.5170029174
 20
67.7629357577
 11
72.1170029174
 21
67.7629357577
  0
LINE
  5
2A7
100
AcDbEntity
  8
0
100
AcDbLine
 62
7
  6
CONTINUOUS
 10
73.0170029174
 20
68.0629357577
 11
72.9170029174
 21
68.0629357577
  0
LINE
  5
2A8
100
AcDbEntity
  8
0
100
AcDbLine
 62
7
  6
CONTINUOUS
 10
69.7170029174
 20
68.0629357577
 11
69.6170029174
 21
68.0629357577
  0
LINE
  5
2A9
100
AcDbEntity
  8
0
100
AcDbLine
 62
7
  6
CONTINUOUS
 10
20.5170029174
 20
68.0629357577
 11
20.4170029174
 21
68.0629357577
  0
LINE
  5
2AA
100
AcDbEntity
  8
0
100
AcDbLine
 62
7
  6
CONTINUOUS
 10
84.2920029174
 20
68.0629357577
 11
84.3139720745
 21
68.0629357577
  0
LINE
  5
2AB
100
AcDbEntity
  8
0
100
AcDbLine
 62
7
  6
CONTINUOUS
 10
34.6170029174
 20
68.3129357577
 11
36.1170029174
 21
68.3129357577
  0
LINE
  5
2AC
100
AcDbEntity
  8
0
100
AcDbLine
 62
7
  6
CONTINUOUS
 10
36.1170029174
 20
68.3629357577
 11
34.5670029174
 21
68.3629357577
  0
LINE
  5
2AD
100
AcDbEntity
  8
0
100
AcDbLine
 62
7
  6
CONTINUOUS
 10
32.8170029174
 20
68.3629357577
 11
31.2670029174
 21
68.3629357577
  0
LINE
  5
2AE
100
AcDbEntity
  8
0
100
AcDbLine
 62
7
  6
CONTINUOUS
 10
29.5170029174
 20
68.3629357577
 11
27.9670029174
 21
68.3629357577
  0
LINE
  5
2AF
100
AcDbEntity
  8
0
100
AcDbLine
 62
7
  6
CONTINUOUS
 10
26.2170029174
 20
68.3629357577
 11
24.6670029174
 21
68.3629357577
  0
LINE
  5
2B0
100
AcDbEntity
  8
0
100
AcDbLine
 62
7
  6
CONTINUOUS
 10
22.9170029174
 20
68.3629357577
 11
21.4170029174
 21
68.3629357577
  0
LINE
  5
2B1
100
AcDbEntity
  8
0
100
AcDbLine
 62
7
  6
CONTINUOUS
 10
70.6170029174
 20
68.3629357577
 11
72.1170029174
 21
68.3629357577
  0
LINE
  5
2B2
100
AcDbEntity
  8
0
100
AcDbLine
 62
7
  6
CONTINUOUS
 10
40.9172319916
 20
68.4629357577
 11
57.7172319916
 21
68.4629357577
  0
LINE
  5
2B3
100
AcDbEntity
  8
0
100
AcDbLine
 62
7
  6
CONTINUOUS
 10
72.0170029174
 20
68.6629357577
 11
72.1170029174
 21
68.6629357577
  0
LINE
  5
2B4
100
AcDbEntity
  8
0
100
AcDbLine
 62
7
  6
CONTINUOUS
 10
53.3697060469
 20
62.9539608832
 11
54.1031246891
 21
62.2979713072
  0
LINE
  5
2B5
100
AcDbEntity
  8
0
100
AcDbLine
 62
7
  6
CONTINUOUS
 10
53.6400676739
 20
63.196269091
 11
54.4599592656
 21
62.4629357577
  0
LINE
  5
2B6
100
AcDbEntity
  8
0
100
AcDbLine
 62
7
  6
CONTINUOUS
 10
28.5049603174
 20
89.4406637826
 11
28.428449444
 21
89.517174656
  0
LINE
  5
2B7
100
AcDbEntity
  8
0
100
AcDbLine
 62
7
  6
CONTINUOUS
 10
34.5359294301
 20
99.7610501437
 11
34.5260613772
 21
99.7822122514
  0
LINE
  5
2B8
100
AcDbEntity
  8
0
100
AcDbLine
 62
7
  6
CONTINUOUS
 10
49.9170029174
 20
58.832415729
 11
49.9170029174
 21
60.4365014664
  0
LINE
  5
2B9
100
AcDbEntity
  8
0
100
AcDbLine
 62
7
  6
CONTINUOUS
 10
50.3670029174
 20
67.6629357577
 11
50.3670029174
 21
66.1629357577
  0
LINE
  5
2BA
100
AcDbEntity
  8
0
100
AcDbLine
 62
7
  6
CONTINUOUS
 10
50.3670029174
 20
69.5629357577
 11
50.3670029174
 21
69.9629357577
  0
LINE
  5
2BB
100
AcDbEntity
  8
0
100
AcDbLine
 62
7
  6
CONTINUOUS
 10
50.4670029174
 20
67.6629357577
 11
50.4670029174
 21
66.1629357577
  0
LINE
  5
2BC
100
AcDbEntity
  8
0
100
AcDbLine
 62
7
  6
CONTINUOUS
 10
50.4670029174
 20
69.5629357577
 11
50.4670029174
 21
69.9629357577
  0
LINE
  5
2BD
100
AcDbEntity
  8
0
100
AcDbLine
 62
7
  6
CONTINUOUS
 10
50.8170029174
 20
103.0057551202
 11
50.8170029174
 21
103.0970498484
  0
LINE
  5
2BE
100
AcDbEntity
  8
0
100
AcDbLine
 62
7
  6
CONTINUOUS
 10
50.9172319916
 20
68.4629357577
 11
50.9172319916
 21
67.6629357577
  0
LINE
  5
2BF
100
AcDbEntity
  8
0
100
AcDbLine
 62
7
  6
CONTINUOUS
 10
51.0420029174
 20
68.4629357577
 11
51.0420029174
 21
69.5629357577
  0
LINE
  5
2C0
100
AcDbEntity
  8
0
100
AcDbLine
 62
7
  6
CONTINUOUS
 10
51.6670029174
 20
67.6629357577
 11
51.6670029174
 21
66.5629357577
  0
LINE
  5
2C1
100
AcDbEntity
  8
0
100
AcDbLine
 62
7
  6
CONTINUOUS
 10
51.7172319916
 20
68.4629357577
 11
51.7172319916
 21
67.6629357577
  0
LINE
  5
2C2
100
AcDbEntity
  8
0
100
AcDbLine
 62
7
  6
CONTINUOUS
 10
52.0670029174
 20
38.5865438144
 11
52.0670029174
 21
38.8129357577
  0
LINE
  5
2C3
100
AcDbEntity
  8
0
100
AcDbLine
 62
7
  6
CONTINUOUS
 10
52.4170031249
 20
106.0629638355
 11
52.4170041964
 21
105.9842031147
  0
LINE
  5
2C4
100
AcDbEntity
  8
0
100
AcDbLine
 62
7
  6
CONTINUOUS
 10
52.7670029174
 20
66.5629357577
 11
52.7670029174
 21
62.8629357577
  0
LINE
  5
2C5
100
AcDbEntity
  8
0
100
AcDbLine
 62
7
  6
CONTINUOUS
 10
52.9170029174
 20
61.3129357577
 11
52.9170029174
 21
59.5422256934
  0
LINE
  5
2C6
100
AcDbEntity
  8
0
100
AcDbLine
 62
7
  6
CONTINUOUS
 10
53.3172319916
 20
68.4629357577
 11
53.3172319916
 21
67.6629357577
  0
LINE
  5
2C7
100
AcDbEntity
  8
0
100
AcDbLine
 62
7
  6
CONTINUOUS
 10
51.6903084658
 20
69.8673311397
 11
51.0420029174
 21
69.1027241596
  0
LINE
  5
2C8
100
AcDbEntity
  8
0
100
AcDbLine
 62
7
  6
CONTINUOUS
 10
51.6903084658
 20
69.8673311397
 11
51.8105907856
 21
70.0018108615
  0
LINE
  5
2C9
100
AcDbEntity
  8
0
100
AcDbLine
 62
7
  6
CONTINUOUS
 10
52.1203025283
 20
69.8758050519
 11
52.2405848481
 21
70.0102847737
  0
LINE
  5
2CA
100
AcDbEntity
  8
0
100
AcDbLine
 62
7
  6
CONTINUOUS
 10
52.9481894118
 20
69.1092685808
 11
52.827907092
 21
68.974788859
  0
LINE
  5
2CB
100
AcDbEntity
  8
0
100
AcDbLine
 62
7
  6
CONTINUOUS
 10
53.2061024616
 20
68.9571503856
 11
53.0858201418
 21
68.8226706638
  0
LINE
  5
2CC
100
AcDbEntity
  8
0
100
AcDbLine
 62
7
  6
CONTINUOUS
 10
53.3955972629
 20
68.8153967107
 11
53.5158795827
 21
68.9498764325
  0
LINE
  5
2CD
100
AcDbEntity
  8
0
100
AcDbLine
 62
7
  6
CONTINUOUS
 10
53.8166079791
 20
68.6506908044
 11
53.6963256593
 21
68.5162110826
  0
LINE
  5
2CE
100
AcDbEntity
  8
0
100
AcDbLine
 62
7
  6
CONTINUOUS
 10
44.1740465691
 20
62.4129357577
 11
44.9939381609
 21
63.146269091
  0
LINE
  5
2CF
100
AcDbEntity
  8
0
100
AcDbLine
 62
7
  6
CONTINUOUS
 10
44.4414007341
 20
62.167937594
 11
45.2642997879
 21
62.9039608832
  0
LINE
  5
2D0
100
AcDbEntity
  8
0
100
AcDbLine
 62
7
  6
CONTINUOUS
 10
83.2717138111
 20
76.8568673655
 11
84.9558994992
 21
77.0827825421
  0
LINE
  5
2D1
100
AcDbEntity
  8
0
100
AcDbLine
 62
7
  6
CONTINUOUS
 10
18.5170029174
 20
68.8629357577
 11
16.5170029174
 21
68.8629357577
  0
LINE
  5
2D2
100
AcDbEntity
  8
0
100
AcDbLine
 62
7
  6
CONTINUOUS
 10
80.1170029174
 20
68.8629357577
 11
80.9170029174
 21
68.8629357577
  0
LINE
  5
2D3
100
AcDbEntity
  8
0
100
AcDbLine
 62
7
  6
CONTINUOUS
 10
73.0170029174
 20
69.5629357577
 11
72.9170029174
 21
69.5629357577
  0
LINE
  5
2D4
100
AcDbEntity
  8
0
100
AcDbLine
 62
7
  6
CONTINUOUS
 10
72.1170029174
 20
69.5629357577
 11
72.0170029174
 21
69.5629357577
  0
LINE
  5
2D5
100
AcDbEntity
  8
0
100
AcDbLine
 62
7
  6
CONTINUOUS
 10
70.6170029174
 20
69.5629357577
 11
70.5170029174
 21
69.5629357577
  0
LINE
  5
2D6
100
AcDbEntity
  8
0
100
AcDbLine
 62
7
  6
CONTINUOUS
 10
69.7170029174
 20
69.5629357577
 11
69.6170029174
 21
69.5629357577
  0
LINE
  5
2D7
100
AcDbEntity
  8
0
100
AcDbLine
 62
7
  6
CONTINUOUS
 10
38.6905041635
 20
69.5629357577
 11
38.6318717127
 21
69.5629357577
  0
LINE
  5
2D8
100
AcDbEntity
  8
0
100
AcDbLine
 62
7
  6
CONTINUOUS
 10
36.1170029174
 20
69.5629357577
 11
36.0170029174
 21
69.5629357577
  0
LINE
  5
2D9
100
AcDbEntity
  8
0
100
AcDbLine
 62
7
  6
CONTINUOUS
 10
34.5670029174
 20
69.5629357577
 11
34.5170029174
 21
69.5629357577
  0
LINE
  5
2DA
100
AcDbEntity
  8
0
100
AcDbLine
 62
7
  6
CONTINUOUS
 10
32.8170029174
 20
69.5629357577
 11
32.7670029174
 21
69.5629357577
  0
LINE
  5
2DB
100
AcDbEntity
  8
0
100
AcDbLine
 62
7
  6
CONTINUOUS
 10
31.2670029174
 20
69.5629357577
 11
31.2170028096
 21
69.5629357577
  0
LINE
  5
2DC
100
AcDbEntity
  8
0
100
AcDbLine
 62
7
  6
CONTINUOUS
 10
29.5170029174
 20
69.5629357577
 11
29.4670029174
 21
69.5629357577
  0
LINE
  5
2DD
100
AcDbEntity
  8
0
100
AcDbLine
 62
7
  6
CONTINUOUS
 10
27.9670029174
 20
69.5629357577
 11
27.9170028096
 21
69.5629357577
  0
LINE
  5
2DE
100
AcDbEntity
  8
0
100
AcDbLine
 62
7
  6
CONTINUOUS
 10
26.2170029174
 20
69.5629357577
 11
26.1670029174
 21
69.5629357577
  0
LINE
  5
2DF
100
AcDbEntity
  8
0
100
AcDbLine
 62
7
  6
CONTINUOUS
 10
24.6670029174
 20
69.5629357577
 11
24.6170028096
 21
69.5629357577
  0
LINE
  5
2E0
100
AcDbEntity
  8
0
100
AcDbLine
 62
7
  6
CONTINUOUS
 10
22.9170029174
 20
69.5629357577
 11
22.8670029174
 21
69.5629357577
  0
LINE
  5
2E1
100
AcDbEntity
  8
0
100
AcDbLine
 62
7
  6
CONTINUOUS
 10
21.4170029174
 20
69.5629357577
 11
21.3170029174
 21
69.5629357577
  0
LINE
  5
2E2
100
AcDbEntity
  8
0
100
AcDbLine
 62
7
  6
CONTINUOUS
 10
20.5170029174
 20
69.5629357577
 11
20.4170029174
 21
69.5629357577
  0
LINE
  5
2E3
100
AcDbEntity
  8
0
100
AcDbLine
 62
7
  6
CONTINUOUS
 10
41.4670029174
 20
69.5629357577
 11
43.5670029174
 21
69.5629357577
  0
LINE
  5
2E4
100
AcDbEntity
  8
0
100
AcDbLine
 62
7
  6
CONTINUOUS
 10
47.6170029174
 20
69.5629357577
 11
51.0420029174
 21
69.5629357577
  0
LINE
  5
2E5
100
AcDbEntity
  8
0
100
AcDbLine
 62
7
  6
CONTINUOUS
 10
81.6170029174
 20
69.5629357577
 11
82.1170029174
 21
69.5629357577
  0
LINE
  5
2E6
100
AcDbEntity
  8
0
100
AcDbLine
 62
7
  6
CONTINUOUS
 10
42.1670029174
 20
69.9629357577
 11
44.4670029174
 21
69.9629357577
  0
LINE
  5
2E7
100
AcDbEntity
  8
0
100
AcDbLine
 62
7
  6
CONTINUOUS
 10
48.9170029174
 20
69.9629357577
 11
50.4670029174
 21
69.9629357577
  0
LINE
  5
2E8
100
AcDbEntity
  8
0
100
AcDbLine
 62
7
  6
CONTINUOUS
 10
44.5170029174
 20
70.2629357577
 11
48.9170029174
 21
70.2629357577
  0
LINE
  5
2E9
100
AcDbEntity
  8
0
100
AcDbLine
 62
7
  6
CONTINUOUS
 10
36.9172418509
 20
70.3629357577
 11
40.6986272004
 21
70.3629357577
  0
LINE
  5
2EA
100
AcDbEntity
  8
0
100
AcDbLine
 62
7
  6
CONTINUOUS
 10
57.9353786344
 20
70.3629357577
 11
68.2170029174
 21
70.3629357577
  0
LINE
  5
2EB
100
AcDbEntity
  8
0
100
AcDbLine
 62
7
  6
CONTINUOUS
 10
77.6170128914
 20
70.3629334121
 11
74.4170029174
 21
70.3629357577
  0
LINE
  5
2EC
100
AcDbEntity
  8
0
100
AcDbLine
 62
7
  6
CONTINUOUS
 10
66.3170029174
 20
70.4629357577
 11
66.8170029174
 21
70.4629357577
  0
LINE
  5
2ED
100
AcDbEntity
  8
0
100
AcDbLine
 62
7
  6
CONTINUOUS
 10
22.9170029174
 20
70.5629357577
 11
23.7170029174
 21
70.5629357577
  0
LINE
  5
2EE
100
AcDbEntity
  8
0
100
AcDbLine
 62
7
  6
CONTINUOUS
 10
26.2170029174
 20
70.5629357577
 11
27.0170029174
 21
70.5629357577
  0
LINE
  5
2EF
100
AcDbEntity
  8
0
100
AcDbLine
 62
7
  6
CONTINUOUS
 10
29.5170029174
 20
70.5629357577
 11
30.3170029174
 21
70.5629357577
  0
LINE
  5
2F0
100
AcDbEntity
  8
0
100
AcDbLine
 62
7
  6
CONTINUOUS
 10
32.8170029174
 20
70.5629357577
 11
33.6170029174
 21
70.5629357577
  0
LINE
  5
2F1
100
AcDbEntity
  8
0
100
AcDbLine
 62
7
  6
CONTINUOUS
 10
53.8670029174
 20
70.6629357577
 11
57.1670029174
 21
70.6629357577
  0
LINE
  5
2F2
100
AcDbEntity
  8
0
100
AcDbLine
 62
7
  6
CONTINUOUS
 10
73.6170029174
 20
71.4629357577
 11
69.0170029174
 21
71.4629357577
  0
LINE
  5
2F3
100
AcDbEntity
  8
0
100
AcDbLine
 62
7
  6
CONTINUOUS
 10
36.9170029174
 20
71.4629357577
 11
20.0170029174
 21
71.4629357577
  0
LINE
  5
2F4
100
AcDbEntity
  8
0
100
AcDbLine
 62
7
  6
CONTINUOUS
 10
66.2170029174
 20
71.5629357577
 11
65.4170029174
 21
71.5629357577
  0
LINE
  5
2F5
100
AcDbEntity
  8
0
100
AcDbLine
 62
7
  6
CONTINUOUS
 10
73.9170029174
 20
71.7629357577
 11
68.7170029174
 21
71.7629357577
  0
LINE
  5
2F6
100
AcDbEntity
  8
0
100
AcDbLine
 62
7
  6
CONTINUOUS
 10
36.9170029174
 20
71.7629357577
 11
19.7170029174
 21
71.7629357577
  0
LINE
  5
2F7
100
AcDbEntity
  8
0
100
AcDbLine
 62
7
  6
CONTINUOUS
 10
19.2170029174
 20
72.2629357577
 11
36.9170029174
 21
72.2629357577
  0
LINE
  5
2F8
100
AcDbEntity
  8
0
100
AcDbLine
 62
7
  6
CONTINUOUS
 10
68.2170029174
 20
72.2629357577
 11
74.4170029174
 21
72.2629357577
  0
LINE
  5
2F9
100
AcDbEntity
  8
0
100
AcDbLine
 62
7
  6
CONTINUOUS
 10
53.0858201418
 20
68.8226706638
 11
53.3955972629
 21
68.8153967107
  0
LINE
  5
2FA
100
AcDbEntity
  8
0
100
AcDbLine
 62
7
  6
CONTINUOUS
 10
53.2061024616
 20
68.9571503856
 11
53.5158795827
 21
68.9498764325
  0
LINE
  5
2FB
100
AcDbEntity
  8
0
100
AcDbLine
 62
7
  6
CONTINUOUS
 10
53.6975832334
 20
68.4629357577
 11
53.6963256593
 21
68.5162110826
  0
LINE
  5
2FC
100
AcDbEntity
  8
0
100
AcDbLine
 62
7
  6
CONTINUOUS
 10
53.8166079791
 20
68.6506908044
 11
53.8210399722
 21
68.4629357577
  0
LINE
  5
2FD
100
AcDbEntity
  8
0
100
AcDbLine
 62
7
  6
CONTINUOUS
 10
53.8670029174
 20
68.4629357577
 11
53.8670029174
 21
70.6629357577
  0
LINE
  5
2FE
100
AcDbEntity
  8
0
100
AcDbLine
 62
7
  6
CONTINUOUS
 10
54.1670029174
 20
66.5629357577
 11
54.1670029174
 21
66.1629357577
  0
LINE
  5
2FF
100
AcDbEntity
  8
0
100
AcDbLine
 62
7
  6
CONTINUOUS
 10
54.2670029174
 20
66.5629357577
 11
54.2670029174
 21
66.1629357577
  0
LINE
  5
300
100
AcDbEntity
  8
0
100
AcDbLine
 62
7
  6
CONTINUOUS
 10
54.3170029174
 20
105.7807832378
 11
54.3170029174
 21
106.0956795451
  0
LINE
  5
301
100
AcDbEntity
  8
0
100
AcDbLine
 62
7
  6
CONTINUOUS
 10
54.9172319916
 20
68.4629357577
 11
54.9172319916
 21
67.6629357577
  0
LINE
  5
302
100
AcDbEntity
  8
0
100
AcDbLine
 62
7
  6
CONTINUOUS
 10
55.1670029174
 20
67.6629357577
 11
55.1670029174
 21
65.8629357577
  0
LINE
  5
303
100
AcDbEntity
  8
0
100
AcDbLine
 62
7
  6
CONTINUOUS
 10
53.4899883667
 20
63.088440605
 11
53.3697060469
 21
62.9539608832
  0
LINE
  5
304
100
AcDbEntity
  8
0
100
AcDbLine
 62
7
  6
CONTINUOUS
 10
19.2497398398
 20
73.1629357577
 11
19.2951919049
 21
73.1629357577
  0
LINE
  5
305
100
AcDbEntity
  8
0
100
AcDbLine
 62
7
  6
CONTINUOUS
 10
22.7575518727
 20
90.9725665972
 11
21.3296747087
 21
91.8998408697
  0
LINE
  5
306
100
AcDbEntity
  8
0
100
AcDbLine
 62
7
  6
CONTINUOUS
 10
57.1670029174
 20
68.4629357577
 11
57.1670029174
 21
70.6629357577
  0
LINE
  5
307
100
AcDbEntity
  8
0
100
AcDbLine
 62
7
  6
CONTINUOUS
 10
57.2670029174
 20
67.6629357577
 11
57.2670029174
 21
65.8629357577
  0
LINE
  5
308
100
AcDbEntity
  8
0
100
AcDbLine
 62
7
  6
CONTINUOUS
 10
57.7172319916
 20
68.4629357577
 11
57.7172319916
 21
67.6629357577
  0
LINE
  5
309
100
AcDbEntity
  8
0
100
AcDbLine
 62
7
  6
CONTINUOUS
 10
59.9435474677
 20
66.7629357577
 11
59.9435474677
 21
70.3629357577
  0
LINE
  5
30A
100
AcDbEntity
  8
0
100
AcDbLine
 62
7
  6
CONTINUOUS
 10
19.2170029174
 20
69.8806272113
 11
18.5169908259
 21
69.6929627261
  0
LINE
  5
30B
100
AcDbEntity
  8
0
100
AcDbLine
 62
7
  6
CONTINUOUS
 10
80.1170152769
 20
69.6929626053
 11
77.6170128914
 21
70.3629334121
  0
LINE
  5
30C
100
AcDbEntity
  8
0
100
AcDbLine
 62
7
  6
CONTINUOUS
 10
61.7170029174
 20
70.3629357577
 11
61.7170029174
 21
66.7629357577
  0
LINE
  5
30D
100
AcDbEntity
  8
0
100
AcDbLine
 62
7
  6
CONTINUOUS
 10
63.2670029174
 20
100.1354804806
 11
63.2670029174
 21
100.2371877562
  0
LINE
  5
30E
100
AcDbEntity
  8
0
100
AcDbLine
 62
7
  6
CONTINUOUS
 10
50.924829084
 20
31.3355141724
 11
51.5372614033
 21
33.0582778211
  0
LINE
  5
30F
100
AcDbEntity
  8
0
100
AcDbLine
 62
7
  6
CONTINUOUS
 10
66.8170029174
 20
70.9629357577
 11
66.2170029174
 21
71.5629357577
  0
LINE
  5
310
100
AcDbEntity
  8
0
100
AcDbLine
 62
7
  6
CONTINUOUS
 10
73.9170029174
 20
64.3629357577
 11
73.6170029174
 21
64.6629357577
  0
LINE
  5
311
100
AcDbEntity
  8
0
100
AcDbLine
 62
7
  6
CONTINUOUS
 10
64.9170029174
 20
33.4912522143
 11
64.9170029174
 21
33.3447452563
  0
LINE
  5
312
100
AcDbEntity
  8
0
100
AcDbLine
 62
7
  6
CONTINUOUS
 10
64.9170029174
 20
102.6559169847
 11
64.9170029174
 21
102.7811262591
  0
LINE
  5
313
100
AcDbEntity
  8
0
100
AcDbLine
 62
7
  6
CONTINUOUS
 10
65.4170029174
 20
71.5629357577
 11
65.4170029174
 21
70.3629357577
  0
LINE
  5
314
100
AcDbEntity
  8
0
100
AcDbLine
 62
7
  6
CONTINUOUS
 10
65.9670029174
 20
98.8205059641
 11
65.9670029174
 21
99.0077537706
  0
LINE
  5
315
100
AcDbEntity
  8
0
100
AcDbLine
 62
7
  6
CONTINUOUS
 10
66.3170029174
 20
34.0197013515
 11
66.3170029174
 21
34.0567854529
  0
LINE
  5
316
100
AcDbEntity
  8
0
100
AcDbLine
 62
7
  6
CONTINUOUS
 10
66.3170029174
 20
70.3629357577
 11
66.3170029174
 21
70.4629357577
  0
LINE
  5
317
100
AcDbEntity
  8
0
100
AcDbLine
 62
7
  6
CONTINUOUS
 10
66.8170029174
 20
70.4629357577
 11
66.8170029174
 21
70.9629357577
  0
LINE
  5
318
100
AcDbEntity
  8
0
100
AcDbLine
 62
7
  6
CONTINUOUS
 10
73.9170029174
 20
71.7629357577
 11
73.6170029174
 21
71.4629357577
  0
LINE
  5
319
100
AcDbEntity
  8
0
100
AcDbLine
 62
7
  6
CONTINUOUS
 10
68.7170029174
 20
64.3629357577
 11
69.0170029174
 21
64.6629357577
  0
LINE
  5
31A
100
AcDbEntity
  8
0
100
AcDbLine
 62
7
  6
CONTINUOUS
 10
68.7170029174
 20
71.7629357577
 11
69.0170029174
 21
71.4629357577
  0
LINE
  5
31B
100
AcDbEntity
  8
0
100
AcDbLine
 62
7
  6
CONTINUOUS
 10
48.7175427735
 20
106.2629357577
 11
48.8175643678
 21
106.0629357577
  0
LINE
  5
31C
100
AcDbEntity
  8
0
100
AcDbLine
 62
7
  6
CONTINUOUS
 10
68.1170029174
 20
98.0287600414
 11
68.1170029174
 21
97.6740084333
  0
LINE
  5
31D
100
AcDbEntity
  8
0
100
AcDbLine
 62
7
  6
CONTINUOUS
 10
68.2170029174
 20
72.2629357577
 11
68.2170029174
 21
63.8629357577
  0
LINE
  5
31E
100
AcDbEntity
  8
0
100
AcDbLine
 62
7
  6
CONTINUOUS
 10
68.7170029174
 20
64.3629357577
 11
68.7170029174
 21
71.7629357577
  0
LINE
  5
31F
100
AcDbEntity
  8
0
100
AcDbLine
 62
7
  6
CONTINUOUS
 10
69.0170029174
 20
71.4629357577
 11
69.0170029174
 21
64.6629357577
  0
LINE
  5
320
100
AcDbEntity
  8
0
100
AcDbLine
 62
7
  6
CONTINUOUS
 10
69.6170029174
 20
68.0629357577
 11
69.6170029174
 21
69.5629357577
  0
LINE
  5
321
100
AcDbEntity
  8
0
100
AcDbLine
 62
7
  6
CONTINUOUS
 10
69.7170029174
 20
68.0629357577
 11
69.7170029174
 21
69.5629357577
  0
LINE
  5
322
100
AcDbEntity
  8
0
100
AcDbLine
 62
7
  6
CONTINUOUS
 10
70.5170029174
 20
67.7129357577
 11
70.5170029174
 21
69.5629357577
  0
LINE
  5
323
100
AcDbEntity
  8
0
100
AcDbLine
 62
7
  6
CONTINUOUS
 10
70.6170029174
 20
67.7129357577
 11
70.6170029174
 21
69.5629357577
  0
LINE
  5
324
100
AcDbEntity
  8
0
100
AcDbLine
 62
7
  6
CONTINUOUS
 10
70.8170029174
 20
68.3629357577
 11
70.8170029174
 21
67.7629357577
  0
LINE
  5
325
100
AcDbEntity
  8
0
100
AcDbLine
 62
7
  6
CONTINUOUS
 10
81.6170029174
 20
69.5629357577
 11
80.9170029174
 21
68.8629357577
  0
LINE
  5
326
100
AcDbEntity
  8
0
100
AcDbLine
 62
7
  6
CONTINUOUS
 10
80.9170029174
 20
67.2629357577
 11
81.6170029174
 21
66.5629357577
  0
LINE
  5
327
100
AcDbEntity
  8
0
100
AcDbLine
 62
7
  6
CONTINUOUS
 10
52.3170245116
 20
106.2629357577
 11
52.4170031249
 21
106.0629525213
  0
LINE
  5
328
100
AcDbEntity
  8
0
100
AcDbLine
 62
7
  6
CONTINUOUS
 10
71.8170029174
 20
68.3629357577
 11
71.8170029174
 21
67.7629357577
  0
LINE
  5
329
100
AcDbEntity
  8
0
100
AcDbLine
 62
7
  6
CONTINUOUS
 10
72.0170029174
 20
67.7129357577
 11
72.0170029174
 21
69.5629357577
  0
LINE
  5
32A
100
AcDbEntity
  8
0
100
AcDbLine
 62
7
  6
CONTINUOUS
 10
72.1170029174
 20
67.7129357577
 11
72.1170029174
 21
69.5629357577
  0
LINE
  5
32B
100
AcDbEntity
  8
0
100
AcDbLine
 62
7
  6
CONTINUOUS
 10
72.3170029174
 20
37.6739620815
 11
72.3170029174
 21
37.7488786406
  0
LINE
  5
32C
100
AcDbEntity
  8
0
100
AcDbLine
 62
7
  6
CONTINUOUS
 10
72.3170029174
 20
37.7905305804
 11
72.3170029174
 21
37.8129203136
  0
LINE
  5
32D
100
AcDbEntity
  8
0
100
AcDbLine
 62
7
  6
CONTINUOUS
 10
72.3170029174
 20
98.3769929011
 11
72.3170029174
 21
98.4517651101
  0
LINE
  5
32E
100
AcDbEntity
  8
0
100
AcDbLine
 62
7
  6
CONTINUOUS
 10
72.9170029174
 20
68.0629357577
 11
72.9170029174
 21
69.5629357577
  0
LINE
  5
32F
100
AcDbEntity
  8
0
100
AcDbLine
 62
7
  6
CONTINUOUS
 10
73.0170029174
 20
68.0629357577
 11
73.0170029174
 21
69.5629357577
  0
LINE
  5
330
100
AcDbEntity
  8
0
100
AcDbLine
 62
7
  6
CONTINUOUS
 10
73.6170029174
 20
64.6629357577
 11
73.6170029174
 21
71.4629357577
  0
LINE
  5
331
100
AcDbEntity
  8
0
100
AcDbLine
 62
7
  6
CONTINUOUS
 10
73.9170029174
 20
71.7629357577
 11
73.9170029174
 21
64.3629357577
  0
LINE
  5
332
100
AcDbEntity
  8
0
100
AcDbLine
 62
7
  6
CONTINUOUS
 10
74.4170029174
 20
63.8629357577
 11
74.4170029174
 21
72.2629357577
  0
LINE
  5
333
100
AcDbEntity
  8
0
100
AcDbLine
 62
7
  6
CONTINUOUS
 10
76.3169977969
 20
41.3556765941
 11
76.3169978386
 21
41.2762156525
  0
LINE
  5
334
100
AcDbEntity
  8
0
100
AcDbLine
 62
7
  6
CONTINUOUS
 10
78.6170029174
 20
65.2629357588
 11
78.6170029174
 21
63.6629357581
  0
LINE
  5
335
100
AcDbEntity
  8
0
100
AcDbLine
 62
7
  6
CONTINUOUS
 10
80.1170029174
 20
68.8629357577
 11
80.1170152769
 21
69.6929626053
  0
LINE
  5
336
100
AcDbEntity
  8
0
100
AcDbLine
 62
7
  6
CONTINUOUS
 10
80.1170029174
 20
67.2629357577
 11
80.1170029174
 21
66.7629357595
  0
LINE
  5
337
100
AcDbEntity
  8
0
100
AcDbLine
 62
7
  6
CONTINUOUS
 10
47.5669329887
 20
97.6129357577
 11
51.0670728461
 21
97.6129357577
  0
LINE
  5
338
100
AcDbEntity
  8
0
100
AcDbLine
 62
7
  6
CONTINUOUS
 10
82.1170029174
 20
66.5629357577
 11
82.1170029174
 21
69.5629357577
  0
LINE
  5
339
100
AcDbEntity
  8
0
100
AcDbLine
 62
7
  6
CONTINUOUS
 10
72.3851864192
 20
37.7301711176
 11
72.3170064984
 21
37.6739923753
  0
LINE
  5
33A
100
AcDbEntity
  8
0
100
AcDbLine
 62
7
  6
CONTINUOUS
 10
72.3860874383
 20
37.7285890965
 11
72.3170064984
 21
37.6739923753
  0
LINE
  5
33B
100
AcDbEntity
  8
0
100
AcDbLine
 62
7
  6
CONTINUOUS
 10
49.8175643678
 20
106.0629357577
 11
48.8175643678
 21
106.0629357577
  0
LINE
  5
33C
100
AcDbEntity
  8
0
100
AcDbLine
 62
7
  6
CONTINUOUS
 10
46.3170245116
 20
106.2629357577
 11
52.3170245116
 21
106.2629357577
  0
LINE
  5
33D
100
AcDbEntity
  8
0
100
AcDbLine
 62
7
  6
CONTINUOUS
 10
72.3169873839
 20
98.4517497171
 11
72.3859289693
 21
98.3972658757
  0
LINE
  5
33E
100
AcDbEntity
  8
0
100
AcDbLine
 62
7
  6
CONTINUOUS
 10
72.3169873839
 20
98.4517497171
 11
72.3850400534
 21
98.3957049428
  0
ARC
  5
33F
100
AcDbEntity
  8
0
100
AcDbCircle
 62
7
  6
CONTINUOUS
 10
18.6830189829
 20
61.2545990764
 40
1.753311034
100
AcDbArc
 50
66.7261552917
 51
69.307900883
  0
ARC
  5
340
100
AcDbEntity
  8
0
100
AcDbCircle
 62
7
  6
CONTINUOUS
 10
18.6683099045
 20
74.9074446671
 40
1.7923519351
100
AcDbArc
 50
290.9123098999
 51
293.2491552992
  0
ARC
  5
341
100
AcDbEntity
  8
0
100
AcDbCircle
 62
7
  6
CONTINUOUS
 10
52.4170029174
 20
35.1837535142
 40
0.9
100
AcDbArc
 50
6.1669212814
 51
168.0011569811
  0
ARC
  5
342
100
AcDbEntity
  8
0
100
AcDbCircle
 62
7
  6
CONTINUOUS
 10
52.4170029174
 20
35.1837535142
 40
0.9
100
AcDbArc
 50
180.0
 51
184.602962569
  0
ARC
  5
343
100
AcDbEntity
  8
0
100
AcDbCircle
 62
7
  6
CONTINUOUS
 10
46.9876670416
 20
66.3042141801
 40
40.9272863609
100
AcDbArc
 50
44.2240373539
 51
51.6421048856
  0
ARC
  5
344
100
AcDbEntity
  8
0
100
AcDbCircle
 62
7
  6
CONTINUOUS
 10
47.9802151502
 20
66.1658820801
 40
40.3202076549
100
AcDbArc
 50
45.3486574971
 51
52.8727188039
  0
ARC
  5
345
100
AcDbEntity
  8
0
100
AcDbCircle
 62
7
  6
CONTINUOUS
 10
49.0910428714
 20
66.8084586163
 40
4.4912476446
100
AcDbArc
 50
30.8149041155
 51
45.4716456619
  0
ARC
  5
346
100
AcDbEntity
  8
0
100
AcDbCircle
 62
7
  6
CONTINUOUS
 10
48.9784758923
 20
66.6800377748
 40
4.481517946
100
AcDbArc
 50
30.8003244187
 51
45.4876450746
  0
ARC
  5
347
100
AcDbEntity
  8
0
100
AcDbCircle
 62
7
  6
CONTINUOUS
 10
49.1749943785
 20
66.8518940083
 40
4.1040933433
100
AcDbArc
 50
181.8884827292
 51
182.70708712
  0
ARC
  5
348
100
AcDbEntity
  8
0
100
AcDbCircle
 62
7
  6
CONTINUOUS
 10
49.1277457643
 20
66.8458398597
 40
4.0566133139
100
AcDbArc
 50
182.6531920254
 51
200.7346427956
  0
ARC
  5
349
100
AcDbEntity
  8
0
100
AcDbCircle
 62
7
  6
CONTINUOUS
 10
49.1519188693
 20
66.6802594626
 40
3.9557375737
100
AcDbArc
 50
198.3379808786
 51
213.3123576023
  0
ARC
  5
34A
100
AcDbEntity
  8
0
100
AcDbCircle
 62
7
  6
CONTINUOUS
 10
49.0164673963
 20
66.8069115617
 40
3.938761376
100
AcDbArc
 50
200.7781389951
 51
216.402281273
  0
ARC
  5
34B
100
AcDbEntity
  8
0
100
AcDbCircle
 62
7
  6
CONTINUOUS
 10
45.4760206689
 20
63.7311816157
 40
0.7798301508
100
AcDbArc
 50
292.1131829333
 51
302.0182723459
  0
ARC
  5
34C
100
AcDbEntity
  8
0
100
AcDbCircle
 62
7
  6
CONTINUOUS
 10
45.6011556724
 20
63.5831647033
 40
0.7654447483
100
AcDbArc
 50
282.2569010294
 51
289.7198426258
  0
ARC
  5
34D
100
AcDbEntity
  8
0
100
AcDbCircle
 62
7
  6
CONTINUOUS
 10
45.320603811
 20
67.3934752403
 40
0.1441748618
100
AcDbArc
 50
261.4933836741
 51
271.3047471575
  0
ARC
  5
34E
100
AcDbEntity
  8
0
100
AcDbCircle
 62
7
  6
CONTINUOUS
 10
49.2759023335
 20
56.3981043211
 40
5.4874364383
100
AcDbArc
 50
120.9836879705
 51
121.2959539595
  0
ARC
  5
34F
100
AcDbEntity
  8
0
100
AcDbCircle
 62
7
  6
CONTINUOUS
 10
49.3296489054
 20
56.8735419671
 40
4.2725033336
100
AcDbArc
 50
113.0930318936
 51
113.3279578642
  0
ARC
  5
350
100
AcDbEntity
  8
0
100
AcDbCircle
 62
7
  6
CONTINUOUS
 10
49.3170001781
 20
56.9161790301
 40
4.2282920893
100
AcDbArc
 50
66.8738675074
 51
113.1619788318
  0
ARC
  5
351
100
AcDbEntity
  8
0
100
AcDbCircle
 62
7
  6
CONTINUOUS
 10
51.8156545798
 20
66.1176502285
 40
41.1787986523
100
AcDbArc
 50
128.3816971564
 51
135.7542892531
  0
ARC
  5
352
100
AcDbEntity
  8
0
100
AcDbCircle
 62
7
  6
CONTINUOUS
 10
50.5813218234
 20
66.248656192
 40
40.2104430284
100
AcDbArc
 50
127.116226391
 51
134.6607304908
  0
ARC
  5
353
100
AcDbEntity
  8
0
100
AcDbCircle
 62
7
  6
CONTINUOUS
 10
49.3170029174
 20
67.0104882053
 40
30.7361051807
100
AcDbArc
 50
12.2202015898
 51
167.7797961133
  0
ARC
  5
354
100
AcDbEntity
  8
0
100
AcDbCircle
 62
7
  6
CONTINUOUS
 10
49.3170029174
 20
67.0104882053
 40
30.6524475524
100
AcDbArc
 50
95.0559055866
 51
167.7468118372
  0
ARC
  5
355
100
AcDbEntity
  8
0
100
AcDbCircle
 62
7
  6
CONTINUOUS
 10
49.3170029174
 20
67.0104882053
 40
30.6524475524
100
AcDbArc
 50
12.2531895097
 51
86.7269766332
  0
ARC
  5
356
100
AcDbEntity
  8
0
100
AcDbCircle
 62
7
  6
CONTINUOUS
 10
49.3170029174
 20
67.0629357577
 40
7.9
100
AcDbArc
 50
27.6599983573
 51
61.4473626398
  0
ARC
  5
357
100
AcDbEntity
  8
0
100
AcDbCircle
 62
7
  6
CONTINUOUS
 10
49.3170029174
 20
67.0129357577
 40
7.9
100
AcDbArc
 50
118.5526373602
 51
161.0381537496
  0
ARC
  5
358
100
AcDbEntity
  8
0
100
AcDbCircle
 62
7
  6
CONTINUOUS
 10
49.3170029174
 20
67.0629357577
 40
6.9
100
AcDbArc
 50
320.440841325
 51
346.6709900912
  0
ARC
  5
359
100
AcDbEntity
  8
0
100
AcDbCircle
 62
7
  6
CONTINUOUS
 10
49.3170029174
 20
67.0629357577
 40
6.9
100
AcDbArc
 50
34.9182965428
 51
61.4473626399
  0
ARC
  5
35A
100
AcDbEntity
  8
0
100
AcDbCircle
 62
7
  6
CONTINUOUS
 10
49.3170029174
 20
67.0129357577
 40
6.9
100
AcDbArc
 50
118.5526373601
 51
150.5856586774
  0
ARC
  5
35B
100
AcDbEntity
  8
0
100
AcDbCircle
 62
7
  6
CONTINUOUS
 10
49.3170029174
 20
67.0129357577
 40
6.9
100
AcDbArc
 50
190.6656974212
 51
221.8103148958
  0
ARC
  5
35C
100
AcDbEntity
  8
0
100
AcDbCircle
 62
7
  6
CONTINUOUS
 10
49.3170029174
 20
67.0629357577
 40
5.8
100
AcDbArc
 50
38.3353005025
 51
61.4473626399
  0
ARC
  5
35D
100
AcDbEntity
  8
0
100
AcDbCircle
 62
7
  6
CONTINUOUS
 10
49.3170029174
 20
67.0629357577
 40
5.8
100
AcDbArc
 50
318.1896851042
 51
350.9386043032
  0
ARC
  5
35E
100
AcDbEntity
  8
0
100
AcDbCircle
 62
7
  6
CONTINUOUS
 10
49.3170029174
 20
67.0129357577
 40
5.8
100
AcDbArc
 50
147.1510727261
 51
149.2141687917
  0
ARC
  5
35F
100
AcDbEntity
  8
0
100
AcDbCircle
 62
7
  6
CONTINUOUS
 10
49.3170029174
 20
67.0129357577
 40
5.8
100
AcDbArc
 50
118.5526373601
 51
145.8666609152
  0
ARC
  5
360
100
AcDbEntity
  8
0
100
AcDbCircle
 62
7
  6
CONTINUOUS
 10
49.3170029174
 20
67.0129357577
 40
5.8
100
AcDbArc
 50
188.5564821711
 51
221.8103148958
  0
ARC
  5
361
100
AcDbEntity
  8
0
100
AcDbCircle
 62
7
  6
CONTINUOUS
 10
53.0355525911
 20
63.6413224769
 40
0.7740360087
100
AcDbArc
 50
248.8840030761
 51
252.237799
  0
ARC
  5
362
100
AcDbEntity
  8
0
100
AcDbCircle
 62
7
  6
CONTINUOUS
 10
53.0320577393
 20
63.6301258784
 40
0.7623069832
100
AcDbArc
 50
252.2312255183
 51
257.7489877542
  0
CIRCLE
  5
363
100
AcDbEntity
  8
0
100
AcDbCircle
 62
7
  6
CONTINUOUS
 10
63.7170029174
 20
53.8629357577
 40
2.7
  0
ARC
  5
364
100
AcDbEntity
  8
0
100
AcDbCircle
 62
7
  6
CONTINUOUS
 10
46.8183431466
 20
70.0082297011
 40
41.1788103053
100
AcDbArc
 50
308.3816987325
 51
315.7542887036
  0
ARC
  5
365
100
AcDbEntity
  8
0
100
AcDbCircle
 62
7
  6
CONTINUOUS
 10
48.0526864128
 20
69.877213372
 40
40.2104399855
100
AcDbArc
 50
307.1162253617
 51
314.6607299797
  0
ARC
  5
366
100
AcDbEntity
  8
0
100
AcDbCircle
 62
7
  6
CONTINUOUS
 10
44.4575351144
 20
68.0629357577
 40
25.7639755384
100
AcDbArc
 50
182.8922615599
 51
192.2201995931
  0
ARC
  5
367
100
AcDbEntity
  8
0
100
AcDbCircle
 62
7
  6
CONTINUOUS
 10
44.4575351144
 20
68.0629357577
 40
25.7639755384
100
AcDbArc
 50
167.7797952846
 51
176.2337310171
  0
ARC
  5
368
100
AcDbEntity
  8
0
100
AcDbCircle
 62
7
  6
CONTINUOUS
 10
44.4710238831
 20
68.0629357577
 40
25.6935002195
100
AcDbArc
 50
189.860477682
 51
192.2531881628
  0
ARC
  5
369
100
AcDbEntity
  8
0
100
AcDbCircle
 62
7
  6
CONTINUOUS
 10
44.4710238831
 20
68.0629357577
 40
25.6935002195
100
AcDbArc
 50
182.9002015868
 51
187.9773924346
  0
ARC
  5
36A
100
AcDbEntity
  8
0
100
AcDbCircle
 62
7
  6
CONTINUOUS
 10
44.4710238831
 20
68.0629357577
 40
25.6935002195
100
AcDbArc
 50
167.7468118372
 51
176.1720997569
  0
ARC
  5
36B
100
AcDbEntity
  8
0
100
AcDbCircle
 62
7
  6
CONTINUOUS
 10
49.0492650343
 20
79.30055445
 40
5.0054825008
100
AcDbArc
 50
236.1442016251
 51
239.1545322699
  0
ARC
  5
36C
100
AcDbEntity
  8
0
100
AcDbCircle
 62
7
  6
CONTINUOUS
 10
48.9868227073
 20
79.198971102
 40
4.8862523205
100
AcDbArc
 50
239.1724237895
 51
239.6795660795
  0
ARC
  5
36D
100
AcDbEntity
  8
0
100
AcDbCircle
 62
7
  6
CONTINUOUS
 10
49.3043569272
 20
79.2523295534
 40
4.2725033391
100
AcDbArc
 50
293.0930318938
 51
293.3279578641
  0
ARC
  5
36E
100
AcDbEntity
  8
0
100
AcDbCircle
 62
7
  6
CONTINUOUS
 10
45.7800550806
 20
73.5129357577
 40
1.6
100
AcDbArc
 50
298.5526373605
 51
74.3858240784
  0
ARC
  5
36F
100
AcDbEntity
  8
0
100
AcDbCircle
 62
7
  6
CONTINUOUS
 10
45.7800550806
 20
73.5129357577
 40
0.5
100
AcDbArc
 50
298.5526373608
 51
118.5526373604
  0
ARC
  5
370
100
AcDbEntity
  8
0
100
AcDbCircle
 62
7
  6
CONTINUOUS
 10
46.2170029174
 20
100.9421180012
 40
0.9
100
AcDbArc
 50
186.1669212814
 51
348.0011569811
  0
ARC
  5
371
100
AcDbEntity
  8
0
100
AcDbCircle
 62
7
  6
CONTINUOUS
 10
46.2170029174
 20
100.9421180012
 40
0.9
100
AcDbArc
 50
0.0
 51
4.602962569
  0
ARC
  5
372
100
AcDbEntity
  8
0
100
AcDbCircle
 62
7
  6
CONTINUOUS
 10
49.3170029174
 20
68.0629357577
 40
38.36
100
AcDbArc
 50
82.5105225274
 51
97.4894774726
  0
ARC
  5
373
100
AcDbEntity
  8
0
100
AcDbCircle
 62
7
  6
CONTINUOUS
 10
49.3170029174
 20
68.0629357577
 40
38.16
100
AcDbArc
 50
82.4710426028
 51
85.3382294489
  0
ARC
  5
374
100
AcDbEntity
  8
0
100
AcDbCircle
 62
7
  6
CONTINUOUS
 10
49.3170029174
 20
68.0629357577
 40
38.16
100
AcDbArc
 50
94.6617655571
 51
97.5289573972
  0
ARC
  5
375
100
AcDbEntity
  8
0
100
AcDbCircle
 62
7
  6
CONTINUOUS
 10
49.3170029174
 20
68.0629357577
 40
38.061959378
100
AcDbArc
 50
65.8040827051
 51
85.7057111202
  0
ARC
  5
376
100
AcDbEntity
  8
0
100
AcDbCircle
 62
7
  6
CONTINUOUS
 10
49.3170029174
 20
68.0629357577
 40
38.061959378
100
AcDbArc
 50
245.8040827051
 51
294.1959172949
  0
ARC
  5
377
100
AcDbEntity
  8
0
100
AcDbCircle
 62
7
  6
CONTINUOUS
 10
49.3170029174
 20
68.0629357577
 40
38.061959378
100
AcDbArc
 50
94.29412589
 51
114.1959172949
  0
ARC
  5
378
100
AcDbEntity
  8
0
100
AcDbCircle
 62
7
  6
CONTINUOUS
 10
49.3170029174
 20
68.0629357577
 40
38.051830531
100
AcDbArc
 50
116.5359378696
 51
127.1884638567
  0
ARC
  5
379
100
AcDbEntity
  8
0
100
AcDbCircle
 62
7
  6
CONTINUOUS
 10
49.3170029174
 20
68.0629357577
 40
38.051830531
100
AcDbArc
 50
52.8115359654
 51
63.4640621087
  0
ARC
  5
37A
100
AcDbEntity
  8
0
100
AcDbCircle
 62
7
  6
CONTINUOUS
 10
49.3170029174
 20
68.0629357577
 40
38.051830531
100
AcDbArc
 50
232.8115359654
 51
243.4640621086
  0
ARC
  5
37B
100
AcDbEntity
  8
0
100
AcDbCircle
 62
7
  6
CONTINUOUS
 10
49.3170029174
 20
68.0629357577
 40
38.051830531
100
AcDbArc
 50
296.5359378696
 51
307.188463855
  0
ARC
  5
37C
100
AcDbEntity
  8
0
100
AcDbCircle
 62
7
  6
CONTINUOUS
 10
49.3170029174
 20
68.0629357577
 40
38.01865671
100
AcDbArc
 50
116.5609060542
 51
127.2264053362
  0
ARC
  5
37D
100
AcDbEntity
  8
0
100
AcDbCircle
 62
7
  6
CONTINUOUS
 10
49.3170029174
 20
68.0629357577
 40
38.01865671
100
AcDbArc
 50
52.7735946101
 51
63.4390939241
  0
ARC
  5
37E
100
AcDbEntity
  8
0
100
AcDbCircle
 62
7
  6
CONTINUOUS
 10
49.3170029174
 20
68.0629357577
 40
38.01865671
100
AcDbArc
 50
296.5609060542
 51
307.2264053362
  0
ARC
  5
37F
100
AcDbEntity
  8
0
100
AcDbCircle
 62
7
  6
CONTINUOUS
 10
49.3170029174
 20
68.0629357577
 40
38.01865671
100
AcDbArc
 50
232.7735946101
 51
243.4390939241
  0
CIRCLE
  5
380
100
AcDbEntity
  8
0
100
AcDbCircle
 62
7
  6
CONTINUOUS
 10
49.3170029174
 20
68.0629357577
 40
38.0
  0
ARC
  5
381
100
AcDbEntity
  8
0
100
AcDbCircle
 62
7
  6
CONTINUOUS
 10
49.3170029174
 20
68.0629357577
 40
36.7625976503
100
AcDbArc
 50
139.5788475907
 51
152.5507872335
  0
ARC
  5
382
100
AcDbEntity
  8
0
100
AcDbCircle
 62
7
  6
CONTINUOUS
 10
49.3170029174
 20
68.0629357577
 40
36.7625976503
100
AcDbArc
 50
14.2027492009
 51
27.632901945
  0
ARC
  5
383
100
AcDbEntity
  8
0
100
AcDbCircle
 62
7
  6
CONTINUOUS
 10
49.3170029174
 20
68.0629357577
 40
36.7625976503
100
AcDbArc
 50
259.5948391502
 51
272.5066523151
  0
ARC
  5
384
100
AcDbEntity
  8
0
100
AcDbCircle
 62
7
  6
CONTINUOUS
 10
49.3170029174
 20
68.0629357577
 40
36.5749998693
100
AcDbArc
 50
27.670043925
 51
139.5405676004
  0
ARC
  5
385
100
AcDbEntity
  8
0
100
AcDbCircle
 62
7
  6
CONTINUOUS
 10
49.3170029174
 20
68.0629357577
 40
36.5749998688
100
AcDbArc
 50
272.6258945109
 51
14.2365595033
  0
ARC
  5
386
100
AcDbEntity
  8
0
100
AcDbCircle
 62
7
  6
CONTINUOUS
 10
49.3170029174
 20
68.0629357577
 40
36.5749998677
100
AcDbArc
 50
152.6413344983
 51
259.5461574556
  0
ARC
  5
387
100
AcDbEntity
  8
0
100
AcDbCircle
 62
7
  6
CONTINUOUS
 10
49.3170029174
 20
68.0629357577
 40
36.475
100
AcDbArc
 50
259.5199998595
 51
272.69
  0
ARC
  5
388
100
AcDbEntity
  8
0
100
AcDbCircle
 62
7
  6
CONTINUOUS
 10
49.3170029174
 20
68.0629357577
 40
36.475
100
AcDbArc
 50
14.254725503
 51
27.69
  0
ARC
  5
389
100
AcDbEntity
  8
0
100
AcDbCircle
 62
7
  6
CONTINUOUS
 10
49.3170029174
 20
68.0629357577
 40
36.475
100
AcDbArc
 50
139.5199999277
 51
152.69
  0
ARC
  5
38A
100
AcDbEntity
  8
0
100
AcDbCircle
 62
7
  6
CONTINUOUS
 10
49.3170029174
 20
68.0629357577
 40
35.375
100
AcDbArc
 50
27.9170265556
 51
139.2860125065
  0
ARC
  5
38B
100
AcDbEntity
  8
0
100
AcDbCircle
 62
7
  6
CONTINUOUS
 10
49.3170029174
 20
68.0629357577
 40
35.375
100
AcDbArc
 50
273.421178833
 51
14.4613752627
  0
ARC
  5
38C
100
AcDbEntity
  8
0
100
AcDbCircle
 62
7
  6
CONTINUOUS
 10
49.3170029174
 20
68.0629357577
 40
35.375
100
AcDbArc
 50
153.2443954897
 51
259.2223653185
  0
ARC
  5
38D
100
AcDbEntity
  8
0
100
AcDbCircle
 62
7
  6
CONTINUOUS
 10
49.3170029174
 20
68.0629357577
 40
35.075
100
AcDbArc
 50
259.1428141555
 51
14.5200000429
  0
ARC
  5
38E
100
AcDbEntity
  8
0
100
AcDbCircle
 62
7
  6
CONTINUOUS
 10
49.3170029174
 20
68.0629357577
 40
35.075
100
AcDbArc
 50
14.8568393747
 51
259.137904113
  0
ARC
  5
38F
100
AcDbEntity
  8
0
100
AcDbCircle
 62
7
  6
CONTINUOUS
 10
49.3170029174
 20
68.0629357577
 40
34.975
100
AcDbArc
 50
196.6889751257
 51
242.6941328511
  0
ARC
  5
390
100
AcDbEntity
  8
0
100
AcDbCircle
 62
7
  6
CONTINUOUS
 10
49.3170029174
 20
68.0629357577
 40
34.975
100
AcDbArc
 50
281.3378730057
 51
292.8263573061
  0
ARC
  5
391
100
AcDbEntity
  8
0
100
AcDbCircle
 62
7
  6
CONTINUOUS
 10
49.3170029174
 20
68.0629357577
 40
34.975
100
AcDbArc
 50
297.6512707727
 51
308.8723823405
  0
ARC
  5
392
100
AcDbEntity
  8
0
100
AcDbCircle
 62
7
  6
CONTINUOUS
 10
49.3170029174
 20
68.0629357577
 40
34.975
100
AcDbArc
 50
313.8709274604
 51
31.3748199364
  0
ARC
  5
393
100
AcDbEntity
  8
0
100
AcDbCircle
 62
7
  6
CONTINUOUS
 10
49.3170029174
 20
68.0629357577
 40
34.975
100
AcDbArc
 50
35.3681210407
 51
47.1957313979
  0
ARC
  5
394
100
AcDbEntity
  8
0
100
AcDbCircle
 62
7
  6
CONTINUOUS
 10
49.3170029174
 20
68.0629357577
 40
34.975
100
AcDbArc
 50
51.5677931827
 51
62.9114883891
  0
ARC
  5
395
100
AcDbEntity
  8
0
100
AcDbCircle
 62
7
  6
CONTINUOUS
 10
49.3170029174
 20
68.0629357577
 40
34.975
100
AcDbArc
 50
99.3743311959
 51
114.7073710837
  0
ARC
  5
396
100
AcDbEntity
  8
0
100
AcDbCircle
 62
7
  6
CONTINUOUS
 10
49.3170029174
 20
68.0629357577
 40
34.975
100
AcDbArc
 50
116.8652733338
 51
132.7613428018
  0
ARC
  5
397
100
AcDbEntity
  8
0
100
AcDbCircle
 62
7
  6
CONTINUOUS
 10
49.3170029174
 20
68.0629357577
 40
34.975
100
AcDbArc
 50
133.1740144166
 51
163.0590657205
  0
ARC
  5
398
100
AcDbEntity
  8
0
100
AcDbCircle
 62
7
  6
CONTINUOUS
 10
49.3170029174
 20
68.0629357577
 40
34.975
100
AcDbArc
 50
165.8295909949
 51
194.7950854572
  0
ARC
  5
399
100
AcDbEntity
  8
0
100
AcDbCircle
 62
7
  6
CONTINUOUS
 10
49.3170029174
 20
68.0629357577
 40
34.975
100
AcDbArc
 50
247.3649077365
 51
276.7943976921
  0
ARC
  5
39A
100
AcDbEntity
  8
0
100
AcDbCircle
 62
7
  6
CONTINUOUS
 10
49.3170029174
 20
68.0629357577
 40
34.975
100
AcDbArc
 50
67.8932436209
 51
97.899141221
  0
CIRCLE
  5
39B
100
AcDbEntity
  8
0
100
AcDbCircle
 62
7
  6
CONTINUOUS
 10
49.3170029174
 20
68.0629357577
 40
34.475
  0
CIRCLE
  5
39C
100
AcDbEntity
  8
0
100
AcDbCircle
 62
7
  6
CONTINUOUS
 10
49.3170029174
 20
68.0629357577
 40
33.025
  0
ARC
  5
39D
100
AcDbEntity
  8
0
100
AcDbCircle
 62
7
  6
CONTINUOUS
 10
49.3170029174
 20
68.0629357577
 40
30.5
100
AcDbArc
 50
6.7138961088
 51
10.6274400912
  0
ARC
  5
39E
100
AcDbEntity
  8
0
100
AcDbCircle
 62
7
  6
CONTINUOUS
 10
49.3170029174
 20
68.0629357577
 40
30.5
100
AcDbArc
 50
169.3715454395
 51
172.0576777896
  0
ARC
  5
39F
100
AcDbEntity
  8
0
100
AcDbCircle
 62
7
  6
CONTINUOUS
 10
49.3170029174
 20
68.0629357577
 40
30.5
100
AcDbArc
 50
185.2645973956
 51
190.627438359
  0
ARC
  5
3A0
100
AcDbEntity
  8
0
100
AcDbCircle
 62
7
  6
CONTINUOUS
 10
49.3170029174
 20
68.0629357577
 40
30.5
100
AcDbArc
 50
349.3715442126
 51
354.7354026026
  0
ARC
  5
3A1
100
AcDbEntity
  8
0
100
AcDbCircle
 62
7
  6
CONTINUOUS
 10
49.3170029174
 20
68.0629357577
 40
29.4337380232
100
AcDbArc
 50
264.5867849704
 51
275.333883821
  0
ARC
  5
3A2
100
AcDbEntity
  8
0
100
AcDbCircle
 62
7
  6
CONTINUOUS
 10
49.3170029174
 20
68.0629357577
 40
9.25
100
AcDbArc
 50
273.7190940954
 51
292.9040577913
  0
ARC
  5
3A3
100
AcDbEntity
  8
0
100
AcDbCircle
 62
7
  6
CONTINUOUS
 10
49.3170029174
 20
68.0629357577
 40
9.25
100
AcDbArc
 50
93.7190940954
 51
112.9040577913
  0
ARC
  5
3A4
100
AcDbEntity
  8
0
100
AcDbCircle
 62
7
  6
CONTINUOUS
 10
49.3170029174
 20
68.0629357577
 40
8.92
100
AcDbArc
 50
14.9423806505
 51
93.8568883675
  0
ARC
  5
3A5
100
AcDbEntity
  8
0
100
AcDbCircle
 62
7
  6
CONTINUOUS
 10
49.3170029174
 20
68.0629357577
 40
8.92
100
AcDbArc
 50
293.8026393554
 51
351.6198719037
  0
ARC
  5
3A6
100
AcDbEntity
  8
0
100
AcDbCircle
 62
7
  6
CONTINUOUS
 10
49.3170029174
 20
68.0629357577
 40
8.92
100
AcDbArc
 50
113.8026393554
 51
165.0576193495
  0
ARC
  5
3A7
100
AcDbEntity
  8
0
100
AcDbCircle
 62
7
  6
CONTINUOUS
 10
49.3170029174
 20
68.0629357577
 40
8.92
100
AcDbArc
 50
188.3801280963
 51
273.8568883675
  0
ARC
  5
3A8
100
AcDbEntity
  8
0
100
AcDbCircle
 62
7
  6
CONTINUOUS
 10
49.3170029174
 20
68.0629357577
 40
7.65
100
AcDbArc
 50
20.1508103254
 51
94.4984066689
  0
ARC
  5
3A9
100
AcDbEntity
  8
0
100
AcDbCircle
 62
7
  6
CONTINUOUS
 10
49.3170029174
 20
68.0629357577
 40
7.65
100
AcDbArc
 50
276.1319750745
 51
345.1686224514
  0
ARC
  5
3AA
100
AcDbEntity
  8
0
100
AcDbCircle
 62
7
  6
CONTINUOUS
 10
49.3170029174
 20
68.0629357577
 40
7.65
100
AcDbArc
 50
96.1319750745
 51
169.7066784416
  0
ARC
  5
3AB
100
AcDbEntity
  8
0
100
AcDbCircle
 62
7
  6
CONTINUOUS
 10
49.3170029174
 20
68.0629357577
 40
7.65
100
AcDbArc
 50
182.9972245427
 51
274.4984066689
  0
ARC
  5
3AC
100
AcDbEntity
  8
0
100
AcDbCircle
 62
7
  6
CONTINUOUS
 10
49.3170029174
 20
69.1153833101
 40
30.7361051807
100
AcDbArc
 50
192.2201995931
 51
347.7797947008
  0
ARC
  5
3AD
100
AcDbEntity
  8
0
100
AcDbCircle
 62
7
  6
CONTINUOUS
 10
49.3170029174
 20
69.1153833101
 40
30.6524475524
100
AcDbArc
 50
192.2531881628
 51
264.8527591277
  0
ARC
  5
3AE
100
AcDbEntity
  8
0
100
AcDbCircle
 62
7
  6
CONTINUOUS
 10
49.3170029174
 20
69.1153833101
 40
30.6524475524
100
AcDbArc
 50
276.1610950794
 51
347.7468104903
  0
ARC
  5
3AF
100
AcDbEntity
  8
0
100
AcDbCircle
 62
7
  6
CONTINUOUS
 10
51.6463302694
 20
69.8216471234
 40
40.9272731028
100
AcDbArc
 50
224.2240354007
 51
231.6421053672
  0
ARC
  5
3B0
100
AcDbEntity
  8
0
100
AcDbCircle
 62
7
  6
CONTINUOUS
 10
50.6537942242
 20
69.9599946568
 40
40.3202139118
100
AcDbArc
 50
225.34865911
 51
232.8727192935
  0
ARC
  5
3B1
100
AcDbEntity
  8
0
100
AcDbCircle
 62
7
  6
CONTINUOUS
 10
49.317006385
 20
79.2096953623
 40
4.2282948655
100
AcDbArc
 50
246.8738737424
 51
293.1619544239
  0
ARC
  5
3B2
100
AcDbEntity
  8
0
100
AcDbCircle
 62
7
  6
CONTINUOUS
 10
54.176468381
 20
68.0629357577
 40
25.7639778248
100
AcDbArc
 50
347.7797947007
 51
357.1077386969
  0
ARC
  5
3B3
100
AcDbEntity
  8
0
100
AcDbCircle
 62
7
  6
CONTINUOUS
 10
54.176468381
 20
68.0629357577
 40
25.7639778248
100
AcDbArc
 50
3.7662686774
 51
12.220200874
  0
ARC
  5
3B4
100
AcDbEntity
  8
0
100
AcDbCircle
 62
7
  6
CONTINUOUS
 10
54.1629814024
 20
68.0629357577
 40
25.6935007562
100
AcDbArc
 50
347.7468104903
 51
350.1395225261
  0
ARC
  5
3B5
100
AcDbEntity
  8
0
100
AcDbCircle
 62
7
  6
CONTINUOUS
 10
54.1629814024
 20
68.0629357577
 40
25.6935007562
100
AcDbArc
 50
3.8279001699
 51
12.2531895097
  0
ARC
  5
3B6
100
AcDbEntity
  8
0
100
AcDbCircle
 62
7
  6
CONTINUOUS
 10
54.1629814024
 20
68.0629357577
 40
25.6935007562
100
AcDbArc
 50
352.0226084634
 51
357.0997984738
  0
ARC
  5
3B7
100
AcDbEntity
  8
0
100
AcDbCircle
 62
7
  6
CONTINUOUS
 10
52.8539507542
 20
73.5629357577
 40
1.6
100
AcDbArc
 50
108.1362501923
 51
241.4473626394
  0
ARC
  5
3B8
100
AcDbEntity
  8
0
100
AcDbCircle
 62
7
  6
CONTINUOUS
 10
52.8539507542
 20
73.5629357577
 40
0.5
100
AcDbArc
 50
61.4473626396
 51
241.4473626393
  0
ARC
  5
3B9
100
AcDbEntity
  8
0
100
AcDbCircle
 62
7
  6
CONTINUOUS
 10
52.4170029174
 20
100.9421180012
 40
0.9
100
AcDbArc
 50
175.3945527544
 51
180.0
  0
ARC
  5
3BA
100
AcDbEntity
  8
0
100
AcDbCircle
 62
7
  6
CONTINUOUS
 10
52.4170029174
 20
100.9421180012
 40
0.9
100
AcDbArc
 50
191.9096878471
 51
353.8305957923
  0
SPLINE
  5
3BB
100
AcDbEntity
  8
0
100
AcDbSpline
 62
7
  6
CONTINUOUS
 70
0
 71
3
 72
9
 73
5
 74
0
 42
0.0000001
 43
0.0000001
 44
0.0000000001
 40
0.0
 40
0.0
 40
0.0
 40
0.0
 40
0.4978028472
 40
1.0
 40
1.0
 40
1.0
 40
1.0
 10
45.3358046407
 20
67.1609923952
 30
0.0
 10
45.3242371644
 20
67.1739259552
 30
0.0
 10
45.3059974062
 20
67.2047531972
 30
0.0
 10
45.3002911957
 20
67.2400513286
 30
0.0
 10
45.3007042877
 20
67.2575513819
 30
0.0
  0
SPLINE
  5
3BC
100
AcDbEntity
  8
0
100
AcDbSpline
 62
7
  6
CONTINUOUS
 70
0
 71
3
 72
9
 73
5
 74
0
 42
0.0000001
 43
0.0000001
 44
0.0000000001
 40
0.0
 40
0.0
 40
0.0
 40
0.0
 40
0.4961448303
 40
1.0
 40
1.0
 40
1.0
 40
1.0
 10
44.9347985892
 20
66.7620449339
 30
0.0
 10
44.9479132089
 20
66.7473061765
 30
0.0
 10
44.9815740032
 20
66.7233030139
 30
0.0
 10
45.0221031725
 20
66.7164359127
 30
0.0
 10
45.0421330125
 20
66.7169062384
 30
0.0
  0
SPLINE
  5
3BD
100
AcDbEntity
  8
0
100
AcDbSpline
 62
7
  6
CONTINUOUS
 70
0
 71
3
 72
9
 73
5
 74
0
 42
0.0000001
 43
0.0000001
 44
0.0000000001
 40
0.0
 40
0.0
 40
0.0
 40
0.0
 40
0.4982928627
 40
1.0
 40
1.0
 40
1.0
 40
1.0
 10
44.8145201016
 20
66.8965309648
 30
0.0
 10
44.8030757314
 20
66.909359378
 30
0.0
 10
44.7850071381
 20
66.9398338273
 30
0.0
 10
44.779146751
 20
66.9747145374
 30
0.0
 10
44.7794249131
 20
66.9920214252
 30
0.0
  0
SPLINE
  5
3BE
100
AcDbEntity
  8
0
100
AcDbSpline
 62
7
  6
CONTINUOUS
 70
0
 71
3
 72
11
 73
7
 74
0
 42
0.0000001
 43
0.0000001
 44
0.0000000001
 40
0.0
 40
0.0
 40
0.0
 40
0.0
 40
0.2443742988
 40
0.4920505697
 40
0.7444554383
 40
1.0
 40
1.0
 40
1.0
 40
1.0
 10
51.8105907856
 20
70.0018108615
 30
0.0
 10
51.8358334772
 20
70.0315819135
 30
0.0
 10
51.9006362958
 20
70.0809912727
 30
0.0
 10
52.0199661496
 20
70.1078847481
 30
0.0
 10
52.1416983954
 20
70.0849416902
 30
0.0
 10
52.2114894879
 20
70.0389104673
 30
0.0
 10
52.2405848481
 20
70.0102847737
 30
0.0
  0
SPLINE
  5
3BF
100
AcDbEntity
  8
0
100
AcDbSpline
 62
7
  6
CONTINUOUS
 70
0
 71
3
 72
9
 73
5
 74
0
 42
0.0000001
 43
0.0000001
 44
0.0000000001
 40
0.0
 40
0.0
 40
0.0
 40
0.0
 40
0.5022898145
 40
1.0
 40
1.0
 40
1.0
 40
1.0
 10
52.9482461403
 20
69.1091733634
 30
0.0
 10
52.9747311317
 20
69.0647266526
 30
0.0
 10
53.0510045708
 20
68.9883990228
 30
0.0
 10
53.1548489298
 20
68.9583538825
 30
0.0
 10
53.2061024616
 20
68.9571503856
 30
0.0
  0
SPLINE
  5
3C0
100
AcDbEntity
  8
0
100
AcDbSpline
 62
7
  6
CONTINUOUS
 70
0
 71
3
 72
11
 73
7
 74
0
 42
0.0000001
 43
0.0000001
 44
0.0000000001
 40
0.0
 40
0.0
 40
0.0
 40
0.0
 40
0.2490717535
 40
0.5008358333
 40
0.7521146632
 40
1.0
 40
1.0
 40
1.0
 40
1.0
 10
53.5158795827
 20
68.9498764325
 30
0.0
 10
53.5544314083
 20
68.9489711876
 30
0.0
 10
53.6323247552
 20
68.9316293089
 30
0.0
 10
53.7307793024
 20
68.8646402052
 30
0.0
 10
53.79821739
 20
68.7666940763
 30
0.0
 10
53.8157022935
 20
68.6890588821
 30
0.0
 10
53.8166079791
 20
68.6506908044
 30
0.0
  0
SPLINE
  5
3C1
100
AcDbEntity
  8
0
100
AcDbSpline
 62
7
  6
CONTINUOUS
 70
0
 71
3
 72
13
 73
9
 74
0
 42
0.0000001
 43
0.0000001
 44
0.0000000001
 40
0.0
 40
0.0
 40
0.0
 40
0.0
 40
0.2520578036
 40
0.5041212756
 40
0.6297057853
 40
0.7542484624
 40
0.8776121673
 40
1.0
 40
1.0
 40
1.0
 40
1.0
 10
51.3793841311
 20
62.8567034907
 30
0.0
 10
51.4869158046
 20
62.6420058371
 30
0.0
 10
51.7867616734
 20
62.250178907
 30
0.0
 10
52.3131901483
 20
61.9328106335
 30
0.0
 10
52.7780155688
 20
61.8094535661
 30
0.0
 10
53.1353540138
 20
61.7853802567
 30
0.0
 10
53.4873499233
 20
61.8309259074
 30
0.0
 10
53.7107329185
 20
61.9070838973
 30
0.0
 10
53.8166591942
 20
61.9558004035
 30
0.0
  0
SPLINE
  5
3C2
100
AcDbEntity
  8
0
100
AcDbSpline
 62
7
  6
CONTINUOUS
 70
0
 71
3
 72
9
 73
5
 74
0
 42
0.0000001
 43
0.0000001
 44
0.0000000001
 40
0.0
 40
0.0
 40
0.0
 40
0.0
 40
0.5021200882
 40
1.0
 40
1.0
 40
1.0
 40
1.0
 10
53.5488419403
 20
66.560604692
 30
0.0
 10
53.5182869131
 20
66.1937424704
 30
0.0
 10
53.3584166437
 20
65.4675904967
 30
0.0
 10
53.0043626714
 20
64.813238478
 30
0.0
 10
52.7877287804
 20
64.5194492925
 30
0.0
  0
SPLINE
  5
3C3
100
AcDbEntity
  8
0
100
AcDbSpline
 62
7
  6
CONTINUOUS
 70
0
 71
3
 72
11
 73
7
 74
0
 42
0.0000001
 43
0.0000001
 44
0.0000000001
 40
0.0
 40
0.0
 40
0.0
 40
0.0
 40
0.254044192
 40
0.5056239276
 40
0.7544183956
 40
1.0
 40
1.0
 40
1.0
 40
1.0
 10
52.7445289998
 20
63.1199788631
 30
0.0
 10
52.8005006933
 20
63.0849596048
 30
0.0
 10
52.9213473414
 20
63.029196745
 30
0.0
 10
53.1165438108
 20
62.9946592402
 30
0.0
 10
53.3118708897
 20
63.0120976169
 30
0.0
 10
53.4339271851
 20
63.0579325956
 30
0.0
 10
53.4899883667
 20
63.088440605
 30
0.0
  0
SPLINE
  5
3C4
100
AcDbEntity
  8
0
100
AcDbSpline
 62
7
  6
CONTINUOUS
 70
0
 71
3
 72
9
 73
5
 74
0
 42
0.0000001
 43
0.0000001
 44
0.0000000001
 40
0.0
 40
0.0
 40
0.0
 40
0.0
 40
0.2463925695
 40
1.0
 40
1.0
 40
1.0
 40
1.0
 10
53.4899883667
 20
63.088440605
 30
0.0
 10
53.5040225932
 20
63.0943978734
 30
0.0
 10
53.5596052773
 20
63.1217176939
 30
0.0
 10
53.6089798918
 20
63.1615118941
 30
0.0
 10
53.6400676739
 20
63.196269091
 30
0.0
  0
SPLINE
  5
3C5
100
AcDbEntity
  8
0
100
AcDbSpline
 62
7
  6
CONTINUOUS
 70
0
 71
3
 72
9
 73
5
 74
0
 42
0.0000001
 43
0.0000001
 44
0.0000000001
 40
0.0
 40
0.0
 40
0.0
 40
0.0
 40
0.2449104738
 40
1.0
 40
1.0
 40
1.0
 40
1.0
 10
54.2075873509
 20
62.2045370621
 30
0.0
 10
54.2291473418
 20
62.2246609365
 30
0.0
 10
54.316182523
 20
62.307892777
 30
0.0
 10
54.3993566274
 20
62.3951465624
 30
0.0
 10
54.4599604987
 20
62.4629346548
 30
0.0
  0
SPLINE
  5
3C6
100
AcDbEntity
  8
0
100
AcDbSpline
 62
7
  6
CONTINUOUS
 70
0
 71
3
 72
15
 73
11
 74
0
 42
0.0000001
 43
0.0000001
 44
0.0000000001
 40
0.0
 40
0.0
 40
0.0
 40
0.0
 40
0.1223607276
 40
0.2456774265
 40
0.3700935424
 40
0.4954786766
 40
0.6215437475
 40
0.7479228527
 40
0.8742056226
 40
1.0
 40
1.0
 40
1.0
 40
1.0
 10
44.939122923
 20
61.85545274
 30
0.0
 10
45.0459577725
 20
61.8159429654
 30
0.0
 10
45.2688684519
 20
61.7575822247
 30
0.0
 10
45.614746522
 20
61.7361234364
 30
0.0
 10
45.9613114382
 20
61.7806131647
 30
0.0
 10
46.2960223598
 20
61.889221935
 30
0.0
 10
46.6067993767
 20
62.0580938771
 30
0.0
 10
46.8824028346
 20
62.2811139838
 30
0.0
 10
47.1129243772
 20
62.5499913405
 30
0.0
 10
47.2314536789
 20
62.7543327297
 30
0.0
 10
47.2805904898
 20
62.8606279923
 30
0.0
  0
SPLINE
  5
3C7
100
AcDbEntity
  8
0
100
AcDbSpline
 62
7
  6
CONTINUOUS
 70
0
 71
3
 72
9
 73
5
 74
0
 42
0.0000001
 43
0.0000001
 44
0.0000000001
 40
0.0
 40
0.0
 40
0.0
 40
0.0
 40
0.5034501192
 40
1.0
 40
1.0
 40
1.0
 40
1.0
 10
45.0421330125
 20
66.7169062384
 30
0.0
 10
45.0636542362
 20
66.7185632975
 30
0.0
 10
45.1076237047
 20
66.7110684549
 30
0.0
 10
45.1441747513
 20
66.6857693409
 30
0.0
 10
45.1584141043
 20
66.6699432277
 30
0.0
  0
SPLINE
  5
3C8
100
AcDbEntity
  8
0
100
AcDbSpline
 62
7
  6
CONTINUOUS
 70
0
 71
3
 72
9
 73
5
 74
0
 42
0.0000001
 43
0.0000001
 44
0.0000000001
 40
0.0
 40
0.0
 40
0.0
 40
0.0
 40
0.4950301008
 40
1.0
 40
1.0
 40
1.0
 40
1.0
 10
45.1440174681
 20
63.038440605
 30
0.0
 10
45.237052192
 20
62.9878119141
 30
0.0
 10
45.4514153932
 20
62.9287346441
 30
0.0
 10
45.6694773232
 20
62.9680491881
 30
0.0
 10
45.7695779299
 20
63.0087141779
 30
0.0
  0
SPLINE
  5
3C9
100
AcDbEntity
  8
0
100
AcDbSpline
 62
7
  6
CONTINUOUS
 70
0
 71
3
 72
9
 73
5
 74
0
 42
0.0000001
 43
0.0000001
 44
0.0000000001
 40
0.0
 40
0.0
 40
0.0
 40
0.0
 40
0.254079638
 40
1.0
 40
1.0
 40
1.0
 40
1.0
 10
44.9939381609
 20
63.146269091
 30
0.0
 10
45.0044195812
 20
63.1345505068
 30
0.0
 10
45.0481616331
 20
63.0907202047
 30
0.0
 10
45.1015301764
 20
63.0564756709
 30
0.0
 10
45.1440174681
 20
63.038440605
 30
0.0
  0
SPLINE
  5
3CA
100
AcDbEntity
  8
0
100
AcDbSpline
 62
7
  6
CONTINUOUS
 70
0
 71
3
 72
9
 73
5
 74
0
 42
0.0000001
 43
0.0000001
 44
0.0000000001
 40
0.0
 40
0.0
 40
0.0
 40
0.0
 40
0.4977138563
 40
1.0
 40
1.0
 40
1.0
 40
1.0
 10
53.0858201418
 20
68.8226706638
 30
0.0
 10
53.0345483186
 20
68.8238745902
 30
0.0
 10
52.9306579964
 20
68.8539335838
 30
0.0
 10
52.8544011463
 20
68.9303269389
 30
0.0
 10
52.827907092
 20
68.974788859
 30
0.0
  0
SPLINE
  5
3CB
100
AcDbEntity
  8
0
100
AcDbSpline
 62
7
  6
CONTINUOUS
 70
0
 71
3
 72
11
 73
7
 74
0
 42
0.0000001
 43
0.0000001
 44
0.0000000001
 40
0.0
 40
0.0
 40
0.0
 40
0.0
 40
0.2555445617
 40
0.5079494303
 40
0.7556257012
 40
1.0
 40
1.0
 40
1.0
 40
1.0
 10
52.1203025283
 20
69.8758050519
 30
0.0
 10
52.0912071681
 20
69.9044307455
 30
0.0
 10
52.0214160756
 20
69.9504619684
 30
0.0
 10
51.8996838298
 20
69.9734050263
 30
0.0
 10
51.780353976
 20
69.946511551
 30
0.0
 10
51.7155511574
 20
69.8971021918
 30
0.0
 10
51.6903084658
 20
69.8673311397
 30
0.0
  0
SPLINE
  5
3CC
100
AcDbEntity
  8
0
100
AcDbSpline
 62
7
  6
CONTINUOUS
 70
0
 71
3
 72
9
 73
5
 74
0
 42
0.0000001
 43
0.0000001
 44
0.0000000001
 40
0.0
 40
0.0
 40
0.0
 40
0.0
 40
0.4922848904
 40
1.0
 40
1.0
 40
1.0
 40
1.0
 10
28.1713289189
 20
89.9429241278
 30
0.0
 10
28.2850399324
 20
89.9071361688
 30
0.0
 10
28.5227205461
 20
89.8558202475
 30
0.0
 10
28.7637758838
 20
89.8301063278
 30
0.0
 10
28.8864691449
 20
89.8222223105
 30
0.0
  0
SPLINE
  5
3CD
100
AcDbEntity
  8
0
100
AcDbSpline
 62
7
  6
CONTINUOUS
 70
0
 71
3
 72
9
 73
5
 74
0
 42
0.0000001
 43
0.0000001
 44
0.0000000001
 40
0.0
 40
0.0
 40
0.0
 40
0.0
 40
0.4922217367
 40
1.0
 40
1.0
 40
1.0
 40
1.0
 10
70.4627428236
 20
89.9429543637
 30
0.0
 10
70.3498715214
 20
89.907414403
 30
0.0
 10
70.1139498132
 20
89.8563118196
 30
0.0
 10
69.8746616635
 20
89.8305406205
 30
0.0
 10
69.752848842
 20
89.8225552573
 30
0.0
  0
SPLINE
  5
3CE
100
AcDbEntity
  8
0
100
AcDbSpline
 62
7
  6
CONTINUOUS
 70
0
 71
3
 72
9
 73
5
 74
0
 42
0.0000001
 43
0.0000001
 44
0.0000000001
 40
0.0
 40
0.0
 40
0.0
 40
0.0
 40
0.4920480285
 40
1.0
 40
1.0
 40
1.0
 40
1.0
 10
71.1969946502
 20
89.2086200878
 30
0.0
 10
71.1622789664
 20
89.0983167809
 30
0.0
 10
71.1119035681
 20
88.8678182828
 30
0.0
 10
71.0859717712
 20
88.6339842412
 30
0.0
 10
71.0777266295
 20
88.5148943453
 30
0.0
  0
SPLINE
  5
3CF
100
AcDbEntity
  8
0
100
AcDbSpline
 62
7
  6
CONTINUOUS
 70
0
 71
3
 72
9
 73
5
 74
0
 42
0.0000001
 43
0.0000001
 44
0.0000000001
 40
0.0
 40
0.0
 40
0.0
 40
0.0
 40
0.4922855463
 40
1.0
 40
1.0
 40
1.0
 40
1.0
 10
70.4626638695
 20
46.1829514462
 30
0.0
 10
70.3489556778
 20
46.2187374923
 30
0.0
 10
70.1112820447
 20
46.270052054
 30
0.0
 10
69.8702334306
 20
46.295764628
 30
0.0
 10
69.7475437615
 20
46.3036469856
 30
0.0
  0
SPLINE
  5
3D0
100
AcDbEntity
  8
0
100
AcDbSpline
 62
7
  6
CONTINUOUS
 70
0
 71
3
 72
9
 73
5
 74
0
 42
0.0000001
 43
0.0000001
 44
0.0000000001
 40
0.0
 40
0.0
 40
0.0
 40
0.0
 40
0.4922211631
 40
1.0
 40
1.0
 40
1.0
 40
1.0
 10
28.1712485436
 20
46.1829135095
 30
0.0
 10
28.2841228504
 20
46.2184554936
 30
0.0
 10
28.5200520094
 20
46.269559264
 30
0.0
 10
28.7593472584
 20
46.2953314163
 30
0.0
 10
28.8811638124
 20
46.3033189053
 30
0.0
  0
SPLINE
  5
3D1
100
AcDbEntity
  8
0
100
AcDbSpline
 62
7
  6
CONTINUOUS
 70
0
 71
3
 72
15
 73
11
 74
0
 42
0.0000001
 43
0.0000001
 44
0.0000000001
 40
0.0
 40
0.0
 40
0.0
 40
0.0
 40
0.1237667584
 40
0.2484390278
 40
0.3739398917
 40
0.4999261644
 40
0.6259343156
 40
0.7514727957
 40
0.8761969223
 40
1.0
 40
1.0
 40
1.0
 40
1.0
 10
52.142990677
 20
74.9995157894
 30
0.0
 10
51.9338292449
 20
74.876322964
 30
0.0
 10
51.4970075701
 20
74.656622414
 30
0.0
 10
50.8012293508
 20
74.4176676271
 30
0.0
 10
50.0751878441
 20
74.2754304589
 30
0.0
 10
49.3345738683
 20
74.2236366249
 30
0.0
 10
48.5935813379
 20
74.2709014293
 30
0.0
 10
47.8664868627
 20
74.4089761719
 30
0.0
 10
47.1690463652
 20
74.6432837271
 30
0.0
 10
46.7296707365
 20
74.858498692
 30
0.0
 10
46.5200690133
 20
74.9810820621
 30
0.0
  0
SPLINE
  5
3D2
100
AcDbEntity
  8
0
100
AcDbSpline
 62
7
  6
CONTINUOUS
 70
0
 71
3
 72
9
 73
5
 74
0
 42
0.0000001
 43
0.0000001
 44
0.0000000001
 40
0.0
 40
0.0
 40
0.0
 40
0.0
 40
0.4976789016
 40
1.0
 40
1.0
 40
1.0
 40
1.0
 10
45.1584141043
 20
66.6699432277
 30
0.0
 10
45.1691060772
 20
66.6580597964
 30
0.0
 10
45.1863136541
 20
66.6300339459
 30
0.0
 10
45.1929461783
 20
66.5978812895
 30
0.0
 10
45.1934872408
 20
66.581755819
 30
0.0
  0
SPLINE
  5
3D3
100
AcDbEntity
  8
0
100
AcDbSpline
 62
7
  6
CONTINUOUS
 70
0
 71
3
 72
9
 73
5
 74
0
 42
0.0000001
 43
0.0000001
 44
0.0000000001
 40
0.0
 40
0.0
 40
0.0
 40
0.0
 40
0.4959714796
 40
1.0
 40
1.0
 40
1.0
 40
1.0
 10
53.3697060469
 20
62.9539608832
 30
0.0
 10
53.2953255403
 20
62.9134836558
 30
0.0
 10
53.1289234638
 20
62.8592866279
 30
0.0
 10
52.9544009215
 20
62.8669362807
 30
0.0
 10
52.8703000571
 20
62.8851786394
 30
0.0
  0
SPLINE
  5
3D4
100
AcDbEntity
  8
0
100
AcDbSpline
 62
7
  6
CONTINUOUS
 70
0
 71
3
 72
9
 73
5
 74
0
 42
0.0000001
 43
0.0000001
 44
0.0000000001
 40
0.0
 40
0.0
 40
0.0
 40
0.0
 40
0.4977706981
 40
1.0
 40
1.0
 40
1.0
 40
1.0
 10
52.7878527099
 20
64.5577564754
 30
0.0
 10
52.9817198507
 20
64.852459026
 30
0.0
 10
53.2922451178
 20
65.5002645103
 30
0.0
 10
53.419863706
 20
66.206767751
 30
0.0
 10
53.4376203252
 20
66.562236308
 30
0.0
  0
SPLINE
  5
3D5
100
AcDbEntity
  8
0
100
AcDbSpline
 62
7
  6
CONTINUOUS
 70
0
 71
3
 72
15
 73
11
 74
0
 42
0.0000001
 43
0.0000001
 44
0.0000000001
 40
0.0
 40
0.0
 40
0.0
 40
0.0
 40
0.1237451064
 40
0.2484068984
 40
0.3739145486
 40
0.4999244165
 40
0.6259572557
 40
0.751506119
 40
0.8762255466
 40
1.0
 40
1.0
 40
1.0
 40
1.0
 10
46.4510028716
 20
61.1025598363
 30
0.0
 10
46.6622431227
 20
61.2294039095
 30
0.0
 10
47.1040180144
 20
61.4557556084
 30
0.0
 10
47.8090216258
 20
61.7023653503
 30
0.0
 10
48.5457597917
 20
61.8491809911
 30
0.0
 10
49.2977538778
 20
61.9027305719
 30
0.0
 10
50.0501772874
 20
61.8542252633
 30
0.0
 10
50.7880921087
 20
61.7120240366
 30
0.0
 10
51.494993211
 20
61.4706824005
 30
0.0
 10
51.9395389832
 20
61.2490898385
 30
0.0
 10
52.151173466
 20
61.1227905583
 30
0.0
  0
SPLINE
  5
3D6
100
AcDbEntity
  8
0
100
AcDbSpline
 62
7
  6
CONTINUOUS
 70
0
 71
3
 72
9
 73
5
 74
0
 42
0.0000001
 43
0.0000001
 44
0.0000000001
 40
0.0
 40
0.0
 40
0.0
 40
0.0
 40
0.2452541202
 40
1.0
 40
1.0
 40
1.0
 40
1.0
 10
45.2642997879
 20
62.9039608832
 30
0.0
 10
45.2399433457
 20
62.9209875684
 30
0.0
 10
45.143002163
 20
62.9937710258
 30
0.0
 10
45.0549071524
 20
63.0781036862
 30
0.0
 10
44.9939381609
 20
63.146269091
 30
0.0
  0
SPLINE
  5
3D7
100
AcDbEntity
  8
0
100
AcDbSpline
 62
7
  6
CONTINUOUS
 70
0
 71
3
 72
9
 73
5
 74
0
 42
0.0000001
 43
0.0000001
 44
0.0000000001
 40
0.0
 40
0.0
 40
0.0
 40
0.0
 40
0.5040281717
 40
1.0
 40
1.0
 40
1.0
 40
1.0
 10
45.7636560514
 20
62.8351678521
 30
0.0
 10
45.6795622467
 20
62.816932935
 30
0.0
 10
45.5050571123
 20
62.8092931321
 30
0.0
 10
45.3386730718
 20
62.8634875863
 30
0.0
 10
45.2642997879
 20
62.9039608832
 30
0.0
  0
SPLINE
  5
3D8
100
AcDbEntity
  8
0
100
AcDbSpline
 62
7
  6
CONTINUOUS
 70
0
 71
3
 72
9
 73
5
 74
0
 42
0.0000001
 43
0.0000001
 44
0.0000000001
 40
0.0
 40
0.0
 40
0.0
 40
0.0
 40
0.2511815604
 40
1.0
 40
1.0
 40
1.0
 40
1.0
 10
45.1934872408
 20
66.581755819
 30
0.0
 10
45.1967049681
 20
66.4841628005
 30
0.0
 10
45.2233281513
 20
66.0962156108
 30
0.0
 10
45.3054096411
 20
65.7119934861
 30
0.0
 10
45.3970650177
 20
65.4356983731
 30
0.0
  0
SPLINE
  5
3D9
100
AcDbEntity
  8
0
100
AcDbSpline
 62
7
  6
CONTINUOUS
 70
0
 71
3
 72
9
 73
5
 74
0
 42
0.0000001
 43
0.0000001
 44
0.0000000001
 40
0.0
 40
0.0
 40
0.0
 40
0.0
 40
0.501737991
 40
1.0
 40
1.0
 40
1.0
 40
1.0
 10
44.8997330925
 20
66.8586372111
 30
0.0
 10
44.8993204158
 20
66.8411547534
 30
0.0
 10
44.9051273381
 20
66.8058851887
 30
0.0
 10
44.923254491
 20
66.7750186736
 30
0.0
 10
44.9347985892
 20
66.7620449339
 30
0.0
  0
SPLINE
  5
3DA
100
AcDbEntity
  8
0
100
AcDbSpline
 62
7
  6
CONTINUOUS
 70
0
 71
3
 72
9
 73
5
 74
0
 42
0.0000001
 43
0.0000001
 44
0.0000000001
 40
0.0
 40
0.0
 40
0.0
 40
0.0
 40
0.5034123912
 40
1.0
 40
1.0
 40
1.0
 40
1.0
 10
45.4441690163
 20
67.1148580375
 30
0.0
 10
45.4239421228
 20
67.1143830848
 30
0.0
 10
45.3830717112
 20
67.12196309
 30
0.0
 10
45.3491096755
 20
67.1461160764
 30
0.0
 10
45.3358046407
 20
67.1609923952
 30
0.0
  0
SPLINE
  5
3DB
100
AcDbEntity
  8
0
100
AcDbSpline
 62
7
  6
CONTINUOUS
 70
0
 71
3
 72
9
 73
5
 74
0
 42
0.0000001
 43
0.0000001
 44
0.0000000001
 40
0.0
 40
0.0
 40
0.0
 40
0.0
 40
0.4920384606
 40
1.0
 40
1.0
 40
1.0
 40
1.0
 10
27.4369440322
 20
89.2088064965
 30
0.0
 10
27.4716927654
 20
89.0984748308
 30
0.0
 10
27.5221057313
 20
88.8679001802
 30
0.0
 10
27.5480408493
 20
88.6339864145
 30
0.0
 10
27.556290859
 20
88.5148540121
 30
0.0
  0
SPLINE
  5
3DC
100
AcDbEntity
  8
0
100
AcDbSpline
 62
7
  6
CONTINUOUS
 70
0
 71
3
 72
9
 73
5
 74
0
 42
0.0000001
 43
0.0000001
 44
0.0000000001
 40
0.0
 40
0.0
 40
0.0
 40
0.0
 40
0.253794266
 40
1.0
 40
1.0
 40
1.0
 40
1.0
 10
53.6400676739
 20
63.196269091
 30
0.0
 10
53.6195676389
 20
63.1733493552
 30
0.0
 10
53.5363771759
 20
63.0852669815
 30
0.0
 10
53.4438064645
 20
63.0057617361
 30
0.0
 10
53.3697060469
 20
62.9539608832
 30
0.0
  0
SPLINE
  5
3DD
100
AcDbEntity
  8
0
100
AcDbSpline
 62
7
  6
CONTINUOUS
 70
0
 71
3
 72
9
 73
5
 74
0
 42
0.0000001
 43
0.0000001
 44
0.0000000001
 40
0.0
 40
0.0
 40
0.0
 40
0.0
 40
0.2479733542
 40
1.0
 40
1.0
 40
1.0
 40
1.0
 10
53.6963256593
 20
68.5162110826
 30
0.0
 10
53.6961238423
 20
68.5247607738
 30
0.0
 10
53.6937564908
 20
68.5591882344
 30
0.0
 10
53.6853222836
 20
68.5931710779
 30
0.0
 10
53.6759379281
 20
68.6173495695
 30
0.0
  0
SPLINE
  5
3DE
100
AcDbEntity
  8
0
100
AcDbSpline
 62
7
  6
CONTINUOUS
 70
0
 71
3
 72
9
 73
5
 74
0
 42
0.0000001
 43
0.0000001
 44
0.0000000001
 40
0.0
 40
0.0
 40
0.0
 40
0.0
 40
0.5014657886
 40
1.0
 40
1.0
 40
1.0
 40
1.0
 10
53.6759379281
 20
68.6173495695
 30
0.0
 10
53.6542620455
 20
68.6731967874
 30
0.0
 10
53.5760054646
 20
68.7735669382
 30
0.0
 10
53.4551368621
 20
68.8139986467
 30
0.0
 10
53.3955972629
 20
68.8153967107
 30
0.0
  0
ENDSEC
  0
SECTION
  2
OBJECTS
  0
DICTIONARY
  5
C
100
AcDbDictionary
280
0
281
1
  3
ACAD_GROUP
350
D
  3
ACAD_MLINESTYLE
350
17
  3
ACAD_LAYOUT
350
1A
  3
ACAD_PLOTSETTINGS
350
19
  3
ACAD_PLOTSTYLENAME
350
E
  0
DICTIONARY
  5
D
102
{ACAD_REACTORS
330
C
102
}
100
AcDbDictionary
280
0
281
1
  0
ACDBDICTIONARYWDFLT
  5
E
102
{ACAD_REACTORS
330
C
102
}
100
AcDbDictionary
281
1
  3
Normal
350
F
100
AcDbDictionaryWithDefault
340
F
  0
DICTIONARY
  5
17
102
{ACAD_REACTORS
330
C
102
}
100
AcDbDictionary
280
0
281
1
  3
Standard
350
18
  0
DICTIONARY
  5
19
102
{ACAD_REACTORS
330
C
102
}
100
AcDbDictionary
281
1
  0
DICTIONARY
  5
1A
102
{ACAD_REACTORS
330
C
102
}
100
AcDbDictionary
281
1
  3
Model
350
3DF
  3
Layout1
350
3E0
  0
ACDBPLACEHOLDER
  5
F
102
{ACAD_REACTORS
330
E
102
}
  0
MLINESTYLE
  5
18
102
{ACAD_REACTORS
330
17
102
}
100
AcDbMlineStyle
  2
STANDARD
 70
0
  3

 62
256
 51
90.0
 52
90.0
 71
2
 49
0.5
 62
256
  6
BYLAYER
 49
-0.5
 62
256
  6
BYLAYER
  0
LAYOUT
  5
3DF
102
{ACAD_REACTORS
330
1A
102
}
100
AcDbPlotSettings
  1

  2
none_device
  4

  6

 40
0.0
 41
0.0
 42
0.0
 43
0.0
 44
210.0
 45
297.0
 46
0.0
 47
0.0
 48
0.0
 49
0.0
140
0.0
141
0.0
142
1.0
143
1.0
 70
1024
 72
1
 73
0
 74
0
  7

 75
0
147
1.0
148
0.0
149
0.0
100
AcDbLayout
  1
Model
 70
0
 71
0
 10
0.0
 20
0.0
 11
210.0
 21
297.0
 12
0.0
 22
0.0
 32
0.0
 14
0.0
 24
0.0
 34
0.0
 15
0.0
 25
0.0
 35
0.0
146
0.0
 13
0.0
 23
0.0
 33
0.0
 16
1.0
 26
0.0
 36
0.0
 17
0.0
 27
1.0
 37
0.0
 76
0
330
210
345
0
346
0
  0
LAYOUT
  5
3E0
102
{ACAD_REACTORS
330
1A
102
}
100
AcDbPlotSettings
  1

  2
none_device
  4

  6

 40
0.0
 41
0.0
 42
0.0
 43
0.0
 44
210.0
 45
297.0
 46
0.0
 47
0.0
 48
0.0
 49
0.0
140
0.0
141
0.0
142
1.0
143
1.0
 70
0
 72
1
 73
0
 74
0
  7

 75
0
147
1.0
148
0.0
149
0.0
100
AcDbLayout
  1
Layout1
 70
0
 71
1
 10
0.0
 20
0.0
 11
210.0
 21
297.0
 12
0.0
 22
0.0
 32
0.0
 14
0.0
 24
0.0
 34
0.0
 15
0.0
 25
0.0
 35
0.0
146
0.0
 13
0.0
 23
0.0
 33
0.0
 16
1.0
 26
0.0
 36
0.0
 17
0.0
 27
1.0
 37
0.0
 76
0
330
211
345
0
346
0
  0
ENDSEC
  0
EOF
