999
DXF file: C:\Users\sesa63760\Dev\_Creo\CAD\MCADPP0003359_3D-CAD\drw0001_7.dxf
999
Pro/ENGINEER 2019471 by Parametric Technology Corporation
  0
SECTION
  2
HEADER
  9
$ACADVER
  1
AC1024
  9
$DWGCODEPAGE
  3
ANSI_1252
  9
$EXTMAX
 10
56.8828327034
 20
80.4485776805
 30
0.0
  9
$EXTMIN
 10
0.0
 20
0.0
 30
0.0
  9
$LIMMIN
 10
0.0
 20
0.0
  9
$LIMMAX
 10
56.8828327034
 20
80.4485776805
  9
$VIEWCTR
 10
28.4414163517
 20
40.2242888403
  9
$VIEWSIZE
 40
80.4485776805
  9
$CLAYER
  8
0
  9
$LTSCALE
 40
5.244055434
  9
$CELTYPE
  6
BYLAYER
  9
$DIMSCALE
 40
1.0
  9
$DIMASZ
 40
0.6771765798
  9
$DIMEXO
 40
1.0
  9
$DIMDLI
 40
3.6231655726
  9
$DIMEXE
 40
1.0
  9
$DIMCEN
 40
0.8581181619
  9
$DIMLFAC
 40
1.0
  9
$DIMBLK
  1
_FILLED
  9
$DIMALT
 70
0
  9
$DIMALTF
 40
0.0393700787
  9
$DIMTXT
 40
0.9480472117
  9
$DIMTOL
 70
1
  9
$DIMLIM
 70
0
  9
$DIMTFAC
 40
1.0
  9
$DIMTP
 40
0.01
  9
$DIMTM
 40
0.01
  9
$DIMGAP
 40
0.625
  9
$DIMDSEP
 70
46
  9
$AUNITS
 70
0
  9
$PDMODE
 70
3
  9
$PDSIZE
 40
0.3125
  9
$HANDSEED
  5
28F
  9
$TILEMODE
 70
1
  9
$MEASUREMENT
 70
1
  9
$INSUNITS
 70
4
  0
ENDSEC
  0
SECTION
  2
CLASSES
  0
CLASS
  1
ACDBDICTIONARYWDFLT
  2
AcDbDictionaryWithDefault
  3
AutoCAD 2000
 90
0
 91
1
280
0
281
0
  0
CLASS
  1
ACDBPLACEHOLDER
  2
AcDbPlaceHolder
  3
AutoCAD 2000
 90
0
 91
1
280
0
281
0
  0
CLASS
  1
LAYOUT
  2
AcDbLayout
  3
AutoCAD 2000
 90
0
 91
0
280
0
281
0
  0
ENDSEC
  0
SECTION
  2
TABLES
  0
TABLE
  2
VPORT
  5
8
100
AcDbSymbolTable
 70
2
  0
VPORT
  5
1F4
100
AcDbSymbolTableRecord
100
AcDbViewportTableRecord
  2
*ACTIVE
 70
0
 10
0.0
 20
0.0
 11
1.0
 21
1.0
 12
28.4414163517
 22
40.2242888403
 13
0.0
 23
0.0
 14
1.0
 24
1.0
 15
0.0
 25
0.0
 16
0.0
 26
0.0
 36
1.0
 17
0.0
 27
0.0
 37
0.0
 40
80.4485776805
 41
0.7070707071
 42
50.0
 43
0.0
 44
0.0
 50
0.0
 51
0.0
 71
0
 72
100
 73
1
 74
1
 75
0
 76
0
 77
0
 78
0
  0
ENDTAB
  0
TABLE
  2
LTYPE
  5
5
100
AcDbSymbolTable
 70
6
  0
LTYPE
  5
14
100
AcDbSymbolTableRecord
100
AcDbLinetypeTableRecord
  2
BYBLOCK
 70
0
  3

 72
65
 73
0
 40
0.0
  0
LTYPE
  5
15
100
AcDbSymbolTableRecord
100
AcDbLinetypeTableRecord
  2
BYLAYER
 70
0
  3

 72
65
 73
0
 40
0.0
  0
LTYPE
  5
16
100
AcDbSymbolTableRecord
100
AcDbLinetypeTableRecord
  2
CONTINUOUS
 70
64
  3
Solid line
 72
65
 73
0
 40
0.0
  0
LTYPE
  5
1F5
100
AcDbSymbolTableRecord
100
AcDbLinetypeTableRecord
  2
CENTER
 70
64
  3
____ _ ____ _ ____ _ ____ _ ____ _ ____ _ ____
 72
65
 73
4
 40
0.6
 49
0.375
 74
0
 49
-0.075
 74
0
 49
0.075
 74
0
 49
-0.075
 74
0
  0
LTYPE
  5
1F6
100
AcDbSymbolTableRecord
100
AcDbLinetypeTableRecord
  2
HIDDEN
 70
64
  3
- - - - - - - - - - - - - - - - - - - -
 72
65
 73
2
 40
0.2
 49
0.1
 74
0
 49
-0.1
 74
0
  0
LTYPE
  5
1F7
100
AcDbSymbolTableRecord
100
AcDbLinetypeTableRecord
  2
PHANTOM
 70
64
  3
_____ _ _ _____ _ _ _____ _ _ _____
 72
65
 73
6
 40
0.8
 49
0.45
 74
0
 49
-0.05
 74
0
 49
0.1
 74
0
 49
-0.05
 74
0
 49
0.1
 74
0
 49
-0.05
 74
0
  0
LTYPE
  5
1F8
100
AcDbSymbolTableRecord
100
AcDbLinetypeTableRecord
  2
DOT
 70
64
  3
. . . . . . . . . . . . . . . . . . . .
 72
65
 73
2
 40
0.2
 49
0.1
 74
0
 49
-0.1
 74
0
  0
LTYPE
  5
1F9
100
AcDbSymbolTableRecord
100
AcDbLinetypeTableRecord
  2
DASHED
 70
64
  3
- - - - - - - - - - - - - - - - - - - -
 72
65
 73
2
 40
0.2
 49
0.1
 74
0
 49
-0.1
 74
0
  0
ENDTAB
  0
TABLE
  2
LAYER
  5
2
100
AcDbSymbolTable
 70
36
  0
LAYER
  5
10
100
AcDbSymbolTableRecord
100
AcDbLayerTableRecord
  2
0
 70
0
 62
7
  6
CONTINUOUS
370
-3
390
F
  0
LAYER
  5
1FA
100
AcDbSymbolTableRecord
100
AcDbLayerTableRecord
  2
DEFAULT_1
 70
0
 62
7
  6
CENTER
370
-3
390
F
  0
LAYER
  5
1FB
100
AcDbSymbolTableRecord
100
AcDbLayerTableRecord
  2
DEFAULT_2
 70
0
 62
8
  6
HIDDEN
370
-3
390
F
  0
LAYER
  5
1FC
100
AcDbSymbolTableRecord
100
AcDbLayerTableRecord
  2
DEFAULT_3
 70
0
 62
7
  6
PHANTOM
370
-3
390
F
  0
LAYER
  5
1FD
100
AcDbSymbolTableRecord
100
AcDbLayerTableRecord
  2
00_COMPONENTS
 70
0
 62
7
  6
CONTINUOUS
370
-3
390
F
  0
LAYER
  5
1FE
100
AcDbSymbolTableRecord
100
AcDbLayerTableRecord
  2
01_1_DEFAULT_DATUMS
 70
0
 62
7
  6
CONTINUOUS
370
-3
390
F
  0
LAYER
  5
1FF
100
AcDbSymbolTableRecord
100
AcDbLayerTableRecord
  2
01_PLANES
 70
0
 62
7
  6
CONTINUOUS
370
-3
390
F
  0
LAYER
  5
200
100
AcDbSymbolTableRecord
100
AcDbLayerTableRecord
  2
02_COORD_SYS
 70
0
 62
7
  6
CONTINUOUS
370
-3
390
F
  0
LAYER
  5
201
100
AcDbSymbolTableRecord
100
AcDbLayerTableRecord
  2
03_AXES
 70
0
 62
7
  6
CONTINUOUS
370
-3
390
F
  0
LAYER
  5
202
100
AcDbSymbolTableRecord
100
AcDbLayerTableRecord
  2
04_POINTS
 70
0
 62
7
  6
CONTINUOUS
370
-3
390
F
  0
LAYER
  5
203
100
AcDbSymbolTableRecord
100
AcDbLayerTableRecord
  2
05_CURVES
 70
0
 62
7
  6
CONTINUOUS
370
-3
390
F
  0
LAYER
  5
204
100
AcDbSymbolTableRecord
100
AcDbLayerTableRecord
  2
06_SURFS
 70
0
 62
7
  6
CONTINUOUS
370
-3
390
F
  0
LAYER
  5
205
100
AcDbSymbolTableRecord
100
AcDbLayerTableRecord
  2
07_COSMETICS
 70
0
 62
7
  6
CONTINUOUS
370
-3
390
F
  0
LAYER
  5
206
100
AcDbSymbolTableRecord
100
AcDbLayerTableRecord
  2
10_NOTES
 70
0
 62
7
  6
CONTINUOUS
370
-3
390
F
  0
LAYER
  5
207
100
AcDbSymbolTableRecord
100
AcDbLayerTableRecord
  2
11_NOTES_PUB
 70
0
 62
7
  6
CONTINUOUS
370
-3
390
F
  0
LAYER
  5
208
100
AcDbSymbolTableRecord
100
AcDbLayerTableRecord
  2
13_REF_GTOL
 70
0
 62
7
  6
CONTINUOUS
370
-3
390
F
  0
LAYER
  5
209
100
AcDbSymbolTableRecord
100
AcDbLayerTableRecord
  2
16_MISC
 70
0
 62
7
  6
CONTINUOUS
370
-3
390
F
  0
LAYER
  5
20A
100
AcDbSymbolTableRecord
100
AcDbLayerTableRecord
  2
17_NO_PRINT
 70
0
 62
7
  6
CONTINUOUS
370
-3
390
F
  0
LAYER
  5
20B
100
AcDbSymbolTableRecord
100
AcDbLayerTableRecord
  2
18_DATUM_CAMS_JOINTS
 70
0
 62
7
  6
CONTINUOUS
370
-3
390
F
  0
LAYER
  5
20C
100
AcDbSymbolTableRecord
100
AcDbLayerTableRecord
  2
19_DATUM_FUNCTIONAL
 70
0
 62
7
  6
CONTINUOUS
370
-3
390
F
  0
LAYER
  5
20D
100
AcDbSymbolTableRecord
100
AcDbLayerTableRecord
  2
20_DATUM_KINEMATIC_SCHEME
 70
0
 62
7
  6
CONTINUOUS
370
-3
390
F
  0
ENDTAB
  0
TABLE
  2
STYLE
  5
3
100
AcDbSymbolTable
 70
1
  0
STYLE
  5
11
100
AcDbSymbolTableRecord
100
AcDbTextStyleTableRecord
  2
STANDARD
 70
0
 40
0.0
 41
0.8
 50
0.0
 71
0
 42
0.2
  3
txt
  4

  0
STYLE
  5
20E
100
AcDbSymbolTableRecord
100
AcDbTextStyleTableRecord
  2
TEXTSTYLE_1
 70
0
 40
0.0
 41
0.8
 50
0.0
 71
0
 42
0.2
  3
gdt
  4

  0
ENDTAB
  0
TABLE
  2
VIEW
  5
6
100
AcDbSymbolTable
 70
0
  0
ENDTAB
  0
TABLE
  2
UCS
  5
7
100
AcDbSymbolTable
 70
0
  0
ENDTAB
  0
TABLE
  2
APPID
  5
9
100
AcDbSymbolTable
 70
1
  0
APPID
  5
20F
100
AcDbSymbolTableRecord
100
AcDbRegAppTableRecord
  2
ACAD
 70
0
  0
ENDTAB
  0
TABLE
  2
BLOCK_RECORD
  5
1
100
AcDbSymbolTable
 70
0
  0
BLOCK_RECORD
  5
210
100
AcDbSymbolTableRecord
100
AcDbBlockTableRecord
  2
*Model_Space
  0
BLOCK_RECORD
  5
211
100
AcDbSymbolTableRecord
100
AcDbBlockTableRecord
  2
*Paper_Space
  0
BLOCK_RECORD
  5
212
100
AcDbSymbolTableRecord
100
AcDbBlockTableRecord
  2
_FILLED
  0
ENDTAB
  0
TABLE
  2
DIMSTYLE
  5
A
100
AcDbSymbolTable
 70
1
100
AcDbDimStyleTable
 71
0
  0
DIMSTYLE
105
213
100
AcDbSymbolTableRecord
100
AcDbDimStyleTableRecord
  2
STANDARD
 70
0
  3

  4

 40
1.0
 41
0.6771765798
 42
1.0
 43
0.38
 44
1.0
 45
0.0
 46
0.0
 47
0.01
 48
0.01
140
0.9480472117
141
0.09
142
0.0
143
25.4
144
1.0
145
0.0
146
1.0
147
0.625
 71
1
 72
0
 73
0
 74
0
 75
0
 76
0
 77
1
 78
8
 79
2
170
0
171
1
172
0
173
0
174
0
175
0
176
0
177
0
178
0
270
2
179
2
271
2
272
2
273
2
274
2
275
0
280
0
281
0
282
0
283
1
284
8
285
0
286
0
287
3
288
0
340
11
278
46
341
212
342
212
343
212
344
212
  0
ENDTAB
  0
ENDSEC
  0
SECTION
  2
BLOCKS
  0
BLOCK
  5
20
100
AcDbEntity
  8
0
100
AcDbBlockBegin
  2
*Model_Space
 70
0
 10
0.0
 20
0.0
 30
0.0
  3
*Model_Space
  1

  0
ENDBLK
  5
21
100
AcDbEntity
  8
0
100
AcDbBlockEnd
  0
BLOCK
  5
1C
100
AcDbEntity
  8
0
100
AcDbBlockBegin
  2
*Paper_Space
 70
0
 10
0.0
 20
0.0
 30
0.0
  3
*Paper_Space
  1

  0
ENDBLK
  5
1D
100
AcDbEntity
  8
0
100
AcDbBlockEnd
  0
BLOCK
  5
214
100
AcDbEntity
  8
0
100
AcDbBlockBegin
  2
_FILLED
 70
64
 10
0.0
 20
0.0
  3
_FILLED
  1

  0
SOLID
  5
215
100
AcDbEntity
  8
0
  6
BYBLOCK
 62
0
100
AcDbTrace
 10
0.0
 20
0.0
 11
-1.0
 21
0.25
 12
-1.0
 22
-0.25
 13
-1.0
 23
-0.25
  0
ENDBLK
  5
216
100
AcDbEntity
  8
0
  6
BYBLOCK
 62
0
100
AcDbBlockEnd
  0
ENDSEC
  0
SECTION
  2
ENTITIES
  0
LINE
  5
217
100
AcDbEntity
  8
0
100
AcDbLine
 62
7
  6
CONTINUOUS
 10
51.039884623
 20
12.0755828829
 11
6.039884623
 21
12.0755828829
  0
LINE
  5
218
100
AcDbEntity
  8
0
100
AcDbLine
 62
7
  6
CONTINUOUS
 10
7.429884623
 20
12.2368678829
 11
6.039884623
 21
12.2368678829
  0
LINE
  5
219
100
AcDbEntity
  8
0
100
AcDbLine
 62
7
  6
CONTINUOUS
 10
15.259884623
 20
12.2368678829
 11
16.069884623
 21
12.2368678829
  0
LINE
  5
21A
100
AcDbEntity
  8
0
100
AcDbLine
 62
7
  6
CONTINUOUS
 10
23.899884623
 20
12.2368678829
 11
24.729884623
 21
12.2368678829
  0
LINE
  5
21B
100
AcDbEntity
  8
0
100
AcDbLine
 62
7
  6
CONTINUOUS
 10
32.559884623
 20
12.2368678829
 11
33.369884623
 21
12.2368678829
  0
LINE
  5
21C
100
AcDbEntity
  8
0
100
AcDbLine
 62
7
  6
CONTINUOUS
 10
41.199884623
 20
12.2368678829
 11
42.029884623
 21
12.2368678829
  0
LINE
  5
21D
100
AcDbEntity
  8
0
100
AcDbLine
 62
7
  6
CONTINUOUS
 10
49.859884623
 20
12.2368678829
 11
51.039884623
 21
12.2368678829
  0
LINE
  5
21E
100
AcDbEntity
  8
0
100
AcDbLine
 62
7
  6
CONTINUOUS
 10
6.039884623
 20
12.0755828829
 11
6.039884623
 21
68.7668678829
  0
LINE
  5
21F
100
AcDbEntity
  8
0
100
AcDbLine
 62
7
  6
CONTINUOUS
 10
7.039884623
 20
46.4868678829
 11
7.0398874629
 21
61.4868678829
  0
LINE
  5
220
100
AcDbEntity
  8
0
100
AcDbLine
 62
7
  6
CONTINUOUS
 10
7.429884623
 20
34.9559612099
 11
7.429884623
 21
12.2368678829
  0
LINE
  5
221
100
AcDbEntity
  8
0
100
AcDbLine
 62
7
  6
CONTINUOUS
 10
7.439884623
 20
34.9559612099
 11
7.439884623
 21
46.4868678829
  0
LINE
  5
222
100
AcDbEntity
  8
0
100
AcDbLine
 62
7
  6
CONTINUOUS
 10
7.439884623
 20
61.4844586168
 11
7.439884623
 21
68.7668678829
  0
LINE
  5
223
100
AcDbEntity
  8
0
100
AcDbLine
 62
7
  6
CONTINUOUS
 10
7.579884623
 20
25.5606178829
 11
7.579884623
 21
20.0549208829
  0
LINE
  5
224
100
AcDbEntity
  8
0
100
AcDbLine
 62
7
  6
CONTINUOUS
 10
7.631532123
 20
23.9379778829
 11
7.631532123
 21
21.0096468829
  0
LINE
  5
225
100
AcDbEntity
  8
0
100
AcDbLine
 62
7
  6
CONTINUOUS
 10
7.579884623
 20
20.0549208829
 11
15.079884623
 21
20.0549208829
  0
LINE
  5
226
100
AcDbEntity
  8
0
100
AcDbLine
 62
7
  6
CONTINUOUS
 10
16.222884623
 20
20.0549208829
 11
23.722884623
 21
20.0549208829
  0
LINE
  5
227
100
AcDbEntity
  8
0
100
AcDbLine
 62
7
  6
CONTINUOUS
 10
24.865884623
 20
20.0549208829
 11
32.365884623
 21
20.0549208829
  0
LINE
  5
228
100
AcDbEntity
  8
0
100
AcDbLine
 62
7
  6
CONTINUOUS
 10
33.508884623
 20
20.0549208829
 11
41.008884623
 21
20.0549208829
  0
LINE
  5
229
100
AcDbEntity
  8
0
100
AcDbLine
 62
7
  6
CONTINUOUS
 10
42.189884623
 20
20.0549208829
 11
49.689884623
 21
20.0549208829
  0
LINE
  5
22A
100
AcDbEntity
  8
0
100
AcDbLine
 62
7
  6
CONTINUOUS
 10
7.631532123
 20
21.0096468829
 11
15.035006123
 21
21.0096468829
  0
LINE
  5
22B
100
AcDbEntity
  8
0
100
AcDbLine
 62
7
  6
CONTINUOUS
 10
16.274532123
 20
21.0096468829
 11
23.678006123
 21
21.0096468829
  0
LINE
  5
22C
100
AcDbEntity
  8
0
100
AcDbLine
 62
7
  6
CONTINUOUS
 10
24.917532123
 20
21.0096468829
 11
32.321006123
 21
21.0096468829
  0
LINE
  5
22D
100
AcDbEntity
  8
0
100
AcDbLine
 62
7
  6
CONTINUOUS
 10
33.560532123
 20
21.0096468829
 11
40.964006123
 21
21.0096468829
  0
LINE
  5
22E
100
AcDbEntity
  8
0
100
AcDbLine
 62
7
  6
CONTINUOUS
 10
42.203532123
 20
21.0096468829
 11
49.607006123
 21
21.0096468829
  0
LINE
  5
22F
100
AcDbEntity
  8
0
100
AcDbLine
 62
7
  6
CONTINUOUS
 10
10.0092021384
 20
61.5377370281
 11
10.0092030563
 21
61.7134044531
  0
LINE
  5
230
100
AcDbEntity
  8
0
100
AcDbLine
 62
7
  6
CONTINUOUS
 10
12.2992419231
 20
61.7134044533
 11
12.2992429823
 21
61.5377369421
  0
LINE
  5
231
100
AcDbEntity
  8
0
100
AcDbLine
 62
7
  6
CONTINUOUS
 10
13.9216973332
 20
61.4847576581
 11
13.9216973332
 21
46.4868678829
  0
LINE
  5
232
100
AcDbEntity
  8
0
100
AcDbLine
 62
7
  6
CONTINUOUS
 10
49.607006123
 20
23.9379778829
 11
42.203532123
 21
23.9379778829
  0
LINE
  5
233
100
AcDbEntity
  8
0
100
AcDbLine
 62
7
  6
CONTINUOUS
 10
40.964006123
 20
23.9379778829
 11
33.560532123
 21
23.9379778829
  0
LINE
  5
234
100
AcDbEntity
  8
0
100
AcDbLine
 62
7
  6
CONTINUOUS
 10
32.321006123
 20
23.9379778829
 11
24.917532123
 21
23.9379778829
  0
LINE
  5
235
100
AcDbEntity
  8
0
100
AcDbLine
 62
7
  6
CONTINUOUS
 10
23.678006123
 20
23.9379778829
 11
16.274532123
 21
23.9379778829
  0
LINE
  5
236
100
AcDbEntity
  8
0
100
AcDbLine
 62
7
  6
CONTINUOUS
 10
15.035006123
 20
23.9379778829
 11
7.631532123
 21
23.9379778829
  0
LINE
  5
237
100
AcDbEntity
  8
0
100
AcDbLine
 62
7
  6
CONTINUOUS
 10
41.008884623
 20
25.5606178829
 11
33.508884623
 21
25.5606178829
  0
LINE
  5
238
100
AcDbEntity
  8
0
100
AcDbLine
 62
7
  6
CONTINUOUS
 10
32.365884623
 20
25.5606178829
 11
24.865884623
 21
25.5606178829
  0
LINE
  5
239
100
AcDbEntity
  8
0
100
AcDbLine
 62
7
  6
CONTINUOUS
 10
23.722884623
 20
25.5606178829
 11
16.222884623
 21
25.5606178829
  0
LINE
  5
23A
100
AcDbEntity
  8
0
100
AcDbLine
 62
7
  6
CONTINUOUS
 10
15.079884623
 20
25.5606178829
 11
7.579884623
 21
25.5606178829
  0
LINE
  5
23B
100
AcDbEntity
  8
0
100
AcDbLine
 62
7
  6
CONTINUOUS
 10
49.689884623
 20
25.7668678829
 11
42.189884623
 21
25.7668678829
  0
LINE
  5
23C
100
AcDbEntity
  8
0
100
AcDbLine
 62
7
  6
CONTINUOUS
 10
15.035006123
 20
21.0096468829
 11
15.035006123
 21
23.9379778829
  0
LINE
  5
23D
100
AcDbEntity
  8
0
100
AcDbLine
 62
7
  6
CONTINUOUS
 10
15.079884623
 20
20.0549208829
 11
15.079884623
 21
25.5606178829
  0
LINE
  5
23E
100
AcDbEntity
  8
0
100
AcDbLine
 62
7
  6
CONTINUOUS
 10
15.259884623
 20
12.2368678829
 11
15.259884623
 21
35.1562294721
  0
LINE
  5
23F
100
AcDbEntity
  8
0
100
AcDbLine
 62
7
  6
CONTINUOUS
 10
16.069884623
 20
35.1562294721
 11
16.069884623
 21
12.2368678829
  0
LINE
  5
240
100
AcDbEntity
  8
0
100
AcDbLine
 62
7
  6
CONTINUOUS
 10
16.222884623
 20
25.5606178829
 11
16.222884623
 21
20.0549208829
  0
LINE
  5
241
100
AcDbEntity
  8
0
100
AcDbLine
 62
7
  6
CONTINUOUS
 10
16.274532123
 20
23.9379778829
 11
16.274532123
 21
21.0096468829
  0
LINE
  5
242
100
AcDbEntity
  8
0
100
AcDbLine
 62
7
  6
CONTINUOUS
 10
23.678006123
 20
21.0096468829
 11
23.678006123
 21
23.9379778829
  0
LINE
  5
243
100
AcDbEntity
  8
0
100
AcDbLine
 62
7
  6
CONTINUOUS
 10
23.722884623
 20
20.0549208829
 11
23.722884623
 21
25.5606178829
  0
LINE
  5
244
100
AcDbEntity
  8
0
100
AcDbLine
 62
7
  6
CONTINUOUS
 10
23.899884623
 20
12.2368678829
 11
23.899884623
 21
35.1562294721
  0
LINE
  5
245
100
AcDbEntity
  8
0
100
AcDbLine
 62
7
  6
CONTINUOUS
 10
7.429884623
 20
34.8322345056
 11
6.039884623
 21
34.8322345056
  0
LINE
  5
246
100
AcDbEntity
  8
0
100
AcDbLine
 62
7
  6
CONTINUOUS
 10
49.859884623
 20
34.8322345056
 11
51.039884623
 21
34.8322345056
  0
LINE
  5
247
100
AcDbEntity
  8
0
100
AcDbLine
 62
7
  6
CONTINUOUS
 10
7.439884623
 20
34.9559612099
 11
7.429884623
 21
34.9559612099
  0
LINE
  5
248
100
AcDbEntity
  8
0
100
AcDbLine
 62
7
  6
CONTINUOUS
 10
49.639884623
 20
34.9559612099
 11
49.859884623
 21
34.9559612099
  0
LINE
  5
249
100
AcDbEntity
  8
0
100
AcDbLine
 62
7
  6
CONTINUOUS
 10
15.259884623
 20
35.0221404884
 11
16.069884623
 21
35.0221404884
  0
LINE
  5
24A
100
AcDbEntity
  8
0
100
AcDbLine
 62
7
  6
CONTINUOUS
 10
23.899884623
 20
35.0221404884
 11
24.729884623
 21
35.0221404884
  0
LINE
  5
24B
100
AcDbEntity
  8
0
100
AcDbLine
 62
7
  6
CONTINUOUS
 10
32.559884623
 20
35.0221404884
 11
33.369884623
 21
35.0221404884
  0
LINE
  5
24C
100
AcDbEntity
  8
0
100
AcDbLine
 62
7
  6
CONTINUOUS
 10
41.199884623
 20
35.0221404884
 11
42.029884623
 21
35.0221404884
  0
LINE
  5
24D
100
AcDbEntity
  8
0
100
AcDbLine
 62
7
  6
CONTINUOUS
 10
7.439884623
 20
35.0287220273
 11
6.039884623
 21
35.0287220273
  0
LINE
  5
24E
100
AcDbEntity
  8
0
100
AcDbLine
 62
7
  6
CONTINUOUS
 10
49.639884623
 20
35.0287220273
 11
51.039884623
 21
35.0287220273
  0
LINE
  5
24F
100
AcDbEntity
  8
0
100
AcDbLine
 62
7
  6
CONTINUOUS
 10
7.439884623
 20
35.1562294721
 11
15.259884623
 21
35.1562294721
  0
LINE
  5
250
100
AcDbEntity
  8
0
100
AcDbLine
 62
7
  6
CONTINUOUS
 10
16.069884623
 20
35.1562294721
 11
23.899884623
 21
35.1562294721
  0
LINE
  5
251
100
AcDbEntity
  8
0
100
AcDbLine
 62
7
  6
CONTINUOUS
 10
24.729884623
 20
35.1562294721
 11
32.559884623
 21
35.1562294721
  0
LINE
  5
252
100
AcDbEntity
  8
0
100
AcDbLine
 62
7
  6
CONTINUOUS
 10
33.369884623
 20
35.1562294721
 11
41.199884623
 21
35.1562294721
  0
LINE
  5
253
100
AcDbEntity
  8
0
100
AcDbLine
 62
7
  6
CONTINUOUS
 10
42.029884623
 20
35.1562294721
 11
49.639884623
 21
35.1562294721
  0
LINE
  5
254
100
AcDbEntity
  8
0
100
AcDbLine
 62
7
  6
CONTINUOUS
 10
7.439884623
 20
35.2186280101
 11
49.639884623
 21
35.2186280101
  0
LINE
  5
255
100
AcDbEntity
  8
0
100
AcDbLine
 62
7
  6
CONTINUOUS
 10
24.729884623
 20
35.1562294721
 11
24.729884623
 21
12.2368678829
  0
LINE
  5
256
100
AcDbEntity
  8
0
100
AcDbLine
 62
7
  6
CONTINUOUS
 10
24.865884623
 20
25.5606178829
 11
24.865884623
 21
20.0549208829
  0
LINE
  5
257
100
AcDbEntity
  8
0
100
AcDbLine
 62
7
  6
CONTINUOUS
 10
24.917532123
 20
23.9379778829
 11
24.917532123
 21
21.0096468829
  0
LINE
  5
258
100
AcDbEntity
  8
0
100
AcDbLine
 62
7
  6
CONTINUOUS
 10
32.321006123
 20
21.0096468829
 11
32.321006123
 21
23.9379778829
  0
LINE
  5
259
100
AcDbEntity
  8
0
100
AcDbLine
 62
7
  6
CONTINUOUS
 10
32.365884623
 20
20.0549208829
 11
32.365884623
 21
25.5606178829
  0
LINE
  5
25A
100
AcDbEntity
  8
0
100
AcDbLine
 62
7
  6
CONTINUOUS
 10
32.559884623
 20
12.2368678829
 11
32.559884623
 21
35.1562294721
  0
LINE
  5
25B
100
AcDbEntity
  8
0
100
AcDbLine
 62
7
  6
CONTINUOUS
 10
33.369884623
 20
35.1562294721
 11
33.369884623
 21
12.2368678829
  0
LINE
  5
25C
100
AcDbEntity
  8
0
100
AcDbLine
 62
7
  6
CONTINUOUS
 10
33.508884623
 20
25.5606178829
 11
33.508884623
 21
20.0549208829
  0
LINE
  5
25D
100
AcDbEntity
  8
0
100
AcDbLine
 62
7
  6
CONTINUOUS
 10
33.560532123
 20
23.9379778829
 11
33.560532123
 21
21.0096468829
  0
LINE
  5
25E
100
AcDbEntity
  8
0
100
AcDbLine
 62
7
  6
CONTINUOUS
 10
7.039884623
 20
46.4868678829
 11
13.9216973332
 21
46.4868678829
  0
LINE
  5
25F
100
AcDbEntity
  8
0
100
AcDbLine
 62
7
  6
CONTINUOUS
 10
43.1580719129
 20
46.4868678829
 11
50.039884623
 21
46.4868678829
  0
LINE
  5
260
100
AcDbEntity
  8
0
100
AcDbLine
 62
7
  6
CONTINUOUS
 10
40.964006123
 20
21.0096468829
 11
40.964006123
 21
23.9379778829
  0
LINE
  5
261
100
AcDbEntity
  8
0
100
AcDbLine
 62
7
  6
CONTINUOUS
 10
41.008884623
 20
20.0549208829
 11
41.008884623
 21
25.5606178829
  0
LINE
  5
262
100
AcDbEntity
  8
0
100
AcDbLine
 62
7
  6
CONTINUOUS
 10
41.199884623
 20
12.2368678829
 11
41.199884623
 21
35.1562294721
  0
LINE
  5
263
100
AcDbEntity
  8
0
100
AcDbLine
 62
7
  6
CONTINUOUS
 10
42.029884623
 20
35.1562294721
 11
42.029884623
 21
12.2368678829
  0
LINE
  5
264
100
AcDbEntity
  8
0
100
AcDbLine
 62
7
  6
CONTINUOUS
 10
42.189884623
 20
25.7668678829
 11
42.189884623
 21
20.0549208829
  0
LINE
  5
265
100
AcDbEntity
  8
0
100
AcDbLine
 62
7
  6
CONTINUOUS
 10
42.203532123
 20
23.9379778829
 11
42.203532123
 21
21.0096468829
  0
LINE
  5
266
100
AcDbEntity
  8
0
100
AcDbLine
 62
7
  6
CONTINUOUS
 10
43.1580719129
 20
61.4847576581
 11
43.1580719129
 21
46.4868678829
  0
LINE
  5
267
100
AcDbEntity
  8
0
100
AcDbLine
 62
7
  6
CONTINUOUS
 10
43.466062211
 20
61.6797514318
 11
43.466062211
 21
61.5410699339
  0
LINE
  5
268
100
AcDbEntity
  8
0
100
AcDbLine
 62
7
  6
CONTINUOUS
 10
46.856062211
 20
61.5410699339
 11
46.856062211
 21
61.6797514318
  0
LINE
  5
269
100
AcDbEntity
  8
0
100
AcDbLine
 62
7
  6
CONTINUOUS
 10
49.607006123
 20
21.0096468829
 11
49.607006123
 21
23.9379778829
  0
LINE
  5
26A
100
AcDbEntity
  8
0
100
AcDbLine
 62
7
  6
CONTINUOUS
 10
49.639884623
 20
34.9559612099
 11
49.639884623
 21
46.4868678829
  0
LINE
  5
26B
100
AcDbEntity
  8
0
100
AcDbLine
 62
7
  6
CONTINUOUS
 10
49.639884623
 20
61.4844586168
 11
49.639884623
 21
68.7668678829
  0
LINE
  5
26C
100
AcDbEntity
  8
0
100
AcDbLine
 62
7
  6
CONTINUOUS
 10
49.689884623
 20
20.0549208829
 11
49.689884623
 21
25.7668678829
  0
LINE
  5
26D
100
AcDbEntity
  8
0
100
AcDbLine
 62
7
  6
CONTINUOUS
 10
49.859884623
 20
12.2368678829
 11
49.859884623
 21
34.9559612099
  0
LINE
  5
26E
100
AcDbEntity
  8
0
100
AcDbLine
 62
7
  6
CONTINUOUS
 10
50.039884623
 20
61.4868678829
 11
50.039884623
 21
46.4868678829
  0
LINE
  5
26F
100
AcDbEntity
  8
0
100
AcDbLine
 62
7
  6
CONTINUOUS
 10
13.9216974167
 20
61.4820496153
 11
43.1580719129
 21
61.4820496153
  0
LINE
  5
270
100
AcDbEntity
  8
0
100
AcDbLine
 62
7
  6
CONTINUOUS
 10
13.9216973332
 20
61.4868678829
 11
7.0398874629
 21
61.4868678829
  0
LINE
  5
271
100
AcDbEntity
  8
0
100
AcDbLine
 62
7
  6
CONTINUOUS
 10
43.1580719129
 20
61.4868678829
 11
50.039884623
 21
61.4868678829
  0
LINE
  5
272
100
AcDbEntity
  8
0
100
AcDbLine
 62
7
  6
CONTINUOUS
 10
12.2992487851
 20
61.5377375588
 11
10.0091987945
 21
61.537737559
  0
LINE
  5
273
100
AcDbEntity
  8
0
100
AcDbLine
 62
7
  6
CONTINUOUS
 10
7.439884623
 20
61.6720316236
 11
6.039884623
 21
61.6720316236
  0
LINE
  5
274
100
AcDbEntity
  8
0
100
AcDbLine
 62
7
  6
CONTINUOUS
 10
49.639884623
 20
61.6720316236
 11
51.039884623
 21
61.6720316236
  0
LINE
  5
275
100
AcDbEntity
  8
0
100
AcDbLine
 62
7
  6
CONTINUOUS
 10
10.009198792
 20
61.7134044531
 11
12.2992487851
 21
61.7134044533
  0
LINE
  5
276
100
AcDbEntity
  8
0
100
AcDbLine
 62
7
  6
CONTINUOUS
 10
7.439884623
 20
61.8308563625
 11
49.639884623
 21
61.8308563625
  0
LINE
  5
277
100
AcDbEntity
  8
0
100
AcDbLine
 62
7
  6
CONTINUOUS
 10
7.439884623
 20
62.0208471032
 11
6.039884623
 21
62.0208471032
  0
LINE
  5
278
100
AcDbEntity
  8
0
100
AcDbLine
 62
7
  6
CONTINUOUS
 10
49.639884623
 20
62.0208471032
 11
51.039884623
 21
62.0208471032
  0
LINE
  5
279
100
AcDbEntity
  8
0
100
AcDbLine
 62
7
  6
CONTINUOUS
 10
51.039884623
 20
12.0755828829
 11
51.039884623
 21
68.7668678829
  0
LINE
  5
27A
100
AcDbEntity
  8
0
100
AcDbLine
 62
7
  6
CONTINUOUS
 10
6.039884623
 20
68.7668678829
 11
51.039884623
 21
68.7668678829
  0
SPLINE
  5
27B
100
AcDbEntity
  8
0
100
AcDbSpline
 62
7
  6
CONTINUOUS
 70
0
 71
3
 72
22
 73
18
 74
0
 42
0.0000001
 43
0.0000001
 44
0.0000000001
 40
0.0
 40
0.0
 40
0.0
 40
0.0
 40
0.1941483811
 40
0.3809716005
 40
0.5530412156
 40
0.7039640124
 40
0.7696287546
 40
0.8279262497
 40
0.8782983093
 40
0.9202696578
 40
0.9534949693
 40
0.9667335467
 40
0.9776924312
 40
0.9863838275
 40
0.9928508887
 40
0.9972260038
 40
1.0
 40
1.0
 40
1.0
 40
1.0
 10
37.2060623638
 20
61.70262237
 30
0.0
 10
37.3036280269
 20
61.70262237
 30
0.0
 10
37.4950795793
 20
61.7016562442
 30
0.0
 10
37.772973136
 20
61.6974087842
 30
0.0
 10
38.0290850256
 20
61.6905327069
 30
0.0
 10
38.2242457656
 20
61.6825742342
 30
0.0
 10
38.3621703614
 20
61.6748422963
 30
0.0
 10
38.4495772296
 20
61.6688671838
 30
0.0
 10
38.5250177328
 20
61.6625222266
 30
0.0
 10
38.5877721697
 20
61.6558660656
 30
0.0
 10
38.6318150355
 20
61.6498065919
 30
0.0
 10
38.6602094177
 20
61.644630517
 30
0.0
 10
38.6763395407
 20
61.6410006033
 30
0.0
 10
38.6889765844
 20
61.6374209199
 30
0.0
 10
38.6981158598
 20
61.6337403974
 30
0.0
 10
38.7040535518
 20
61.6303336029
 30
0.0
 10
38.7061961974
 20
61.6269650449
 30
0.0
 10
38.7061961974
 20
61.6255710247
 30
0.0
  0
SPLINE
  5
27C
100
AcDbEntity
  8
0
100
AcDbSpline
 62
7
  6
CONTINUOUS
 70
0
 71
3
 72
22
 73
18
 74
0
 42
0.0000001
 43
0.0000001
 44
0.0000000001
 40
0.0
 40
0.0
 40
0.0
 40
0.0
 40
0.0027739948
 40
0.0071491042
 40
0.0136161566
 40
0.0223075435
 40
0.0332664197
 40
0.0465049893
 40
0.0797302702
 40
0.1217015881
 40
0.1720736291
 40
0.2303710978
 40
0.2960358292
 40
0.4469586133
 40
0.6190282472
 40
0.8058515639
 40
1.0
 40
1.0
 40
1.0
 40
1.0
 10
35.7059282483
 20
61.6255710136
 30
0.0
 10
35.7059282483
 20
61.6269650334
 30
0.0
 10
35.7080708874
 20
61.6303335906
 30
0.0
 10
35.7140085719
 20
61.6337403872
 30
0.0
 10
35.7231478363
 20
61.6374209088
 30
0.0
 10
35.7357848692
 20
61.6410005914
 30
0.0
 10
35.7519149827
 20
61.6446305032
 30
0.0
 10
35.7803093474
 20
61.6498065741
 30
0.0
 10
35.8243521864
 20
61.6558660498
 30
0.0
 10
35.8871065951
 20
61.6625222114
 30
0.0
 10
35.9625470747
 20
61.668867168
 30
0.0
 10
36.0499539312
 20
61.6748422848
 30
0.0
 10
36.1878785283
 20
61.6825742228
 30
0.0
 10
36.3830393029
 20
61.6905327011
 30
0.0
 10
36.6391512934
 20
61.6974087811
 30
0.0
 10
36.9170449891
 20
61.7016562431
 30
0.0
 10
37.1084966544
 20
61.70262237
 30
0.0
 10
37.2060623638
 20
61.70262237
 30
0.0
  0
SPLINE
  5
27D
100
AcDbEntity
  8
0
100
AcDbSpline
 62
7
  6
CONTINUOUS
 70
0
 71
3
 72
22
 73
18
 74
0
 42
0.0000001
 43
0.0000001
 44
0.0000000001
 40
0.0
 40
0.0
 40
0.0
 40
0.0
 40
0.1941483811
 40
0.3809716005
 40
0.5530412156
 40
0.7039640124
 40
0.7696287546
 40
0.8279262497
 40
0.8782983093
 40
0.9202696578
 40
0.9534949693
 40
0.9667335467
 40
0.9776924312
 40
0.9863838275
 40
0.9928508887
 40
0.9972260038
 40
1.0
 40
1.0
 40
1.0
 40
1.0
 10
28.5398847757
 20
61.70262237
 30
0.0
 10
28.6374504389
 20
61.70262237
 30
0.0
 10
28.8289019912
 20
61.7016562442
 30
0.0
 10
29.106795548
 20
61.6974087842
 30
0.0
 10
29.3629074376
 20
61.6905327069
 30
0.0
 10
29.5580681775
 20
61.6825742342
 30
0.0
 10
29.6959927734
 20
61.6748422963
 30
0.0
 10
29.7833996415
 20
61.6688671838
 30
0.0
 10
29.8588401448
 20
61.6625222266
 30
0.0
 10
29.9215945817
 20
61.6558660656
 30
0.0
 10
29.9656374475
 20
61.6498065919
 30
0.0
 10
29.9940318296
 20
61.644630517
 30
0.0
 10
30.0101619526
 20
61.6410006033
 30
0.0
 10
30.0227989964
 20
61.6374209199
 30
0.0
 10
30.0319382717
 20
61.6337403974
 30
0.0
 10
30.0378759637
 20
61.6303336029
 30
0.0
 10
30.0400186094
 20
61.6269650449
 30
0.0
 10
30.0400186094
 20
61.6255710247
 30
0.0
  0
SPLINE
  5
27E
100
AcDbEntity
  8
0
100
AcDbSpline
 62
7
  6
CONTINUOUS
 70
0
 71
3
 72
22
 73
18
 74
0
 42
0.0000001
 43
0.0000001
 44
0.0000000001
 40
0.0
 40
0.0
 40
0.0
 40
0.0
 40
0.0027739948
 40
0.0071491042
 40
0.0136161566
 40
0.0223075435
 40
0.0332664197
 40
0.0465049893
 40
0.0797302702
 40
0.1217015881
 40
0.1720736291
 40
0.2303710978
 40
0.2960358292
 40
0.4469586133
 40
0.6190282472
 40
0.8058515639
 40
1.0
 40
1.0
 40
1.0
 40
1.0
 10
27.0397506604
 20
61.6255710136
 30
0.0
 10
27.0397506604
 20
61.6269650334
 30
0.0
 10
27.0418932994
 20
61.6303335906
 30
0.0
 10
27.047830984
 20
61.6337403872
 30
0.0
 10
27.0569702483
 20
61.6374209088
 30
0.0
 10
27.0696072812
 20
61.6410005914
 30
0.0
 10
27.0857373947
 20
61.6446305032
 30
0.0
 10
27.1141317594
 20
61.6498065741
 30
0.0
 10
27.1581745984
 20
61.6558660498
 30
0.0
 10
27.2209290071
 20
61.6625222114
 30
0.0
 10
27.2963694867
 20
61.668867168
 30
0.0
 10
27.3837763432
 20
61.6748422848
 30
0.0
 10
27.5217009403
 20
61.6825742228
 30
0.0
 10
27.7168617149
 20
61.6905327011
 30
0.0
 10
27.9729737053
 20
61.6974087811
 30
0.0
 10
28.250867401
 20
61.7016562431
 30
0.0
 10
28.4423190664
 20
61.70262237
 30
0.0
 10
28.5398847757
 20
61.70262237
 30
0.0
  0
SPLINE
  5
27F
100
AcDbEntity
  8
0
100
AcDbSpline
 62
7
  6
CONTINUOUS
 70
0
 71
3
 72
22
 73
18
 74
0
 42
0.0000001
 43
0.0000001
 44
0.0000000001
 40
0.0
 40
0.0
 40
0.0
 40
0.0
 40
0.1941483811
 40
0.3809716005
 40
0.5530412156
 40
0.7039640124
 40
0.7696287546
 40
0.8279262497
 40
0.8782983093
 40
0.9202696578
 40
0.9534949693
 40
0.9667335467
 40
0.9776924312
 40
0.9863838275
 40
0.9928508887
 40
0.9972260038
 40
1.0
 40
1.0
 40
1.0
 40
1.0
 10
19.8898847758
 20
61.70262237
 30
0.0
 10
19.9874504389
 20
61.70262237
 30
0.0
 10
20.1789019912
 20
61.7016562442
 30
0.0
 10
20.456795548
 20
61.6974087842
 30
0.0
 10
20.7129074376
 20
61.6905327069
 30
0.0
 10
20.9080681775
 20
61.6825742342
 30
0.0
 10
21.0459927734
 20
61.6748422963
 30
0.0
 10
21.1333996415
 20
61.6688671838
 30
0.0
 10
21.2088401448
 20
61.6625222266
 30
0.0
 10
21.2715945817
 20
61.6558660656
 30
0.0
 10
21.3156374475
 20
61.6498065919
 30
0.0
 10
21.3440318296
 20
61.644630517
 30
0.0
 10
21.3601619526
 20
61.6410006033
 30
0.0
 10
21.3727989964
 20
61.6374209199
 30
0.0
 10
21.3819382717
 20
61.6337403974
 30
0.0
 10
21.3878759637
 20
61.6303336029
 30
0.0
 10
21.3900186094
 20
61.6269650449
 30
0.0
 10
21.3900186094
 20
61.6255710247
 30
0.0
  0
SPLINE
  5
280
100
AcDbEntity
  8
0
100
AcDbSpline
 62
7
  6
CONTINUOUS
 70
0
 71
3
 72
22
 73
18
 74
0
 42
0.0000001
 43
0.0000001
 44
0.0000000001
 40
0.0
 40
0.0
 40
0.0
 40
0.0
 40
0.0027739948
 40
0.0071491042
 40
0.0136161566
 40
0.0223075435
 40
0.0332664197
 40
0.0465049893
 40
0.0797302702
 40
0.1217015881
 40
0.1720736291
 40
0.2303710978
 40
0.2960358292
 40
0.4469586133
 40
0.6190282472
 40
0.8058515639
 40
1.0
 40
1.0
 40
1.0
 40
1.0
 10
18.3897506604
 20
61.6255710136
 30
0.0
 10
18.3897506604
 20
61.6269650334
 30
0.0
 10
18.3918932994
 20
61.6303335906
 30
0.0
 10
18.3978309839
 20
61.6337403872
 30
0.0
 10
18.4069702483
 20
61.6374209088
 30
0.0
 10
18.4196072812
 20
61.6410005914
 30
0.0
 10
18.4357373947
 20
61.6446305032
 30
0.0
 10
18.4641317594
 20
61.6498065741
 30
0.0
 10
18.5081745984
 20
61.6558660498
 30
0.0
 10
18.5709290071
 20
61.6625222114
 30
0.0
 10
18.6463694867
 20
61.668867168
 30
0.0
 10
18.7337763432
 20
61.6748422848
 30
0.0
 10
18.8717009403
 20
61.6825742228
 30
0.0
 10
19.0668617149
 20
61.6905327011
 30
0.0
 10
19.3229737053
 20
61.6974087811
 30
0.0
 10
19.6008674011
 20
61.7016562431
 30
0.0
 10
19.7923190664
 20
61.70262237
 30
0.0
 10
19.8898847758
 20
61.70262237
 30
0.0
  0
SPLINE
  5
281
100
AcDbEntity
  8
0
100
AcDbSpline
 62
7
  6
CONTINUOUS
 70
0
 71
3
 72
19
 73
15
 74
0
 42
0.0000001
 43
0.0000001
 44
0.0000000001
 40
0.0
 40
0.0
 40
0.0
 40
0.0
 40
0.2177239278
 40
0.4136764267
 40
0.5845698291
 40
0.728067835
 40
0.8422119089
 40
0.8878200935
 40
0.9255831322
 40
0.9554055254
 40
0.977348036
 40
0.9854539204
 40
0.991762288
 40
1.0
 40
1.0
 40
1.0
 40
1.0
 10
12.2992487851
 20
61.7134044533
 30
0.0
 10
12.3649529035
 20
61.7110673131
 30
0.0
 10
12.4897728947
 20
61.7060812281
 30
0.0
 10
12.6660708703
 20
61.697130544
 30
0.0
 10
12.8198665405
 20
61.6872113363
 30
0.0
 10
12.9488323922
 20
61.6764969106
 30
0.0
 10
13.0398846954
 20
61.6665349022
 30
0.0
 10
13.0989051635
 20
61.6578835301
 30
0.0
 10
13.1325533997
 20
61.6518345329
 30
0.0
 10
13.1589055295
 20
61.6456957595
 30
0.0
 10
13.1761722175
 20
61.6403069146
 30
0.0
 10
13.1861778338
 20
61.635565712
 30
0.0
 10
13.1918461826
 20
61.632010909
 30
0.0
 10
13.1950760491
 20
61.628058532
 30
0.0
 10
13.1950760491
 20
61.6255710061
 30
0.0
  0
SPLINE
  5
282
100
AcDbEntity
  8
0
100
AcDbSpline
 62
7
  6
CONTINUOUS
 70
0
 71
3
 72
19
 73
15
 74
0
 42
0.0000001
 43
0.0000001
 44
0.0000000001
 40
0.0
 40
0.0
 40
0.0
 40
0.0
 40
0.0081368776
 40
0.0144268674
 40
0.0225307031
 40
0.0445067106
 40
0.0744010288
 40
0.1122656332
 40
0.157994732
 40
0.2723984762
 40
0.416111629
 40
0.5870786712
 40
0.7828532753
 40
1.0
 40
1.0
 40
1.0
 40
1.0
 10
9.0898343518
 20
61.6255710057
 30
0.0
 10
9.0898343518
 20
61.6280915512
 30
0.0
 10
9.0931922963
 20
61.6320798237
 30
0.0
 10
9.0990044804
 20
61.6356415416
 30
0.0
 10
9.1093166224
 20
61.6404210253
 30
0.0
 10
9.1270905768
 20
61.6458423069
 30
0.0
 10
9.1542178494
 20
61.6520208946
 30
0.0
 10
9.1888487283
 20
61.6581029691
 30
0.0
 10
9.2495712522
 20
61.6667946348
 30
0.0
 10
9.3431849906
 20
61.6767831088
 30
0.0
 10
9.4756754642
 20
61.68749428
 30
0.0
 10
9.6334971158
 20
61.6973680462
 30
0.0
 10
9.814153847
 20
61.7062239404
 30
0.0
 10
9.9419724158
 20
61.7111212507
 30
0.0
 10
10.009198792
 20
61.7134044531
 30
0.0
  0
SPLINE
  5
283
100
AcDbEntity
  8
0
100
AcDbSpline
 62
7
  6
CONTINUOUS
 70
0
 71
3
 72
15
 73
11
 74
0
 42
0.0000001
 43
0.0000001
 44
0.0000000001
 40
0.0
 40
0.0
 40
0.0
 40
0.0
 40
0.0962815737
 40
0.2166609585
 40
0.3539668588
 40
0.5000000487
 40
0.6460332295
 40
0.7833391074
 40
0.9037184558
 40
1.0
 40
1.0
 40
1.0
 40
1.0
 10
43.466062211
 20
61.6797515489
 30
0.0
 10
43.5746021455
 20
61.6880763094
 30
0.0
 10
43.8192336156
 20
61.7016478947
 30
0.0
 10
44.219208638
 20
61.7155323637
 30
0.0
 10
44.6755990848
 20
61.7242537385
 30
0.0
 10
45.1610623659
 20
61.7272397322
 30
0.0
 10
45.6465256218
 20
61.7242537354
 30
0.0
 10
46.1029159915
 20
61.7155323573
 30
0.0
 10
46.5028909142
 20
61.7016478907
 30
0.0
 10
46.7475223098
 20
61.6880763069
 30
0.0
 10
46.856062211
 20
61.6797515489
 30
0.0
  0
SPLINE
  5
284
100
AcDbEntity
  8
0
100
AcDbSpline
 62
7
  6
CONTINUOUS
 70
0
 71
3
 72
22
 73
18
 74
0
 42
0.0000001
 43
0.0000001
 44
0.0000000001
 40
0.0
 40
0.0
 40
0.0
 40
0.0
 40
0.0027739948
 40
0.0071491019
 40
0.01361615
 40
0.022307531
 40
0.0332664
 40
0.0465049613
 40
0.0797302247
 40
0.1217015261
 40
0.1720735549
 40
0.2303710163
 40
0.2960357445
 40
0.4469585322
 40
0.6190281822
 40
0.8058515269
 40
1.0
 40
1.0
 40
1.0
 40
1.0
 10
21.3900186094
 20
61.6255710247
 30
0.0
 10
21.3900186094
 20
61.6241770049
 30
0.0
 10
21.3878759738
 20
61.6208084483
 30
0.0
 10
21.381938294
 20
61.6174016501
 30
0.0
 10
21.3727990377
 20
61.6137211282
 30
0.0
 10
21.3601620153
 20
61.6101414449
 30
0.0
 10
21.3440319146
 20
61.6065115325
 30
0.0
 10
21.3156375697
 20
61.6013354604
 30
0.0
 10
21.2715947564
 20
61.5952759833
 30
0.0
 10
21.2088403771
 20
61.5886198201
 30
0.0
 10
21.1333999228
 20
61.5822748619
 30
0.0
 10
21.045993086
 20
61.5762997435
 30
0.0
 10
20.9080685052
 20
61.5685678029
 30
0.0
 10
20.7129077405
 20
61.5606093217
 30
0.0
 10
20.4567957499
 20
61.5537332384
 30
0.0
 10
20.1789020392
 20
61.5494857736
 30
0.0
 10
19.9874503588
 20
61.5485196455
 30
0.0
 10
19.8898846398
 20
61.5485196455
 30
0.0
  0
SPLINE
  5
285
100
AcDbEntity
  8
0
100
AcDbSpline
 62
7
  6
CONTINUOUS
 70
0
 71
3
 72
19
 73
15
 74
0
 42
0.0000001
 43
0.0000001
 44
0.0000000001
 40
0.0
 40
0.0
 40
0.0
 40
0.0
 40
0.008237712
 40
0.0145460796
 40
0.022651964
 40
0.0445944746
 40
0.0744168678
 40
0.1121799065
 40
0.1577880911
 40
0.271932165
 40
0.4154301709
 40
0.5863235733
 40
0.7822760722
 40
1.0
 40
1.0
 40
1.0
 40
1.0
 10
13.1950760491
 20
61.6255710061
 30
0.0
 10
13.1950760491
 20
61.6230834801
 30
0.0
 10
13.1918461826
 20
61.6191311031
 30
0.0
 10
13.1861778338
 20
61.6155763001
 30
0.0
 10
13.1761722175
 20
61.6108350976
 30
0.0
 10
13.1589055295
 20
61.6054462526
 30
0.0
 10
13.1325533997
 20
61.5993074792
 30
0.0
 10
13.0989051635
 20
61.593258482
 30
0.0
 10
13.0398846954
 20
61.5846071099
 30
0.0
 10
12.9488323922
 20
61.5746451016
 30
0.0
 10
12.8198665405
 20
61.5639306758
 30
0.0
 10
12.6660708703
 20
61.5540114681
 30
0.0
 10
12.4897728947
 20
61.5450607841
 30
0.0
 10
12.3649529035
 20
61.540074699
 30
0.0
 10
12.2992487851
 20
61.5377375588
 30
0.0
  0
SPLINE
  5
286
100
AcDbEntity
  8
0
100
AcDbSpline
 62
7
  6
CONTINUOUS
 70
0
 71
3
 72
19
 73
15
 74
0
 42
0.0000001
 43
0.0000001
 44
0.0000000001
 40
0.0
 40
0.0
 40
0.0
 40
0.0
 40
0.2171467233
 40
0.4129213266
 40
0.5838883683
 40
0.727601521
 40
0.8420052658
 40
0.887734365
 40
0.9255989699
 40
0.9554932886
 40
0.9774692966
 40
0.9855731325
 40
0.9918631223
 40
1.0
 40
1.0
 40
1.0
 40
1.0
 10
10.0091987945
 20
61.537737559
 30
0.0
 10
9.9419724185
 20
61.5400207615
 30
0.0
 10
9.8141538501
 20
61.5449180717
 30
0.0
 10
9.6334971193
 20
61.5537739658
 30
0.0
 10
9.4756754678
 20
61.5636477319
 30
0.0
 10
9.3431849938
 20
61.574358903
 30
0.0
 10
9.249571255
 20
61.584347377
 30
0.0
 10
9.1888487305
 20
61.5930390425
 30
0.0
 10
9.154217851
 20
61.599121117
 30
0.0
 10
9.1270905779
 20
61.6052997047
 30
0.0
 10
9.109316623
 20
61.6107209862
 30
0.0
 10
9.0990044808
 20
61.6155004699
 30
0.0
 10
9.0931922964
 20
61.6190621878
 30
0.0
 10
9.0898343518
 20
61.6230504603
 30
0.0
 10
9.0898343518
 20
61.6255710057
 30
0.0
  0
SPLINE
  5
287
100
AcDbEntity
  8
0
100
AcDbSpline
 62
7
  6
CONTINUOUS
 70
0
 71
3
 72
15
 73
11
 74
0
 42
0.0000001
 43
0.0000001
 44
0.0000000001
 40
0.0
 40
0.0
 40
0.0
 40
0.0
 40
0.09628101
 40
0.2166602823
 40
0.3539664267
 40
0.5000000487
 40
0.6460336616
 40
0.7833397836
 40
0.9037190195
 40
1.0
 40
1.0
 40
1.0
 40
1.0
 10
46.856062211
 20
61.5410697989
 30
0.0
 10
46.7475229118
 20
61.5327450716
 30
0.0
 10
46.5028922265
 20
61.519173124
 30
0.0
 10
46.1029176842
 20
61.5052886217
 30
0.0
 10
45.6465265976
 20
61.4965671164
 30
0.0
 10
45.1610620561
 20
61.4935811012
 30
0.0
 10
44.67559754
 20
61.4965671194
 30
0.0
 10
44.2192065304
 20
61.5052886281
 30
0.0
 10
43.8192320878
 20
61.5191731279
 30
0.0
 10
43.5746014771
 20
61.5327450741
 30
0.0
 10
43.466062211
 20
61.5410697989
 30
0.0
  0
SPLINE
  5
288
100
AcDbEntity
  8
0
100
AcDbSpline
 62
7
  6
CONTINUOUS
 70
0
 71
3
 72
22
 73
18
 74
0
 42
0.0000001
 43
0.0000001
 44
0.0000000001
 40
0.0
 40
0.0
 40
0.0
 40
0.0
 40
0.1941484029
 40
0.3809716426
 40
0.5530412726
 40
0.7039640751
 40
0.7696288162
 40
0.8279263068
 40
0.8782983569
 40
0.9202696918
 40
0.953494989
 40
0.9667335601
 40
0.9776924393
 40
0.9863838317
 40
0.9928508901
 40
0.9972260039
 40
1.0
 40
1.0
 40
1.0
 40
1.0
 10
37.2060622279
 20
61.5485196455
 30
0.0
 10
37.108496544
 20
61.5485196455
 30
0.0
 10
36.9170449514
 20
61.5494857721
 30
0.0
 10
36.6391513381
 20
61.5537332333
 30
0.0
 10
36.3830394023
 20
61.5606093123
 30
0.0
 10
36.187878633
 20
61.5685677877
 30
0.0
 10
36.0499540234
 20
61.5762997282
 30
0.0
 10
35.9625471542
 20
61.5822748425
 30
0.0
 10
35.8871066575
 20
61.5886198015
 30
0.0
 10
35.8243522333
 20
61.5952759647
 30
0.0
 10
35.7803093806
 20
61.6013354404
 30
0.0
 10
35.751915009
 20
61.6065115169
 30
0.0
 10
35.7357848925
 20
61.6101414315
 30
0.0
 10
35.7231478539
 20
61.6137211158
 30
0.0
 10
35.7140085823
 20
61.6174016391
 30
0.0
 10
35.7080708924
 20
61.620808435
 30
0.0
 10
35.7059282483
 20
61.6241769932
 30
0.0
 10
35.7059282483
 20
61.6255710136
 30
0.0
  0
SPLINE
  5
289
100
AcDbEntity
  8
0
100
AcDbSpline
 62
7
  6
CONTINUOUS
 70
0
 71
3
 72
22
 73
18
 74
0
 42
0.0000001
 43
0.0000001
 44
0.0000000001
 40
0.0
 40
0.0
 40
0.0
 40
0.0
 40
0.0027739948
 40
0.0071491019
 40
0.01361615
 40
0.022307531
 40
0.0332664
 40
0.0465049613
 40
0.0797302247
 40
0.1217015261
 40
0.1720735549
 40
0.2303710163
 40
0.2960357445
 40
0.4469585322
 40
0.6190281822
 40
0.8058515269
 40
1.0
 40
1.0
 40
1.0
 40
1.0
 10
38.7061961974
 20
61.6255710247
 30
0.0
 10
38.7061961974
 20
61.6241770049
 30
0.0
 10
38.7040535618
 20
61.6208084483
 30
0.0
 10
38.6981158821
 20
61.6174016501
 30
0.0
 10
38.6889766258
 20
61.6137211282
 30
0.0
 10
38.6763396033
 20
61.6101414449
 30
0.0
 10
38.6602095026
 20
61.6065115325
 30
0.0
 10
38.6318151577
 20
61.6013354604
 30
0.0
 10
38.5877723445
 20
61.5952759833
 30
0.0
 10
38.5250179651
 20
61.5886198201
 30
0.0
 10
38.4495775108
 20
61.5822748619
 30
0.0
 10
38.362170674
 20
61.5762997435
 30
0.0
 10
38.2242460933
 20
61.5685678029
 30
0.0
 10
38.0290853286
 20
61.5606093217
 30
0.0
 10
37.772973338
 20
61.5537332384
 30
0.0
 10
37.4950796272
 20
61.5494857736
 30
0.0
 10
37.3036279469
 20
61.5485196455
 30
0.0
 10
37.2060622279
 20
61.5485196455
 30
0.0
  0
SPLINE
  5
28A
100
AcDbEntity
  8
0
100
AcDbSpline
 62
7
  6
CONTINUOUS
 70
0
 71
3
 72
22
 73
18
 74
0
 42
0.0000001
 43
0.0000001
 44
0.0000000001
 40
0.0
 40
0.0
 40
0.0
 40
0.0
 40
0.1941484029
 40
0.3809716426
 40
0.5530412727
 40
0.7039640751
 40
0.7696288162
 40
0.8279263068
 40
0.8782983569
 40
0.9202696918
 40
0.953494989
 40
0.9667335601
 40
0.9776924393
 40
0.9863838317
 40
0.9928508901
 40
0.9972260039
 40
1.0
 40
1.0
 40
1.0
 40
1.0
 10
28.5398846398
 20
61.5485196455
 30
0.0
 10
28.442318956
 20
61.5485196455
 30
0.0
 10
28.2508673633
 20
61.5494857721
 30
0.0
 10
27.9729737501
 20
61.5537332333
 30
0.0
 10
27.7168618143
 20
61.5606093123
 30
0.0
 10
27.521701045
 20
61.5685677877
 30
0.0
 10
27.3837764354
 20
61.5762997282
 30
0.0
 10
27.2963695662
 20
61.5822748425
 30
0.0
 10
27.2209290695
 20
61.5886198015
 30
0.0
 10
27.1581746453
 20
61.5952759647
 30
0.0
 10
27.1141317926
 20
61.6013354404
 30
0.0
 10
27.085737421
 20
61.6065115169
 30
0.0
 10
27.0696073045
 20
61.6101414315
 30
0.0
 10
27.0569702659
 20
61.6137211158
 30
0.0
 10
27.0478309943
 20
61.6174016391
 30
0.0
 10
27.0418933044
 20
61.620808435
 30
0.0
 10
27.0397506604
 20
61.6241769932
 30
0.0
 10
27.0397506604
 20
61.6255710136
 30
0.0
  0
SPLINE
  5
28B
100
AcDbEntity
  8
0
100
AcDbSpline
 62
7
  6
CONTINUOUS
 70
0
 71
3
 72
22
 73
18
 74
0
 42
0.0000001
 43
0.0000001
 44
0.0000000001
 40
0.0
 40
0.0
 40
0.0
 40
0.0
 40
0.0027739948
 40
0.0071491019
 40
0.01361615
 40
0.022307531
 40
0.0332664
 40
0.0465049613
 40
0.0797302247
 40
0.1217015261
 40
0.1720735549
 40
0.2303710163
 40
0.2960357445
 40
0.4469585322
 40
0.6190281822
 40
0.8058515269
 40
1.0
 40
1.0
 40
1.0
 40
1.0
 10
30.0400186094
 20
61.6255710247
 30
0.0
 10
30.0400186094
 20
61.6241770049
 30
0.0
 10
30.0378759738
 20
61.6208084483
 30
0.0
 10
30.031938294
 20
61.6174016501
 30
0.0
 10
30.0227990377
 20
61.6137211282
 30
0.0
 10
30.0101620153
 20
61.6101414449
 30
0.0
 10
29.9940319146
 20
61.6065115325
 30
0.0
 10
29.9656375697
 20
61.6013354604
 30
0.0
 10
29.9215947564
 20
61.5952759833
 30
0.0
 10
29.8588403771
 20
61.5886198201
 30
0.0
 10
29.7833999228
 20
61.5822748619
 30
0.0
 10
29.6959930859
 20
61.5762997435
 30
0.0
 10
29.5580685052
 20
61.5685678029
 30
0.0
 10
29.3629077405
 20
61.5606093217
 30
0.0
 10
29.1067957499
 20
61.5537332384
 30
0.0
 10
28.8289020391
 20
61.5494857736
 30
0.0
 10
28.6374503588
 20
61.5485196455
 30
0.0
 10
28.5398846398
 20
61.5485196455
 30
0.0
  0
SPLINE
  5
28C
100
AcDbEntity
  8
0
100
AcDbSpline
 62
7
  6
CONTINUOUS
 70
0
 71
3
 72
22
 73
18
 74
0
 42
0.0000001
 43
0.0000001
 44
0.0000000001
 40
0.0
 40
0.0
 40
0.0
 40
0.0
 40
0.1941484029
 40
0.3809716426
 40
0.5530412727
 40
0.7039640751
 40
0.7696288162
 40
0.8279263068
 40
0.8782983569
 40
0.9202696918
 40
0.953494989
 40
0.9667335601
 40
0.9776924393
 40
0.9863838317
 40
0.9928508901
 40
0.9972260039
 40
1.0
 40
1.0
 40
1.0
 40
1.0
 10
19.8898846398
 20
61.5485196455
 30
0.0
 10
19.792318956
 20
61.5485196455
 30
0.0
 10
19.6008673634
 20
61.5494857721
 30
0.0
 10
19.3229737501
 20
61.5537332333
 30
0.0
 10
19.0668618143
 20
61.5606093123
 30
0.0
 10
18.871701045
 20
61.5685677877
 30
0.0
 10
18.7337764355
 20
61.5762997282
 30
0.0
 10
18.6463695662
 20
61.5822748425
 30
0.0
 10
18.5709290695
 20
61.5886198015
 30
0.0
 10
18.5081746453
 20
61.5952759647
 30
0.0
 10
18.4641317926
 20
61.6013354404
 30
0.0
 10
18.435737421
 20
61.6065115169
 30
0.0
 10
18.4196073045
 20
61.6101414315
 30
0.0
 10
18.4069702659
 20
61.6137211158
 30
0.0
 10
18.3978309943
 20
61.6174016391
 30
0.0
 10
18.3918933044
 20
61.620808435
 30
0.0
 10
18.3897506604
 20
61.6241769932
 30
0.0
 10
18.3897506604
 20
61.6255710136
 30
0.0
  0
ENDSEC
  0
SECTION
  2
OBJECTS
  0
DICTIONARY
  5
C
100
AcDbDictionary
280
0
281
1
  3
ACAD_GROUP
350
D
  3
ACAD_MLINESTYLE
350
17
  3
ACAD_LAYOUT
350
1A
  3
ACAD_PLOTSETTINGS
350
19
  3
ACAD_PLOTSTYLENAME
350
E
  0
DICTIONARY
  5
D
102
{ACAD_REACTORS
330
C
102
}
100
AcDbDictionary
280
0
281
1
  0
ACDBDICTIONARYWDFLT
  5
E
102
{ACAD_REACTORS
330
C
102
}
100
AcDbDictionary
281
1
  3
Normal
350
F
100
AcDbDictionaryWithDefault
340
F
  0
DICTIONARY
  5
17
102
{ACAD_REACTORS
330
C
102
}
100
AcDbDictionary
280
0
281
1
  3
Standard
350
18
  0
DICTIONARY
  5
19
102
{ACAD_REACTORS
330
C
102
}
100
AcDbDictionary
281
1
  0
DICTIONARY
  5
1A
102
{ACAD_REACTORS
330
C
102
}
100
AcDbDictionary
281
1
  3
Model
350
28D
  3
Layout1
350
28E
  0
ACDBPLACEHOLDER
  5
F
102
{ACAD_REACTORS
330
E
102
}
  0
MLINESTYLE
  5
18
102
{ACAD_REACTORS
330
17
102
}
100
AcDbMlineStyle
  2
STANDARD
 70
0
  3

 62
256
 51
90.0
 52
90.0
 71
2
 49
0.5
 62
256
  6
BYLAYER
 49
-0.5
 62
256
  6
BYLAYER
  0
LAYOUT
  5
28D
102
{ACAD_REACTORS
330
1A
102
}
100
AcDbPlotSettings
  1

  2
none_device
  4

  6

 40
0.0
 41
0.0
 42
0.0
 43
0.0
 44
210.0
 45
297.0
 46
0.0
 47
0.0
 48
0.0
 49
0.0
140
0.0
141
0.0
142
1.0
143
1.0
 70
1024
 72
1
 73
0
 74
0
  7

 75
0
147
1.0
148
0.0
149
0.0
100
AcDbLayout
  1
Model
 70
0
 71
0
 10
0.0
 20
0.0
 11
210.0
 21
297.0
 12
0.0
 22
0.0
 32
0.0
 14
0.0
 24
0.0
 34
0.0
 15
0.0
 25
0.0
 35
0.0
146
0.0
 13
0.0
 23
0.0
 33
0.0
 16
1.0
 26
0.0
 36
0.0
 17
0.0
 27
1.0
 37
0.0
 76
0
330
210
345
0
346
0
  0
LAYOUT
  5
28E
102
{ACAD_REACTORS
330
1A
102
}
100
AcDbPlotSettings
  1

  2
none_device
  4

  6

 40
0.0
 41
0.0
 42
0.0
 43
0.0
 44
210.0
 45
297.0
 46
0.0
 47
0.0
 48
0.0
 49
0.0
140
0.0
141
0.0
142
1.0
143
1.0
 70
0
 72
1
 73
0
 74
0
  7

 75
0
147
1.0
148
0.0
149
0.0
100
AcDbLayout
  1
Layout1
 70
0
 71
1
 10
0.0
 20
0.0
 11
210.0
 21
297.0
 12
0.0
 22
0.0
 32
0.0
 14
0.0
 24
0.0
 34
0.0
 15
0.0
 25
0.0
 35
0.0
146
0.0
 13
0.0
 23
0.0
 33
0.0
 16
1.0
 26
0.0
 36
0.0
 17
0.0
 27
1.0
 37
0.0
 76
0
330
211
345
0
346
0
  0
ENDSEC
  0
EOF
