999
DXF file: C:\Users\sesa63760\Dev\_Creo\CAD\MCADID0004137_3D-CAD\drw0001_1.dxf
999
Pro/ENGINEER 2019471 by Parametric Technology Corporation
  0
SECTION
  2
HEADER
  9
$ACADVER
  1
AC1024
  9
$DWGCODEPAGE
  3
ANSI_1252
  9
$EXTMAX
 10
60.9295140285
 20
86.1717412688
 30
0.0
  9
$EXTMIN
 10
0.0
 20
0.0
 30
0.0
  9
$LIMMIN
 10
0.0
 20
0.0
  9
$LIMMAX
 10
60.9295140285
 20
86.1717412688
  9
$VIEWCTR
 10
30.4647570142
 20
43.0858706344
  9
$VIEWSIZE
 40
86.1717412688
  9
$CLAYER
  8
0
  9
$LTSCALE
 40
5.6171209123
  9
$CELTYPE
  6
BYLAYER
  9
$DIMSCALE
 40
1.0
  9
$DIMASZ
 40
0.7253513575
  9
$DIMEXO
 40
1.0
  9
$DIMDLI
 40
3.8809199031
  9
$DIMEXE
 40
1.0
  9
$DIMCEN
 40
0.9191652402
  9
$DIMLFAC
 40
1.0
  9
$DIMBLK
  1
_FILLED
  9
$DIMALT
 70
0
  9
$DIMALTF
 40
0.0393700787
  9
$DIMTXT
 40
1.0154919005
  9
$DIMTOL
 70
1
  9
$DIMLIM
 70
0
  9
$DIMTFAC
 40
1.0
  9
$DIMTP
 40
0.01
  9
$DIMTM
 40
0.01
  9
$DIMGAP
 40
0.625
  9
$DIMDSEP
 70
46
  9
$AUNITS
 70
0
  9
$PDMODE
 70
3
  9
$PDSIZE
 40
0.3125
  9
$HANDSEED
  5
307
  9
$TILEMODE
 70
1
  9
$MEASUREMENT
 70
1
  9
$INSUNITS
 70
4
  0
ENDSEC
  0
SECTION
  2
CLASSES
  0
CLASS
  1
ACDBDICTIONARYWDFLT
  2
AcDbDictionaryWithDefault
  3
AutoCAD 2000
 90
0
 91
1
280
0
281
0
  0
CLASS
  1
ACDBPLACEHOLDER
  2
AcDbPlaceHolder
  3
AutoCAD 2000
 90
0
 91
1
280
0
281
0
  0
CLASS
  1
LAYOUT
  2
AcDbLayout
  3
AutoCAD 2000
 90
0
 91
0
280
0
281
0
  0
ENDSEC
  0
SECTION
  2
TABLES
  0
TABLE
  2
VPORT
  5
8
100
AcDbSymbolTable
 70
2
  0
VPORT
  5
1F4
100
AcDbSymbolTableRecord
100
AcDbViewportTableRecord
  2
*ACTIVE
 70
0
 10
0.0
 20
0.0
 11
1.0
 21
1.0
 12
30.4647570142
 22
43.0858706344
 13
0.0
 23
0.0
 14
1.0
 24
1.0
 15
0.0
 25
0.0
 16
0.0
 26
0.0
 36
1.0
 17
0.0
 27
0.0
 37
0.0
 40
86.1717412688
 41
0.7070707071
 42
50.0
 43
0.0
 44
0.0
 50
0.0
 51
0.0
 71
0
 72
100
 73
1
 74
1
 75
0
 76
0
 77
0
 78
0
  0
ENDTAB
  0
TABLE
  2
LTYPE
  5
5
100
AcDbSymbolTable
 70
6
  0
LTYPE
  5
14
100
AcDbSymbolTableRecord
100
AcDbLinetypeTableRecord
  2
BYBLOCK
 70
0
  3

 72
65
 73
0
 40
0.0
  0
LTYPE
  5
15
100
AcDbSymbolTableRecord
100
AcDbLinetypeTableRecord
  2
BYLAYER
 70
0
  3

 72
65
 73
0
 40
0.0
  0
LTYPE
  5
16
100
AcDbSymbolTableRecord
100
AcDbLinetypeTableRecord
  2
CONTINUOUS
 70
64
  3
Solid line
 72
65
 73
0
 40
0.0
  0
LTYPE
  5
1F5
100
AcDbSymbolTableRecord
100
AcDbLinetypeTableRecord
  2
CENTER
 70
64
  3
____ _ ____ _ ____ _ ____ _ ____ _ ____ _ ____
 72
65
 73
4
 40
0.6
 49
0.375
 74
0
 49
-0.075
 74
0
 49
0.075
 74
0
 49
-0.075
 74
0
  0
LTYPE
  5
1F6
100
AcDbSymbolTableRecord
100
AcDbLinetypeTableRecord
  2
HIDDEN
 70
64
  3
- - - - - - - - - - - - - - - - - - - -
 72
65
 73
2
 40
0.2
 49
0.1
 74
0
 49
-0.1
 74
0
  0
LTYPE
  5
1F7
100
AcDbSymbolTableRecord
100
AcDbLinetypeTableRecord
  2
PHANTOM
 70
64
  3
_____ _ _ _____ _ _ _____ _ _ _____
 72
65
 73
6
 40
0.8
 49
0.45
 74
0
 49
-0.05
 74
0
 49
0.1
 74
0
 49
-0.05
 74
0
 49
0.1
 74
0
 49
-0.05
 74
0
  0
LTYPE
  5
1F8
100
AcDbSymbolTableRecord
100
AcDbLinetypeTableRecord
  2
DOT
 70
64
  3
. . . . . . . . . . . . . . . . . . . .
 72
65
 73
2
 40
0.2
 49
0.1
 74
0
 49
-0.1
 74
0
  0
LTYPE
  5
1F9
100
AcDbSymbolTableRecord
100
AcDbLinetypeTableRecord
  2
DASHED
 70
64
  3
- - - - - - - - - - - - - - - - - - - -
 72
65
 73
2
 40
0.2
 49
0.1
 74
0
 49
-0.1
 74
0
  0
ENDTAB
  0
TABLE
  2
LAYER
  5
2
100
AcDbSymbolTable
 70
36
  0
LAYER
  5
10
100
AcDbSymbolTableRecord
100
AcDbLayerTableRecord
  2
0
 70
0
 62
7
  6
CONTINUOUS
370
-3
390
F
  0
LAYER
  5
1FA
100
AcDbSymbolTableRecord
100
AcDbLayerTableRecord
  2
DEFAULT_1
 70
0
 62
7
  6
CENTER
370
-3
390
F
  0
LAYER
  5
1FB
100
AcDbSymbolTableRecord
100
AcDbLayerTableRecord
  2
DEFAULT_2
 70
0
 62
7
  6
HIDDEN
370
-3
390
F
  0
LAYER
  5
1FC
100
AcDbSymbolTableRecord
100
AcDbLayerTableRecord
  2
DEFAULT_3
 70
0
 62
7
  6
PHANTOM
370
-3
390
F
  0
LAYER
  5
1FD
100
AcDbSymbolTableRecord
100
AcDbLayerTableRecord
  2
00_COMPONENTS
 70
0
 62
7
  6
CONTINUOUS
370
-3
390
F
  0
LAYER
  5
1FE
100
AcDbSymbolTableRecord
100
AcDbLayerTableRecord
  2
01_1_DEFAULT_DATUMS
 70
0
 62
7
  6
CONTINUOUS
370
-3
390
F
  0
LAYER
  5
1FF
100
AcDbSymbolTableRecord
100
AcDbLayerTableRecord
  2
01_PLANES
 70
0
 62
7
  6
CONTINUOUS
370
-3
390
F
  0
LAYER
  5
200
100
AcDbSymbolTableRecord
100
AcDbLayerTableRecord
  2
02_COORD_SYS
 70
0
 62
7
  6
CONTINUOUS
370
-3
390
F
  0
LAYER
  5
201
100
AcDbSymbolTableRecord
100
AcDbLayerTableRecord
  2
03_AXES
 70
0
 62
7
  6
CONTINUOUS
370
-3
390
F
  0
LAYER
  5
202
100
AcDbSymbolTableRecord
100
AcDbLayerTableRecord
  2
04_POINTS
 70
0
 62
7
  6
CONTINUOUS
370
-3
390
F
  0
LAYER
  5
203
100
AcDbSymbolTableRecord
100
AcDbLayerTableRecord
  2
05_CURVES
 70
0
 62
7
  6
CONTINUOUS
370
-3
390
F
  0
LAYER
  5
204
100
AcDbSymbolTableRecord
100
AcDbLayerTableRecord
  2
06_SURFS
 70
0
 62
7
  6
CONTINUOUS
370
-3
390
F
  0
LAYER
  5
205
100
AcDbSymbolTableRecord
100
AcDbLayerTableRecord
  2
07_COSMETICS
 70
0
 62
7
  6
CONTINUOUS
370
-3
390
F
  0
LAYER
  5
206
100
AcDbSymbolTableRecord
100
AcDbLayerTableRecord
  2
10_NOTES
 70
0
 62
7
  6
CONTINUOUS
370
-3
390
F
  0
LAYER
  5
207
100
AcDbSymbolTableRecord
100
AcDbLayerTableRecord
  2
11_NOTES_PUB
 70
0
 62
7
  6
CONTINUOUS
370
-3
390
F
  0
LAYER
  5
208
100
AcDbSymbolTableRecord
100
AcDbLayerTableRecord
  2
13_REF_GTOL
 70
0
 62
7
  6
CONTINUOUS
370
-3
390
F
  0
LAYER
  5
209
100
AcDbSymbolTableRecord
100
AcDbLayerTableRecord
  2
16_MISC
 70
0
 62
7
  6
CONTINUOUS
370
-3
390
F
  0
LAYER
  5
20A
100
AcDbSymbolTableRecord
100
AcDbLayerTableRecord
  2
17_NO_PRINT
 70
0
 62
7
  6
CONTINUOUS
370
-3
390
F
  0
LAYER
  5
20B
100
AcDbSymbolTableRecord
100
AcDbLayerTableRecord
  2
18_DATUM_CAMS_JOINTS
 70
0
 62
7
  6
CONTINUOUS
370
-3
390
F
  0
LAYER
  5
20C
100
AcDbSymbolTableRecord
100
AcDbLayerTableRecord
  2
19_DATUM_FUNCTIONAL
 70
0
 62
7
  6
CONTINUOUS
370
-3
390
F
  0
LAYER
  5
20D
100
AcDbSymbolTableRecord
100
AcDbLayerTableRecord
  2
20_DATUM_KINEMATIC_SCHEME
 70
0
 62
7
  6
CONTINUOUS
370
-3
390
F
  0
ENDTAB
  0
TABLE
  2
STYLE
  5
3
100
AcDbSymbolTable
 70
1
  0
STYLE
  5
11
100
AcDbSymbolTableRecord
100
AcDbTextStyleTableRecord
  2
STANDARD
 70
0
 40
0.0
 41
1.0
 50
0.0
 71
0
 42
0.2
  3
ARIAL.TTF
  4

  0
STYLE
  5
20E
100
AcDbSymbolTableRecord
100
AcDbTextStyleTableRecord
  2
TEXTSTYLE_1
 70
0
 40
0.0
 41
0.8
 50
0.0
 71
0
 42
0.2
  3
gdt
  4

  0
ENDTAB
  0
TABLE
  2
VIEW
  5
6
100
AcDbSymbolTable
 70
0
  0
ENDTAB
  0
TABLE
  2
UCS
  5
7
100
AcDbSymbolTable
 70
0
  0
ENDTAB
  0
TABLE
  2
APPID
  5
9
100
AcDbSymbolTable
 70
1
  0
APPID
  5
20F
100
AcDbSymbolTableRecord
100
AcDbRegAppTableRecord
  2
ACAD
 70
0
  0
ENDTAB
  0
TABLE
  2
BLOCK_RECORD
  5
1
100
AcDbSymbolTable
 70
0
  0
BLOCK_RECORD
  5
210
100
AcDbSymbolTableRecord
100
AcDbBlockTableRecord
  2
*Model_Space
  0
BLOCK_RECORD
  5
211
100
AcDbSymbolTableRecord
100
AcDbBlockTableRecord
  2
*Paper_Space
  0
BLOCK_RECORD
  5
212
100
AcDbSymbolTableRecord
100
AcDbBlockTableRecord
  2
_FILLED
  0
ENDTAB
  0
TABLE
  2
DIMSTYLE
  5
A
100
AcDbSymbolTable
 70
1
100
AcDbDimStyleTable
 71
0
  0
DIMSTYLE
105
213
100
AcDbSymbolTableRecord
100
AcDbDimStyleTableRecord
  2
STANDARD
 70
0
  3

  4

 40
1.0
 41
0.7253513575
 42
1.0
 43
0.38
 44
1.0
 45
0.0
 46
0.0
 47
0.01
 48
0.01
140
1.0154919005
141
0.09
142
0.0
143
25.4
144
1.0
145
0.0
146
1.0
147
0.625
 71
1
 72
0
 73
0
 74
0
 75
0
 76
0
 77
1
 78
8
 79
2
170
0
171
1
172
0
173
0
174
0
175
0
176
0
177
0
178
0
270
2
179
2
271
2
272
2
273
2
274
2
275
0
280
0
281
0
282
0
283
1
284
8
285
0
286
0
287
3
288
0
340
11
278
46
341
212
342
212
343
212
344
212
  0
ENDTAB
  0
ENDSEC
  0
SECTION
  2
BLOCKS
  0
BLOCK
  5
20
100
AcDbEntity
  8
0
100
AcDbBlockBegin
  2
*Model_Space
 70
0
 10
0.0
 20
0.0
 30
0.0
  3
*Model_Space
  1

  0
ENDBLK
  5
21
100
AcDbEntity
  8
0
100
AcDbBlockEnd
  0
BLOCK
  5
1C
100
AcDbEntity
  8
0
100
AcDbBlockBegin
  2
*Paper_Space
 70
0
 10
0.0
 20
0.0
 30
0.0
  3
*Paper_Space
  1

  0
ENDBLK
  5
1D
100
AcDbEntity
  8
0
100
AcDbBlockEnd
  0
BLOCK
  5
214
100
AcDbEntity
  8
0
100
AcDbBlockBegin
  2
_FILLED
 70
64
 10
0.0
 20
0.0
  3
_FILLED
  1

  0
SOLID
  5
215
100
AcDbEntity
  8
0
  6
BYBLOCK
 62
0
100
AcDbTrace
 10
0.0
 20
0.0
 11
-1.0
 21
0.25
 12
-1.0
 22
-0.25
 13
-1.0
 23
-0.25
  0
ENDBLK
  5
216
100
AcDbEntity
  8
0
  6
BYBLOCK
 62
0
100
AcDbBlockEnd
  0
ENDSEC
  0
SECTION
  2
ENTITIES
  0
LINE
  5
217
100
AcDbEntity
  8
0
100
AcDbLine
 62
7
  6
BYLAYER
 10
20.2036965788
 20
9.9146531211
 11
7.4758982475
 21
17.2628846747
  0
LINE
  5
218
100
AcDbEntity
  8
0
100
AcDbLine
 62
7
  6
BYLAYER
 10
19.2209454746
 20
11.5573183218
 11
7.2149990351
 21
18.4887979195
  0
LINE
  5
219
100
AcDbEntity
  8
0
100
AcDbLine
 62
7
  6
BYLAYER
 10
8.9760210137
 20
19.0526041687
 11
17.4613377155
 21
14.1537151144
  0
LINE
  5
21A
100
AcDbEntity
  8
0
100
AcDbLine
 62
7
  6
BYLAYER
 10
20.9615008265
 20
14.6231664573
 11
20.8135751188
 21
14.7085694723
  0
LINE
  5
21B
100
AcDbEntity
  8
0
100
AcDbLine
 62
7
  6
BYLAYER
 10
17.4613378513
 20
17.0114736528
 11
8.9760211495
 21
21.9103627071
  0
LINE
  5
21C
100
AcDbEntity
  8
0
100
AcDbLine
 62
7
  6
BYLAYER
 10
20.9429820017
 20
15.0420988184
 11
21.3150527451
 21
14.8272885342
  0
LINE
  5
21D
100
AcDbEntity
  8
0
100
AcDbLine
 62
7
  6
BYLAYER
 10
22.76993931
 20
14.431286582
 11
24.9973349443
 21
13.1453282053
  0
LINE
  5
21E
100
AcDbEntity
  8
0
100
AcDbLine
 62
7
  6
BYLAYER
 10
23.4906674047
 20
16.2888691516
 11
25.7180630389
 21
15.0029107749
  0
LINE
  5
21F
100
AcDbEntity
  8
0
100
AcDbLine
 62
7
  6
BYLAYER
 10
8.2440418325
 20
57.6028649565
 11
8.4854546485
 21
57.7597092032
  0
LINE
  5
220
100
AcDbEntity
  8
0
100
AcDbLine
 62
7
  6
BYLAYER
 10
40.9337656285
 20
76.493638453
 11
41.0676132463
 21
76.5534496283
  0
LINE
  5
221
100
AcDbEntity
  8
0
100
AcDbLine
 62
7
  6
BYLAYER
 10
25.9405317065
 20
15.1651773042
 11
23.7131360722
 21
16.4511356809
  0
LINE
  5
222
100
AcDbEntity
  8
0
100
AcDbLine
 62
7
  6
BYLAYER
 10
25.911227687
 20
17.4808755344
 11
24.4616462613
 21
18.3177728275
  0
LINE
  5
223
100
AcDbEntity
  8
0
100
AcDbLine
 62
7
  6
BYLAYER
 10
25.740540498
 20
17.9138100271
 11
24.4586161012
 21
18.6539126793
  0
LINE
  5
224
100
AcDbEntity
  8
0
100
AcDbLine
 62
7
  6
BYLAYER
 10
25.7180631481
 20
17.9346585821
 11
24.4654331562
 21
18.6578484843
  0
LINE
  5
225
100
AcDbEntity
  8
0
100
AcDbLine
 62
7
  6
BYLAYER
 10
21.7340098957
 20
11.2612578564
 11
20.2791233308
 21
13.3310897637
  0
LINE
  5
226
100
AcDbEntity
  8
0
100
AcDbLine
 62
7
  6
BYLAYER
 10
7.0684736776
 20
17.8583994125
 11
7.0684736776
 21
55.4294723571
  0
LINE
  5
227
100
AcDbEntity
  8
0
100
AcDbLine
 62
7
  6
BYLAYER
 10
7.2150001351
 20
54.4358950529
 11
7.2149990351
 21
18.4887979195
  0
LINE
  5
228
100
AcDbEntity
  8
0
100
AcDbLine
 62
7
  6
BYLAYER
 10
8.9760211495
 20
21.9103627071
 11
8.9760210621
 21
19.0526042897
  0
LINE
  5
229
100
AcDbEntity
  8
0
100
AcDbLine
 62
7
  6
BYLAYER
 10
40.9337118381
 20
76.4936074023
 11
36.1292503101
 21
73.7197668034
  0
LINE
  5
22A
100
AcDbEntity
  8
0
100
AcDbLine
 62
7
  6
BYLAYER
 10
35.8769929687
 20
73.5741268288
 11
8.4854462536
 21
57.7597043587
  0
LINE
  5
22B
100
AcDbEntity
  8
0
100
AcDbLine
 62
7
  6
BYLAYER
 10
9.2975055606
 20
58.1325361362
 11
35.8139082144
 21
73.4416884072
  0
LINE
  5
22C
100
AcDbEntity
  8
0
100
AcDbLine
 62
7
  6
BYLAYER
 10
36.3088795722
 20
73.7274600818
 11
40.4808725939
 21
76.1361463751
  0
LINE
  5
22D
100
AcDbEntity
  8
0
100
AcDbLine
 62
7
  6
BYLAYER
 10
26.997436705
 20
20.1196926888
 11
28.7396430358
 21
19.1138521498
  0
LINE
  5
22E
100
AcDbEntity
  8
0
100
AcDbLine
 62
7
  6
BYLAYER
 10
30.1945296008
 20
18.7178501976
 11
32.421925235
 21
17.4318918209
  0
LINE
  5
22F
100
AcDbEntity
  8
0
100
AcDbLine
 62
7
  6
BYLAYER
 10
25.9630086616
 20
15.1443293519
 11
25.9404577041
 21
15.1650501223
  0
LINE
  5
230
100
AcDbEntity
  8
0
100
AcDbLine
 62
7
  6
BYLAYER
 10
25.7180631481
 20
17.9346585821
 11
25.740614499
 21
17.9139372067
  0
LINE
  5
231
100
AcDbEntity
  8
0
100
AcDbLine
 62
7
  6
BYLAYER
 10
36.1292531904
 20
73.7197618182
 11
36.0757879759
 21
73.671435168
  0
LINE
  5
232
100
AcDbEntity
  8
0
100
AcDbLine
 62
7
  6
BYLAYER
 10
30.9152578046
 20
20.5754321894
 11
33.1426534388
 21
19.2894738127
  0
LINE
  5
233
100
AcDbEntity
  8
0
100
AcDbLine
 62
7
  6
BYLAYER
 10
33.365121763
 20
19.4517409744
 11
31.1377261288
 21
20.7376993511
  0
LINE
  5
234
100
AcDbEntity
  8
0
100
AcDbLine
 62
7
  6
BYLAYER
 10
26.6837367562
 20
14.1189669335
 11
25.9630086616
 21
15.1443293519
  0
LINE
  5
235
100
AcDbEntity
  8
0
100
AcDbLine
 62
7
  6
BYLAYER
 10
24.9948750937
 20
18.9635201049
 11
25.7180631481
 21
17.9346585821
  0
LINE
  5
236
100
AcDbEntity
  8
0
100
AcDbLine
 62
7
  6
BYLAYER
 10
36.5288044117
 20
66.5588386802
 11
38.1935846322
 21
67.5199942259
  0
LINE
  5
237
100
AcDbEntity
  8
0
100
AcDbLine
 62
7
  6
BYLAYER
 10
38.5896089033
 20
67.7486375974
 11
40.2544430826
 21
68.7098243305
  0
LINE
  5
238
100
AcDbEntity
  8
0
100
AcDbLine
 62
7
  6
BYLAYER
 10
33.1631126038
 20
22.2000914018
 11
31.8819528766
 21
22.9397525818
  0
LINE
  5
239
100
AcDbEntity
  8
0
100
AcDbLine
 62
7
  6
BYLAYER
 10
33.1406352048
 20
22.2209400358
 11
31.8887699754
 21
22.9436884122
  0
LINE
  5
23A
100
AcDbEntity
  8
0
100
AcDbLine
 62
7
  6
BYLAYER
 10
34.7907045427
 20
21.3714371978
 11
37.0181001769
 21
20.0854788211
  0
LINE
  5
23B
100
AcDbEntity
  8
0
100
AcDbLine
 62
7
  6
BYLAYER
 10
17.4613377638
 20
14.1537152354
 11
17.4613378513
 21
17.0114736528
  0
LINE
  5
23C
100
AcDbEntity
  8
0
100
AcDbLine
 62
7
  6
BYLAYER
 10
33.3875991129
 20
19.4308924194
 11
33.365047762
 21
19.4516137948
  0
LINE
  5
23D
100
AcDbEntity
  8
0
100
AcDbLine
 62
7
  6
BYLAYER
 10
33.1406352048
 20
22.2209400358
 11
33.1631866045
 21
22.2002185809
  0
LINE
  5
23E
100
AcDbEntity
  8
0
100
AcDbLine
 62
7
  6
BYLAYER
 10
19.2209454746
 20
11.5573183218
 11
19.2209465745
 21
47.5044154552
  0
LINE
  5
23F
100
AcDbEntity
  8
0
100
AcDbLine
 62
7
  6
BYLAYER
 10
19.2280176137
 20
47.7083203802
 11
19.2280176137
 21
11.2934745109
  0
LINE
  5
240
100
AcDbEntity
  8
0
100
AcDbLine
 62
7
  6
BYLAYER
 10
19.9432898479
 20
10.1295784854
 11
19.9432898479
 21
48.8700182286
  0
LINE
  5
241
100
AcDbEntity
  8
0
100
AcDbLine
 62
7
  6
BYLAYER
 10
8.9760210621
 20
19.0526042897
 11
9.904103763
 21
21.3745460821
  0
LINE
  5
242
100
AcDbEntity
  8
0
100
AcDbLine
 62
7
  6
BYLAYER
 10
52.5657481656
 20
69.1590980525
 11
48.3937551439
 21
66.7504117593
  0
LINE
  5
243
100
AcDbEntity
  8
0
100
AcDbLine
 62
7
  6
BYLAYER
 10
47.8987811289
 20
66.4646416188
 11
21.3823970749
 21
51.1554786094
  0
LINE
  5
244
100
AcDbEntity
  8
0
100
AcDbLine
 62
7
  6
BYLAYER
 10
20.7950092268
 20
50.3562782256
 11
48.4312199688
 21
66.3119566944
  0
LINE
  5
245
100
AcDbEntity
  8
0
100
AcDbLine
 62
7
  6
BYLAYER
 10
48.6270276397
 20
66.425005631
 11
53.6191249156
 21
69.3071771328
  0
LINE
  5
246
100
AcDbEntity
  8
0
100
AcDbLine
 62
7
  6
BYLAYER
 10
20.4656748577
 20
49.7942201301
 11
48.5738746902
 21
66.0224000006
  0
LINE
  5
247
100
AcDbEntity
  8
0
100
AcDbLine
 62
7
  6
BYLAYER
 10
48.7153449841
 20
66.1040774253
 11
54.1256489231
 21
69.2276992154
  0
LINE
  5
248
100
AcDbEntity
  8
0
100
AcDbLine
 62
7
  6
BYLAYER
 10
36.2455911076
 20
25.121217377
 11
38.4729867419
 21
23.8352590003
  0
LINE
  5
249
100
AcDbEntity
  8
0
100
AcDbLine
 62
7
  6
BYLAYER
 10
34.108327047
 20
18.4055305492
 11
33.3875991129
 21
19.4308924194
  0
LINE
  5
24A
100
AcDbEntity
  8
0
100
AcDbLine
 62
7
  6
BYLAYER
 10
52.942737676
 20
67.788829117
 11
50.0033622225
 21
66.0917900377
  0
LINE
  5
24B
100
AcDbEntity
  8
0
100
AcDbLine
 62
7
  6
BYLAYER
 10
41.7138796619
 20
59.5830638633
 11
48.157094832
 21
63.3030333254
  0
LINE
  5
24C
100
AcDbEntity
  8
0
100
AcDbLine
 62
7
  6
BYLAYER
 10
48.1938103422
 20
63.2425806668
 11
41.7151139215
 21
59.5021258719
  0
LINE
  5
24D
100
AcDbEntity
  8
0
100
AcDbLine
 62
7
  6
BYLAYER
 10
32.4178889854
 20
23.2491735915
 11
33.1406352048
 21
22.2209400358
  0
LINE
  5
24E
100
AcDbEntity
  8
0
100
AcDbLine
 62
7
  6
BYLAYER
 10
50.7153420418
 20
63.1959700904
 11
48.7174076836
 21
62.0424690364
  0
LINE
  5
24F
100
AcDbEntity
  8
0
100
AcDbLine
 62
7
  6
BYLAYER
 10
50.0033622225
 20
60.2129726343
 11
52.942737676
 21
61.9100117137
  0
LINE
  5
250
100
AcDbEntity
  8
0
100
AcDbLine
 62
7
  6
BYLAYER
 10
36.2455911076
 20
25.121217377
 11
36.0766590816
 21
25.3615528823
  0
LINE
  5
251
100
AcDbEntity
  8
0
100
AcDbLine
 62
7
  6
BYLAYER
 10
37.0181001769
 20
25.9050909076
 11
38.4729867419
 21
23.8352590003
  0
LINE
  5
252
100
AcDbEntity
  8
0
100
AcDbLine
 62
7
  6
BYLAYER
 10
7.2150001351
 20
54.4358950529
 11
19.2209465745
 21
47.5044154552
  0
LINE
  5
253
100
AcDbEntity
  8
0
100
AcDbLine
 62
7
  6
BYLAYER
 10
20.2791233308
 20
13.3310897637
 11
21.7340098957
 21
17.0808699429
  0
LINE
  5
254
100
AcDbEntity
  8
0
100
AcDbLine
 62
7
  6
BYLAYER
 10
22.76993931
 20
14.431286582
 11
23.4906674047
 21
16.2888691516
  0
LINE
  5
255
100
AcDbEntity
  8
0
100
AcDbLine
 62
7
  6
BYLAYER
 10
21.3823970749
 20
51.1554786094
 11
9.2975055606
 21
58.1325361362
  0
LINE
  5
256
100
AcDbEntity
  8
0
100
AcDbLine
 62
7
  6
BYLAYER
 10
35.874416641
 20
66.7986241178
 11
35.874416641
 21
67.191633059
  0
LINE
  5
257
100
AcDbEntity
  8
0
100
AcDbLine
 62
7
  6
BYLAYER
 10
25.9630088222
 20
18.0760771888
 11
26.6861966068
 21
19.939999207
  0
LINE
  5
258
100
AcDbEntity
  8
0
100
AcDbLine
 62
7
  6
BYLAYER
 10
25.7180630389
 20
15.0029107749
 11
24.9973349443
 21
13.1453282053
  0
LINE
  5
259
100
AcDbEntity
  8
0
100
AcDbLine
 62
7
  6
BYLAYER
 10
37.9022753547
 20
68.2708175444
 11
37.9022753547
 21
68.6271059818
  0
LINE
  5
25A
100
AcDbEntity
  8
0
100
AcDbLine
 62
7
  6
BYLAYER
 10
38.1935846322
 20
68.145540077
 11
38.1935846322
 21
67.5199942259
  0
LINE
  5
25B
100
AcDbEntity
  8
0
100
AcDbLine
 62
7
  6
BYLAYER
 10
38.5896089033
 20
68.37418044
 11
38.5896089033
 21
67.7486375974
  0
LINE
  5
25C
100
AcDbEntity
  8
0
100
AcDbLine
 62
7
  6
BYLAYER
 10
39.1552504369
 20
68.0475641893
 11
39.1552504369
 21
67.5255214226
  0
LINE
  5
25D
100
AcDbEntity
  8
0
100
AcDbLine
 62
7
  6
BYLAYER
 10
30.1945296008
 20
18.7178501976
 11
30.9152578046
 21
20.5754321894
  0
LINE
  5
25E
100
AcDbEntity
  8
0
100
AcDbLine
 62
7
  6
BYLAYER
 10
41.7151139215
 20
59.5021258719
 11
41.7138796619
 21
59.5830638633
  0
LINE
  5
25F
100
AcDbEntity
  8
0
100
AcDbLine
 62
7
  6
BYLAYER
 10
41.4744183675
 20
66.843843611
 11
41.4744183675
 21
67.191633059
  0
LINE
  5
260
100
AcDbEntity
  8
0
100
AcDbLine
 62
7
  6
BYLAYER
 10
48.5336744958
 20
62.3038617963
 11
50.0033622225
 21
66.0917900377
  0
LINE
  5
261
100
AcDbEntity
  8
0
100
AcDbLine
 62
7
  6
BYLAYER
 10
33.3855807931
 20
22.362358554
 11
34.108327047
 21
24.2251426357
  0
LINE
  5
262
100
AcDbEntity
  8
0
100
AcDbLine
 62
7
  6
BYLAYER
 10
33.1426534388
 20
19.2894738127
 11
32.421925235
 21
17.4318918209
  0
LINE
  5
263
100
AcDbEntity
  8
0
100
AcDbLine
 62
7
  6
BYLAYER
 10
50.7153420418
 20
63.1959700904
 11
52.1850297685
 21
66.9838983318
  0
LINE
  5
264
100
AcDbEntity
  8
0
100
AcDbLine
 62
7
  6
BYLAYER
 10
48.157094832
 20
63.3030333254
 11
48.5739242167
 21
65.339993764
  0
LINE
  5
265
100
AcDbEntity
  8
0
100
AcDbLine
 62
7
  6
BYLAYER
 10
48.7153449841
 20
65.7912144053
 11
48.1938103422
 21
63.2425806668
  0
LINE
  5
266
100
AcDbEntity
  8
0
100
AcDbLine
 62
7
  6
BYLAYER
 10
34.7907045427
 20
21.3714371978
 11
36.2455911076
 21
25.121217377
  0
LINE
  5
267
100
AcDbEntity
  8
0
100
AcDbLine
 62
7
  6
BYLAYER
 10
54.4124254027
 20
65.697939955
 11
52.942737676
 21
61.9100117137
  0
LINE
  5
268
100
AcDbEntity
  8
0
100
AcDbLine
 62
7
  6
BYLAYER
 10
38.4729867419
 20
23.8352590003
 11
37.0181001769
 21
20.0854788211
  0
LINE
  5
269
100
AcDbEntity
  8
0
100
AcDbLine
 62
7
  6
BYLAYER
 10
48.5739242167
 20
65.339993764
 11
48.5738746902
 21
66.0224000006
  0
LINE
  5
26A
100
AcDbEntity
  8
0
100
AcDbLine
 62
7
  6
BYLAYER
 10
48.7153449841
 20
66.1040774253
 11
48.7153449841
 21
65.7912144053
  0
LINE
  5
26B
100
AcDbEntity
  8
0
100
AcDbLine
 62
7
  6
BYLAYER
 10
37.0181001769
 20
25.9050909076
 11
34.108327047
 21
24.2251426357
  0
LINE
  5
26C
100
AcDbEntity
  8
0
100
AcDbLine
 62
7
  6
BYLAYER
 10
32.4178889854
 20
23.2491735915
 11
26.6861966068
 21
19.939999207
  0
LINE
  5
26D
100
AcDbEntity
  8
0
100
AcDbLine
 62
7
  6
BYLAYER
 10
24.9948750937
 20
18.9635201049
 11
21.7340098957
 21
17.0808699429
  0
LINE
  5
26E
100
AcDbEntity
  8
0
100
AcDbLine
 62
7
  6
BYLAYER
 10
44.7449572079
 20
23.802513217
 11
54.6620882551
 21
40.979583408
  0
LINE
  5
26F
100
AcDbEntity
  8
0
100
AcDbLine
 62
7
  6
BYLAYER
 10
20.9615008265
 20
14.6231664573
 11
21.3150527451
 21
14.8272885342
  0
LINE
  5
270
100
AcDbEntity
  8
0
100
AcDbLine
 62
7
  6
BYLAYER
 10
25.911227687
 20
17.4808755344
 11
28.7396430358
 21
19.1138521498
  0
LINE
  5
271
100
AcDbEntity
  8
0
100
AcDbLine
 62
7
  6
BYLAYER
 10
34.7907045427
 20
21.3714371978
 11
32.4153896239
 21
20.000056676
  0
LINE
  5
272
100
AcDbEntity
  8
0
100
AcDbLine
 62
7
  6
BYLAYER
 10
30.1945296008
 20
18.7178501976
 11
24.9907994029
 21
15.7134931007
  0
LINE
  5
273
100
AcDbEntity
  8
0
100
AcDbLine
 62
7
  6
BYLAYER
 10
22.76993931
 20
14.431286582
 11
20.4480553568
 21
13.0907542585
  0
LINE
  5
274
100
AcDbEntity
  8
0
100
AcDbLine
 62
7
  6
BYLAYER
 10
54.6620882551
 20
68.8902909784
 11
54.6620882551
 21
40.979583408
  0
LINE
  5
275
100
AcDbEntity
  8
0
100
AcDbLine
 62
7
  6
BYLAYER
 10
54.8075427629
 20
68.4839889568
 11
54.807291371
 21
41.4567383204
  0
LINE
  5
276
100
AcDbEntity
  8
0
100
AcDbLine
 62
7
  6
BYLAYER
 10
44.3958137986
 20
23.431830909
 11
44.4431451821
 21
23.4622622623
  0
LINE
  5
277
100
AcDbEntity
  8
0
100
AcDbLine
 62
7
  6
BYLAYER
 10
21.7340098957
 20
11.2612578564
 11
24.9973349443
 21
13.1453282053
  0
LINE
  5
278
100
AcDbEntity
  8
0
100
AcDbLine
 62
7
  6
BYLAYER
 10
26.6837367562
 20
14.1189669335
 11
32.421925235
 21
17.4318918209
  0
LINE
  5
279
100
AcDbEntity
  8
0
100
AcDbLine
 62
7
  6
BYLAYER
 10
34.108327047
 20
18.4055305492
 11
37.0181001769
 21
20.0854788211
  0
LINE
  5
27A
100
AcDbEntity
  8
0
100
AcDbLine
 62
7
  6
BYLAYER
 10
44.7449572079
 20
23.802513217
 11
20.495017064
 21
9.8018873195
  0
LINE
  5
27B
100
AcDbEntity
  8
0
100
AcDbLine
 62
7
  6
BYLAYER
 10
44.3959862994
 20
23.4319304065
 11
20.874146261
 21
9.8516707917
  0
LINE
  5
27C
100
AcDbEntity
  8
0
100
AcDbLine
 62
7
  6
BYLAYER
 10
40.2544430826
 20
68.7098243305
 11
40.2295720225
 21
68.7228270942
  0
LINE
  5
27D
100
AcDbEntity
  8
0
100
AcDbLine
 62
7
  6
BYLAYER
 10
38.1935846322
 20
67.9772464031
 11
38.5896089033
 21
67.7486375974
  0
LINE
  5
27E
100
AcDbEntity
  8
0
100
AcDbLine
 62
7
  6
BYLAYER
 10
48.1230981461
 20
63.2834054486
 11
48.1938103422
 21
63.2425806668
  0
LINE
  5
27F
100
AcDbEntity
  8
0
100
AcDbLine
 62
7
  6
BYLAYER
 10
52.942737676
 20
61.9100117137
 11
50.7153420418
 21
63.1959700904
  0
LINE
  5
280
100
AcDbEntity
  8
0
100
AcDbLine
 62
7
  6
BYLAYER
 10
50.0033622225
 20
60.2129726343
 11
48.5336744958
 21
62.3038617963
  0
LINE
  5
281
100
AcDbEntity
  8
0
100
AcDbLine
 62
7
  6
BYLAYER
 10
35.8770787157
 20
73.5741763305
 11
35.8774714919
 21
73.5741798793
  0
LINE
  5
282
100
AcDbEntity
  8
0
100
AcDbLine
 62
7
  6
BYLAYER
 10
48.5738855415
 20
65.8728842049
 11
48.7153449841
 21
65.7912144053
  0
LINE
  5
283
100
AcDbEntity
  8
0
100
AcDbLine
 62
7
  6
BYLAYER
 10
35.8139082144
 20
73.4416884072
 11
47.8987811289
 21
66.4646416188
  0
LINE
  5
284
100
AcDbEntity
  8
0
100
AcDbLine
 62
7
  6
BYLAYER
 10
48.3353697642
 20
66.3816803833
 11
35.8773939083
 21
73.5741333823
  0
LINE
  5
285
100
AcDbEntity
  8
0
100
AcDbLine
 62
7
  6
BYLAYER
 10
36.3088795722
 20
73.7274600818
 11
48.3937551439
 21
66.7504117593
  0
LINE
  5
286
100
AcDbEntity
  8
0
100
AcDbLine
 62
7
  6
BYLAYER
 10
48.4312199688
 20
66.3119566944
 11
48.3353959822
 21
66.3817569484
  0
LINE
  5
287
100
AcDbEntity
  8
0
100
AcDbLine
 62
7
  6
BYLAYER
 10
54.4124254027
 20
65.697939955
 11
52.1850297685
 21
66.9838983318
  0
LINE
  5
288
100
AcDbEntity
  8
0
100
AcDbLine
 62
7
  6
BYLAYER
 10
52.1850297685
 20
66.9838983318
 11
52.0012965807
 21
67.2452910917
  0
LINE
  5
289
100
AcDbEntity
  8
0
100
AcDbLine
 62
7
  6
BYLAYER
 10
52.942737676
 20
67.788829117
 11
54.4124254027
 21
65.697939955
  0
LINE
  5
28A
100
AcDbEntity
  8
0
100
AcDbLine
 62
7
  6
BYLAYER
 10
40.4808725939
 20
76.1361463751
 11
52.5657481656
 21
69.1590980525
  0
LINE
  5
28B
100
AcDbEntity
  8
0
100
AcDbLine
 62
7
  6
BYLAYER
 10
54.3872661524
 20
69.122028369
 11
41.6592925206
 21
76.4703611301
  0
ARC
  5
28C
100
AcDbEntity
  8
0
100
AcDbCircle
 62
7
  6
BYLAYER
 10
42.1554319675
 20
62.6496484474
 40
6.1872340342
100
AcDbArc
 50
129.15608955
 51
129.6526544098
  0
ARC
  5
28D
100
AcDbEntity
  8
0
100
AcDbCircle
 62
7
  6
BYLAYER
 10
24.6752806002
 20
46.8050977755
 40
5.1629093501
100
AcDbArc
 50
144.6225129155
 51
156.4247673156
  0
ARC
  5
28E
100
AcDbEntity
  8
0
100
AcDbCircle
 62
7
  6
BYLAYER
 10
11.9473462789
 20
54.1536715723
 40
5.16280349
100
AcDbArc
 50
144.6249482493
 51
157.0422515116
  0
ARC
  5
28F
100
AcDbEntity
  8
0
100
AcDbCircle
 62
7
  6
BYLAYER
 10
38.6765656972
 20
64.6705447622
 40
4.3474826614
100
AcDbArc
 50
82.1733160354
 51
91.2734070696
  0
ARC
  5
290
100
AcDbEntity
  8
0
100
AcDbCircle
 62
7
  6
BYLAYER
 10
38.6718669899
 20
64.6710569771
 40
4.3468686782
100
AcDbArc
 50
91.2116390535
 51
98.5052736315
  0
ARC
  5
291
100
AcDbEntity
  8
0
100
AcDbCircle
 62
7
  6
BYLAYER
 10
36.4893628826
 20
64.6358976105
 40
3.9015332902
100
AcDbArc
 50
64.0995913628
 51
67.8255336574
  0
ARC
  5
292
100
AcDbEntity
  8
0
100
AcDbCircle
 62
7
  6
BYLAYER
 10
37.8192650089
 20
64.9961672257
 40
3.4303619061
100
AcDbArc
 50
119.4490133058
 51
119.9989867887
  0
ARC
  5
293
100
AcDbEntity
  8
0
100
AcDbCircle
 62
7
  6
BYLAYER
 10
22.2482317516
 20
47.5015101488
 40
3.0272865591
100
AcDbArc
 50
176.0827660668
 51
179.9452522013
  0
ARC
  5
294
100
AcDbEntity
  8
0
100
AcDbCircle
 62
7
  6
BYLAYER
 10
47.6324215689
 20
33.5579713258
 40
3.0
100
AcDbArc
 50
296.743643973
 51
3.256631472
  0
ARC
  5
295
100
AcDbEntity
  8
0
100
AcDbCircle
 62
7
  6
BYLAYER
 10
10.1877457813
 20
54.4348809573
 40
2.9727458149
100
AcDbArc
 50
176.0473201119
 51
179.9806983663
  0
ARC
  5
296
100
AcDbEntity
  8
0
100
AcDbCircle
 62
7
  6
BYLAYER
 10
10.0958202997
 20
18.4288461607
 40
2.8814450145
100
AcDbArc
 50
178.807809757
 51
179.9964260462
  0
ARC
  5
297
100
AcDbEntity
  8
0
100
AcDbCircle
 62
7
  6
BYLAYER
 10
22.1017667391
 20
11.497366563
 40
2.8814450145
100
AcDbArc
 50
178.807809757
 51
179.9964260462
  0
ARC
  5
298
100
AcDbEntity
  8
0
100
AcDbCircle
 62
7
  6
BYLAYER
 10
38.2212252485
 20
66.0901669331
 40
2.8536952248
100
AcDbArc
 50
116.3279781954
 51
118.590963999
  0
ARC
  5
299
100
AcDbEntity
  8
0
100
AcDbCircle
 62
7
  6
BYLAYER
 10
9.9046325803
 20
18.4275450045
 40
2.6902576971
100
AcDbArc
 50
179.9684606744
 51
182.8901723438
  0
ARC
  5
29A
100
AcDbEntity
  8
0
100
AcDbCircle
 62
7
  6
BYLAYER
 10
21.9004511877
 20
11.4964373912
 40
2.6801296869
100
AcDbArc
 50
179.9762937672
 51
184.3430958887
  0
ARC
  5
29B
100
AcDbEntity
  8
0
100
AcDbCircle
 62
7
  6
BYLAYER
 10
38.1128358941
 20
68.6759915479
 40
2.6468957388
100
AcDbArc
 50
240.0221277195
 51
244.1290317625
  0
ARC
  5
29C
100
AcDbEntity
  8
0
100
AcDbCircle
 62
7
  6
BYLAYER
 10
9.7404133978
 20
18.4193579138
 40
2.5258345937
100
AcDbArc
 50
182.8925206389
 51
184.4142017363
  0
ARC
  5
29D
100
AcDbEntity
  8
0
100
AcDbCircle
 62
7
  6
BYLAYER
 10
38.0685823061
 20
66.5051726249
 40
2.4024994047
100
AcDbArc
 50
119.5555266231
 51
119.9992799188
  0
ARC
  5
29E
100
AcDbEntity
  8
0
100
AcDbCircle
 62
7
  6
BYLAYER
 10
39.3658623496
 20
66.4903001999
 40
2.3877233015
100
AcDbArc
 50
54.2070584287
 51
56.9455756639
  0
ARC
  5
29F
100
AcDbEntity
  8
0
100
AcDbCircle
 62
7
  6
BYLAYER
 10
39.369147751
 20
66.49571046
 40
2.3814047559
100
AcDbArc
 50
56.9406815632
 51
60.0357909737
  0
ARC
  5
2A0
100
AcDbEntity
  8
0
100
AcDbCircle
 62
7
  6
BYLAYER
 10
38.0306366968
 20
66.5705016453
 40
2.3269500197
100
AcDbArc
 50
119.9943972155
 51
122.2408597658
  0
ARC
  5
2A1
100
AcDbEntity
  8
0
100
AcDbCircle
 62
7
  6
BYLAYER
 10
39.4059297121
 20
66.5463582819
 40
2.3188188901
100
AcDbArc
 50
53.9285745046
 51
54.1999934061
  0
ARC
  5
2A2
100
AcDbEntity
  8
0
100
AcDbCircle
 62
7
  6
BYLAYER
 10
39.4655510736
 20
66.6434377076
 40
2.2050049468
100
AcDbArc
 50
54.7543436928
 51
56.9461376891
  0
ARC
  5
2A3
100
AcDbEntity
  8
0
100
AcDbCircle
 62
7
  6
BYLAYER
 10
39.5588127344
 20
66.7739685673
 40
2.0445827385
100
AcDbArc
 50
51.9120614551
 51
54.7778342029
  0
ARC
  5
2A4
100
AcDbEntity
  8
0
100
AcDbCircle
 62
7
  6
BYLAYER
 10
40.5405211004
 20
66.4080761814
 40
2.0117237245
100
AcDbArc
 50
84.2473883391
 51
86.2448577582
  0
ARC
  5
2A5
100
AcDbEntity
  8
0
100
AcDbCircle
 62
7
  6
BYLAYER
 10
37.4498172656
 20
67.0551507863
 40
1.6073155034
100
AcDbArc
 50
144.4144483338
 51
145.6506278529
  0
ARC
  5
2A6
100
AcDbEntity
  8
0
100
AcDbCircle
 62
7
  6
BYLAYER
 10
37.8515318956
 20
65.8096836645
 40
0.8670249836
100
AcDbArc
 50
141.5410226471
 51
148.4274089803
  0
ARC
  5
2A7
100
AcDbEntity
  8
0
100
AcDbCircle
 62
7
  6
BYLAYER
 10
37.2735072294
 20
66.1449405847
 40
0.8519940846
100
AcDbArc
 50
141.5062362282
 51
150.9351489955
  0
ARC
  5
2A8
100
AcDbEntity
  8
0
100
AcDbCircle
 62
7
  6
BYLAYER
 10
37.8304817732
 20
65.8214116929
 40
0.842950839
100
AcDbArc
 50
148.3574419717
 51
150.8362080996
  0
ARC
  5
2A9
100
AcDbEntity
  8
0
100
AcDbCircle
 62
7
  6
BYLAYER
 10
48.0258958654
 20
65.8461371903
 40
0.6185280122
100
AcDbArc
 50
58.3373989612
 51
59.9775534631
  0
ARC
  5
2AA
100
AcDbEntity
  8
0
100
AcDbCircle
 62
7
  6
BYLAYER
 10
40.7227096415
 20
68.2162771844
 40
0.194367534
100
AcDbArc
 50
80.436306416
 51
84.2558987795
  0
ARC
  5
2AB
100
AcDbEntity
  8
0
100
AcDbCircle
 62
7
  6
BYLAYER
 10
40.1600767809
 20
68.5585134208
 40
0.1784044869
100
AcDbArc
 50
67.074461115
 51
75.7109362583
  0
ARC
  5
2AC
100
AcDbEntity
  8
0
100
AcDbCircle
 62
7
  6
BYLAYER
 10
40.7289589241
 20
68.2406165515
 40
0.1691645028
100
AcDbArc
 50
57.427825627
 51
66.6470715197
  0
SPLINE
  5
2AD
100
AcDbEntity
  8
0
100
AcDbSpline
 62
7
  6
BYLAYER
 70
0
 71
3
 72
12
 73
8
 74
0
 42
0.0000001
 43
0.0000001
 44
0.0000000001
 40
0.0
 40
0.0
 40
0.0
 40
0.0
 40
0.1081689044
 40
0.2183726817
 40
0.4513297034
 40
0.7105252616
 40
1.0
 40
1.0
 40
1.0
 40
1.0
 10
32.3108401005
 20
21.6659151354
 30
0.0
 10
32.2772303525
 20
21.6853254099
 30
0.0
 10
32.2126328747
 20
21.7304633732
 30
0.0
 10
32.0966913055
 20
21.8444399372
 30
0.0
 10
31.9818502447
 20
22.0316377839
 30
0.0
 10
31.902052525
 20
22.3029384882
 30
0.0
 10
31.8862551114
 20
22.5005022965
 30
0.0
 10
31.8862551114
 20
22.6043685897
 30
0.0
  0
SPLINE
  5
2AE
100
AcDbEntity
  8
0
100
AcDbSpline
 62
7
  6
BYLAYER
 70
0
 71
3
 72
12
 73
8
 74
0
 42
0.0000001
 43
0.0000001
 44
0.0000000001
 40
0.0
 40
0.0
 40
0.0
 40
0.0
 40
0.1081702127
 40
0.2183727686
 40
0.4513235059
 40
0.7105143194
 40
1.0
 40
1.0
 40
1.0
 40
1.0
 10
24.8862501927
 20
17.3793522298
 30
0.0
 10
24.8526374087
 20
17.3987581446
 30
0.0
 10
24.788038142
 20
17.4438952725
 30
0.0
 10
24.6721075823
 20
17.5578793362
 30
0.0
 10
24.5572648255
 20
17.7450686103
 30
0.0
 10
24.4774630302
 20
18.0163689375
 30
0.0
 10
24.4616648207
 20
18.2139348092
 30
0.0
 10
24.4616648207
 20
18.317804974
 30
0.0
  0
SPLINE
  5
2AF
100
AcDbEntity
  8
0
100
AcDbSpline
 62
7
  6
BYLAYER
 70
0
 71
3
 72
13
 73
9
 74
0
 42
0.0000001
 43
0.0000001
 44
0.0000000001
 40
0.0
 40
0.0
 40
0.0
 40
0.0
 40
0.0883297655
 40
0.1847666022
 40
0.2944231465
 40
0.4185327297
 40
0.7004958694
 40
1.0
 40
1.0
 40
1.0
 40
1.0
 10
33.1631316943
 20
22.2001235375
 30
0.0
 10
33.1708576359
 20
22.1956537664
 30
0.0
 10
33.1891244285
 20
22.1896224027
 30
0.0
 10
33.2193384303
 20
22.1912416579
 30
0.0
 10
33.2511736885
 20
22.2022926421
 30
0.0
 10
33.295882227
 20
22.2296522284
 30
0.0
 10
33.345825035
 20
22.2821229152
 30
0.0
 10
33.3746339031
 20
22.3341426888
 30
0.0
 10
33.3855807931
 20
22.362358554
 30
0.0
  0
SPLINE
  5
2B0
100
AcDbEntity
  8
0
100
AcDbSpline
 62
7
  6
BYLAYER
 70
0
 71
3
 72
13
 73
9
 74
0
 42
0.0000001
 43
0.0000001
 44
0.0000000001
 40
0.0
 40
0.0
 40
0.0
 40
0.0
 40
0.0883297706
 40
0.1847666077
 40
0.2944231455
 40
0.418532719
 40
0.7004958445
 40
1.0
 40
1.0
 40
1.0
 40
1.0
 10
25.7405595885
 20
17.9138421627
 30
0.0
 10
25.7482855336
 20
17.9093723899
 30
0.0
 10
25.7665523328
 20
17.903341022
 30
0.0
 10
25.7967663463
 20
17.904960272
 30
0.0
 10
25.828601618
 20
17.9160112521
 30
0.0
 10
25.8733101779
 20
17.9433708363
 30
0.0
 10
25.9232530194
 20
17.9958415298
 30
0.0
 10
25.9520619155
 20
18.0478613148
 30
0.0
 10
25.9630088222
 20
18.0760771888
 30
0.0
  0
SPLINE
  5
2B1
100
AcDbEntity
  8
0
100
AcDbSpline
 62
7
  6
BYLAYER
 70
0
 71
3
 72
10
 73
6
 74
0
 42
0.0000001
 43
0.0000001
 44
0.0000000001
 40
0.0
 40
0.0
 40
0.0
 40
0.0
 40
0.2442927042
 40
0.4938941255
 40
1.0
 40
1.0
 40
1.0
 40
1.0
 10
54.8073537256
 20
41.4567023208
 30
0.0
 10
54.8063929537
 20
41.415767574
 30
0.0
 10
54.7971994521
 20
41.3330837563
 30
0.0
 10
54.7561259676
 20
41.170283526
 30
0.0
 10
54.7037312969
 20
41.0534915158
 30
0.0
 10
54.6613807485
 20
40.97999096
 30
0.0
  0
SPLINE
  5
2B2
100
AcDbEntity
  8
0
100
AcDbSpline
 62
7
  6
BYLAYER
 70
0
 71
3
 72
11
 73
7
 74
0
 42
0.0000001
 43
0.0000001
 44
0.0000000001
 40
0.0
 40
0.0
 40
0.0
 40
0.0
 40
0.270555667
 40
0.5188550814
 40
0.7584779367
 40
1.0
 40
1.0
 40
1.0
 40
1.0
 10
54.6587263535
 20
68.8942345815
 30
0.0
 10
54.6847590013
 20
68.8636079338
 30
0.0
 10
54.7300380413
 20
68.8005861519
 30
0.0
 10
54.7771806507
 20
68.6974736023
 30
0.0
 10
54.8028151628
 20
68.5915639965
 30
0.0
 10
54.8075382373
 20
68.5199113211
 30
0.0
 10
54.8074995071
 20
68.4840291279
 30
0.0
  0
SPLINE
  5
2B3
100
AcDbEntity
  8
0
100
AcDbSpline
 62
7
  6
BYLAYER
 70
0
 71
3
 72
9
 73
5
 74
0
 42
0.0000001
 43
0.0000001
 44
0.0000000001
 40
0.0
 40
0.0
 40
0.0
 40
0.0
 40
0.5050906498
 40
1.0
 40
1.0
 40
1.0
 40
1.0
 10
54.6620882551
 20
68.8902909784
 30
0.0
 10
54.622723977
 20
68.9365665412
 30
0.0
 10
54.5377864788
 20
69.0225895018
 30
0.0
 10
54.4388483181
 20
69.0923138102
 30
0.0
 10
54.3872813554
 20
69.1220547166
 30
0.0
  0
SPLINE
  5
2B4
100
AcDbEntity
  8
0
100
AcDbSpline
 62
7
  6
BYLAYER
 70
0
 71
3
 72
9
 73
5
 74
0
 42
0.0000001
 43
0.0000001
 44
0.0000000001
 40
0.0
 40
0.0
 40
0.0
 40
0.0
 40
0.5002800555
 40
1.0
 40
1.0
 40
1.0
 40
1.0
 10
7.1932010775
 20
56.1667927963
 30
0.0
 10
7.1477552286
 20
56.0501072698
 30
0.0
 10
7.086092609
 20
55.8052045485
 30
0.0
 10
7.0684627327
 20
55.5545544321
 30
0.0
 10
7.0684793741
 20
55.4294714825
 30
0.0
  0
SPLINE
  5
2B5
100
AcDbEntity
  8
0
100
AcDbSpline
 62
7
  6
BYLAYER
 70
0
 71
3
 72
11
 73
7
 74
0
 42
0.0000001
 43
0.0000001
 44
0.0000000001
 40
0.0
 40
0.0
 40
0.0
 40
0.0
 40
0.2434286275
 40
0.4887844503
 40
0.7396382469
 40
1.0
 40
1.0
 40
1.0
 40
1.0
 10
41.4744183675
 20
67.191633059
 30
0.0
 10
41.4744183675
 20
67.3053892802
 30
0.0
 10
41.4430897326
 20
67.5349480628
 30
0.0
 10
41.307699431
 20
67.8566664625
 30
0.0
 10
41.0977717722
 20
68.1445137526
 30
0.0
 10
40.9201653834
 20
68.3065833086
 30
0.0
 10
40.8239446824
 20
68.3810478891
 30
0.0
  0
SPLINE
  5
2B6
100
AcDbEntity
  8
0
100
AcDbSpline
 62
7
  6
BYLAYER
 70
0
 71
3
 72
13
 73
9
 74
0
 42
0.0000001
 43
0.0000001
 44
0.0000000001
 40
0.0
 40
0.0
 40
0.0
 40
0.0
 40
0.2459655227
 40
0.374315794
 40
0.5039697879
 40
0.6330561229
 40
0.7597785519
 40
1.0
 40
1.0
 40
1.0
 40
1.0
 10
40.1813268126
 20
68.7427795897
 30
0.0
 10
39.9296794248
 20
68.8445743207
 30
0.0
 10
39.5264623371
 20
68.9524978857
 30
0.0
 10
38.9735251621
 20
69.016345143
 30
0.0
 10
38.5456803624
 20
69.0244953292
 30
0.0
 10
38.1207644587
 20
68.9919504185
 30
0.0
 10
37.5812703406
 20
68.8968391899
 30
0.0
 10
37.1931914506
 20
68.7654522279
 30
0.0
 10
36.9555860107
 20
68.6478482572
 30
0.0
  0
SPLINE
  5
2B7
100
AcDbEntity
  8
0
100
AcDbSpline
 62
7
  6
BYLAYER
 70
0
 71
3
 72
9
 73
5
 74
0
 42
0.0000001
 43
0.0000001
 44
0.0000000001
 40
0.0
 40
0.0
 40
0.0
 40
0.0
 40
0.5144865259
 40
1.0
 40
1.0
 40
1.0
 40
1.0
 10
36.8555797331
 20
68.5958781618
 30
0.0
 10
36.7138768682
 20
68.5185958111
 30
0.0
 10
36.4506627778
 20
68.3439826152
 30
0.0
 10
36.2313053196
 20
68.1143504382
 30
0.0
 10
36.142671903
 20
67.9904764668
 30
0.0
  0
SPLINE
  5
2B8
100
AcDbEntity
  8
0
100
AcDbSpline
 62
7
  6
BYLAYER
 70
0
 71
3
 72
10
 73
6
 74
0
 42
0.0000001
 43
0.0000001
 44
0.0000000001
 40
0.0
 40
0.0
 40
0.0
 40
0.0
 40
0.5024829151
 40
0.7508794365
 40
1.0
 40
1.0
 40
1.0
 40
1.0
 10
36.1227976653
 20
67.9620587794
 30
0.0
 10
36.0452946797
 20
67.8486478234
 30
0.0
 10
35.9505677072
 20
67.6623869689
 30
0.0
 10
35.8854726431
 20
67.3960252465
 30
0.0
 10
35.874416641
 20
67.2597350692
 30
0.0
 10
35.874416641
 20
67.191633059
 30
0.0
  0
SPLINE
  5
2B9
100
AcDbEntity
  8
0
100
AcDbSpline
 62
7
  6
BYLAYER
 70
0
 71
3
 72
9
 73
5
 74
0
 42
0.0000001
 43
0.0000001
 44
0.0000000001
 40
0.0
 40
0.0
 40
0.0
 40
0.0
 40
0.2530053308
 40
1.0
 40
1.0
 40
1.0
 40
1.0
 10
41.3976738704
 20
76.5760327968
 30
0.0
 10
41.4207843705
 20
76.5701890601
 30
0.0
 10
41.511336693
 20
76.5440828723
 30
0.0
 10
41.5983411209
 20
76.5055528568
 30
0.0
 10
41.659290545
 20
76.4703583539
 30
0.0
  0
SPLINE
  5
2BA
100
AcDbEntity
  8
0
100
AcDbSpline
 62
7
  6
BYLAYER
 70
0
 71
3
 72
11
 73
7
 74
0
 42
0.0000001
 43
0.0000001
 44
0.0000000001
 40
0.0
 40
0.0
 40
0.0
 40
0.0
 40
0.2296265869
 40
0.4683193454
 40
0.7234306404
 40
1.0
 40
1.0
 40
1.0
 40
1.0
 10
42.3093016715
 20
68.1160430541
 30
0.0
 10
42.3093040693
 20
68.0150575028
 30
0.0
 10
42.2830211809
 20
67.8082581261
 30
0.0
 10
42.1671851059
 20
67.5090619305
 30
0.0
 10
41.9790458585
 20
67.2246541409
 30
0.0
 10
41.8156119001
 20
67.0556326918
 30
0.0
 10
41.7247781845
 20
66.9747431243
 30
0.0
  0
SPLINE
  5
2BB
100
AcDbEntity
  8
0
100
AcDbSpline
 62
7
  6
BYLAYER
 70
0
 71
3
 72
9
 73
5
 74
0
 42
0.0000001
 43
0.0000001
 44
0.0000000001
 40
0.0
 40
0.0
 40
0.0
 40
0.0
 40
0.2396151378
 40
1.0
 40
1.0
 40
1.0
 40
1.0
 10
41.7247781845
 20
66.9747431243
 30
0.0
 10
41.6895624954
 20
66.943382722
 30
0.0
 10
41.5387876782
 20
66.8167978901
 30
0.0
 10
41.3742911719
 20
66.7069440769
 30
0.0
 10
41.2446984176
 20
66.6321241012
 30
0.0
  0
SPLINE
  5
2BC
100
AcDbEntity
  8
0
100
AcDbSpline
 62
7
  6
BYLAYER
 70
0
 71
3
 72
11
 73
7
 74
0
 42
0.0000001
 43
0.0000001
 44
0.0000000001
 40
0.0
 40
0.0
 40
0.0
 40
0.0
 40
0.2401986255
 40
0.4806312993
 40
0.7302027477
 40
1.0
 40
1.0
 40
1.0
 40
1.0
 10
7.0684475323
 20
17.8584200143
 30
0.0
 10
7.068460286
 20
17.8280195545
 30
0.0
 10
7.0728031531
 20
17.7670696143
 30
0.0
 10
7.0943925262
 20
17.6767492559
 30
0.0
 10
7.1332163233
 20
17.5882220385
 30
0.0
 10
7.1700188241
 20
17.5333075136
 30
0.0
 10
7.1911606863
 20
17.5064931425
 30
0.0
  0
SPLINE
  5
2BD
100
AcDbEntity
  8
0
100
AcDbSpline
 62
7
  6
BYLAYER
 70
0
 71
3
 72
9
 73
5
 74
0
 42
0.0000001
 43
0.0000001
 44
0.0000000001
 40
0.0
 40
0.0
 40
0.0
 40
0.0
 40
0.4944938799
 40
1.0
 40
1.0
 40
1.0
 40
1.0
 10
7.4759023184
 20
17.2628917234
 30
0.0
 10
7.4221723767
 20
17.293910145
 30
0.0
 10
7.3191812378
 20
17.3669849127
 30
0.0
 10
7.2312987755
 20
17.4575467149
 30
0.0
 10
7.1910825225
 20
17.506587978
 30
0.0
  0
SPLINE
  5
2BE
100
AcDbEntity
  8
0
100
AcDbSpline
 62
7
  6
BYLAYER
 70
0
 71
3
 72
9
 73
5
 74
0
 42
0.0000001
 43
0.0000001
 44
0.0000000001
 40
0.0
 40
0.0
 40
0.0
 40
0.0
 40
0.2479229472
 40
1.0
 40
1.0
 40
1.0
 40
1.0
 10
20.2036762552
 20
9.9146179039
 30
0.0
 10
20.2260875516
 20
9.9016899903
 30
0.0
 10
20.3184853616
 20
9.8530694179
 30
0.0
 10
20.4184135997
 20
9.8189703367
 30
0.0
 10
20.495017064
 20
9.8018873195
 30
0.0
  0
SPLINE
  5
2BF
100
AcDbEntity
  8
0
100
AcDbSpline
 62
7
  6
BYLAYER
 70
0
 71
3
 72
11
 73
7
 74
0
 42
0.0000001
 43
0.0000001
 44
0.0000000001
 40
0.0
 40
0.0
 40
0.0
 40
0.0
 40
0.2801718949
 40
0.5317188022
 40
0.768075531
 40
1.0
 40
1.0
 40
1.0
 40
1.0
 10
20.4950347714
 20
9.8018972314
 30
0.0
 10
20.5307098532
 20
9.793941481
 30
0.0
 10
20.5997489126
 20
9.7838084502
 30
0.0
 10
20.7004851745
 20
9.7881258554
 30
0.0
 10
20.7922480276
 20
9.8107004123
 30
0.0
 10
20.8480316377
 20
9.8365999657
 30
0.0
 10
20.8742379683
 20
9.8517233032
 30
0.0
  0
SPLINE
  5
2C0
100
AcDbEntity
  8
0
100
AcDbSpline
 62
7
  6
BYLAYER
 70
0
 71
3
 72
9
 73
5
 74
0
 42
0.0000001
 43
0.0000001
 44
0.0000000001
 40
0.0
 40
0.0
 40
0.0
 40
0.0
 40
0.4947286568
 40
1.0
 40
1.0
 40
1.0
 40
1.0
 10
44.444057552
 20
23.4628949067
 30
0.0
 10
44.5057770917
 20
23.5059494886
 30
0.0
 10
44.6180899289
 20
23.6110801835
 30
0.0
 10
44.7065288283
 20
23.7359529415
 30
0.0
 10
44.7449569382
 20
23.8025127497
 30
0.0
  0
SPLINE
  5
2C1
100
AcDbEntity
  8
0
100
AcDbSpline
 62
7
  6
BYLAYER
 70
0
 71
3
 72
10
 73
6
 74
0
 42
0.0000001
 43
0.0000001
 44
0.0000000001
 40
0.0
 40
0.0
 40
0.0
 40
0.0
 40
0.2254381858
 40
0.4610648025
 40
1.0
 40
1.0
 40
1.0
 40
1.0
 10
41.0679739276
 20
76.5536578665
 30
0.0
 10
41.0907117217
 20
76.5647255206
 30
0.0
 10
41.1395047769
 20
76.5829811068
 30
0.0
 10
41.2506801095
 20
76.6016916586
 30
0.0
 10
41.3390639297
 20
76.5908528758
 30
0.0
 10
41.3976738704
 20
76.5760327968
 30
0.0
  0
SPLINE
  5
2C2
100
AcDbEntity
  8
0
100
AcDbSpline
 62
7
  6
BYLAYER
 70
0
 71
3
 72
10
 73
6
 74
0
 42
0.0000001
 43
0.0000001
 44
0.0000000001
 40
0.0
 40
0.0
 40
0.0
 40
0.0
 40
0.2262347133
 40
0.4650293866
 40
1.0
 40
1.0
 40
1.0
 40
1.0
 10
36.0757879759
 20
73.671435168
 30
0.0
 10
36.0643674433
 20
73.6630794142
 30
0.0
 10
36.0430249319
 20
73.6428099218
 30
0.0
 10
36.0085748793
 20
73.5901005807
 30
0.0
 10
35.9955359766
 20
73.5420854188
 30
0.0
 10
35.9910440794
 20
73.5089261273
 30
0.0
  0
SPLINE
  5
2C3
100
AcDbEntity
  8
0
100
AcDbSpline
 62
7
  6
BYLAYER
 70
0
 71
3
 72
9
 73
5
 74
0
 42
0.0000001
 43
0.0000001
 44
0.0000000001
 40
0.0
 40
0.0
 40
0.0
 40
0.0
 40
0.2563162527
 40
1.0
 40
1.0
 40
1.0
 40
1.0
 10
48.5700898503
 20
66.0841224508
 30
0.0
 10
48.5707142637
 20
66.0788743708
 30
0.0
 10
48.5728688092
 20
66.0583675517
 30
0.0
 10
48.5738735773
 20
66.0377343372
 30
0.0
 10
48.5738746902
 20
66.0224000006
 30
0.0
  0
SPLINE
  5
2C4
100
AcDbEntity
  8
0
100
AcDbSpline
 62
7
  6
BYLAYER
 70
0
 71
3
 72
10
 73
6
 74
0
 42
0.0000001
 43
0.0000001
 44
0.0000000001
 40
0.0
 40
0.0
 40
0.0
 40
0.0
 40
0.2409028675
 40
0.487430083
 40
1.0
 40
1.0
 40
1.0
 40
1.0
 10
48.5700767741
 20
66.084114663
 30
0.0
 10
48.5671736398
 20
66.105768729
 30
0.0
 10
48.5558916127
 20
66.149009142
 30
0.0
 10
48.5142591883
 20
66.2301610147
 30
0.0
 10
48.4664798765
 20
66.2816508055
 30
0.0
 10
48.4312422544
 20
66.3119695609
 30
0.0
  0
SPLINE
  5
2C5
100
AcDbEntity
  8
0
100
AcDbSpline
 62
7
  6
BYLAYER
 70
0
 71
3
 72
14
 73
10
 74
0
 42
0.0000001
 43
0.0000001
 44
0.0000000001
 40
0.0
 40
0.0
 40
0.0
 40
0.0
 40
0.2892494268
 40
0.422573376
 40
0.5485206356
 40
0.6678948184
 40
0.7818666621
 40
0.8919552374
 40
1.0
 40
1.0
 40
1.0
 40
1.0
 10
36.1041579931
 20
66.6321115336
 30
0.0
 10
35.9446188884
 20
66.7242193949
 30
0.0
 10
35.7211744271
 20
66.8780987032
 30
0.0
 10
35.4683322517
 20
67.1200285129
 30
0.0
 10
35.3144636927
 20
67.3065497285
 30
0.0
 10
35.1928578137
 20
67.5012473392
 30
0.0
 10
35.1048527001
 20
67.7024271674
 30
0.0
 10
35.0514476047
 20
67.9080199001
 30
0.0
 10
35.0395332315
 20
68.0472305848
 30
0.0
 10
35.0395332306
 20
68.1160427582
 30
0.0
  0
SPLINE
  5
2C6
100
AcDbEntity
  8
0
100
AcDbSpline
 62
7
  6
BYLAYER
 70
0
 71
3
 72
15
 73
11
 74
0
 42
0.0000001
 43
0.0000001
 44
0.0000000001
 40
0.0
 40
0.0
 40
0.0
 40
0.0
 40
0.1141465004
 40
0.2373352824
 40
0.3669759386
 40
0.4999994831
 40
0.6330230995
 40
0.7626639656
 40
0.8858530786
 40
1.0
 40
1.0
 40
1.0
 40
1.0
 10
41.2446984176
 20
66.6321241012
 30
0.0
 10
41.0687560954
 20
66.5305443461
 30
0.0
 10
40.6839759396
 20
66.3513921351
 30
0.0
 10
40.0574313283
 20
66.1609196826
 30
0.0
 10
39.3790650449
 20
66.043747185
 30
0.0
 10
38.6744325416
 20
66.0041650862
 30
0.0
 10
37.9697994749
 20
66.0437437823
 30
0.0
 10
37.2914315272
 20
66.1609130029
 30
0.0
 10
36.664884218
 20
66.3513824251
 30
0.0
 10
36.280101703
 20
66.5305326833
 30
0.0
 10
36.1041579931
 20
66.6321115336
 30
0.0
  0
SPLINE
  5
2C7
100
AcDbEntity
  8
0
100
AcDbSpline
 62
7
  6
BYLAYER
 70
0
 71
3
 72
9
 73
5
 74
0
 42
0.0000001
 43
0.0000001
 44
0.0000000001
 40
0.0
 40
0.0
 40
0.0
 40
0.0
 40
0.4995542007
 40
1.0
 40
1.0
 40
1.0
 40
1.0
 10
7.7376998051
 20
57.1425537114
 30
0.0
 10
7.8040140241
 20
57.235892215
 30
0.0
 10
7.9610956248
 20
57.4058397484
 30
0.0
 10
8.1465134439
 20
57.542493581
 30
0.0
 10
8.2440418325
 20
57.6028649565
 30
0.0
  0
SPLINE
  5
2C8
100
AcDbEntity
  8
0
100
AcDbSpline
 62
7
  6
BYLAYER
 70
0
 71
3
 72
9
 73
5
 74
0
 42
0.0000001
 43
0.0000001
 44
0.0000000001
 40
0.0
 40
0.0
 40
0.0
 40
0.0
 40
0.243502308
 40
1.0
 40
1.0
 40
1.0
 40
1.0
 10
40.5585616035
 20
68.5588108693
 30
0.0
 10
40.5346817604
 20
68.5725975913
 30
0.0
 10
40.435684391
 20
68.6275991162
 30
0.0
 10
40.3332035104
 20
68.6762648245
 30
0.0
 10
40.2543671222
 20
68.709780475
 30
0.0
  0
SPLINE
  5
2C9
100
AcDbEntity
  8
0
100
AcDbSpline
 62
7
  6
BYLAYER
 70
0
 71
3
 72
11
 73
7
 74
0
 42
0.0000001
 43
0.0000001
 44
0.0000000001
 40
0.0
 40
0.0
 40
0.0
 40
0.0
 40
0.2743549411
 40
0.5318379995
 40
0.7730919128
 40
1.0
 40
1.0
 40
1.0
 40
1.0
 10
39.1552504369
 20
68.0475641893
 30
0.0
 10
39.2837342195
 20
68.1133957249
 30
0.0
 10
39.5394676144
 20
68.2286460251
 30
0.0
 10
39.9282723239
 20
68.3518070331
 30
0.0
 10
40.3055648937
 20
68.4179427604
 30
0.0
 10
40.5531310527
 20
68.4233121997
 30
0.0
 10
40.6722742903
 20
68.4154808343
 30
0.0
  0
SPLINE
  5
2CA
100
AcDbEntity
  8
0
100
AcDbSpline
 62
7
  6
BYLAYER
 70
0
 71
3
 72
9
 73
5
 74
0
 42
0.0000001
 43
0.0000001
 44
0.0000000001
 40
0.0
 40
0.0
 40
0.0
 40
0.0
 40
0.254109468
 40
1.0
 40
1.0
 40
1.0
 40
1.0
 10
40.7550026257
 20
68.4079433041
 30
0.0
 10
40.7585769423
 20
68.4073401037
 30
0.0
 10
40.7725716483
 20
68.4045662896
 30
0.0
 10
40.7862459924
 20
68.4001403293
 30
0.0
 10
40.7960146796
 20
68.3959231987
 30
0.0
  0
SPLINE
  5
2CB
100
AcDbEntity
  8
0
100
AcDbSpline
 62
7
  6
BYLAYER
 70
0
 71
3
 72
9
 73
5
 74
0
 42
0.0000001
 43
0.0000001
 44
0.0000000001
 40
0.0
 40
0.0
 40
0.0
 40
0.0
 40
0.2415791405
 40
1.0
 40
1.0
 40
1.0
 40
1.0
 10
39.6645462425
 20
67.381066605
 30
0.0
 10
39.6477296216
 20
67.3713575823
 30
0.0
 10
39.5772345279
 20
67.332706288
 30
0.0
 10
39.5035148806
 20
67.3000395105
 30
0.0
 10
39.4465596539
 20
67.2783035509
 30
0.0
  0
SPLINE
  5
2CC
100
AcDbEntity
  8
0
100
AcDbSpline
 62
7
  6
BYLAYER
 70
0
 71
3
 72
9
 73
5
 74
0
 42
0.0000001
 43
0.0000001
 44
0.0000000001
 40
0.0
 40
0.0
 40
0.0
 40
0.0
 40
0.2398699083
 40
1.0
 40
1.0
 40
1.0
 40
1.0
 10
39.8425378027
 20
67.5069202771
 30
0.0
 10
39.8293984242
 20
67.4954439275
 30
0.0
 10
39.7733083088
 20
67.4491089777
 30
0.0
 10
39.7124235804
 20
67.4087084339
 30
0.0
 10
39.6645462425
 20
67.381066605
 30
0.0
  0
SPLINE
  5
2CD
100
AcDbEntity
  8
0
100
AcDbSpline
 62
7
  6
BYLAYER
 70
0
 71
3
 72
9
 73
5
 74
0
 42
0.0000001
 43
0.0000001
 44
0.0000000001
 40
0.0
 40
0.0
 40
0.0
 40
0.0
 40
0.5108493038
 40
1.0
 40
1.0
 40
1.0
 40
1.0
 10
37.1726048051
 20
66.348933447
 30
0.0
 10
37.3302852582
 20
66.546906692
 30
0.0
 10
37.6572672573
 20
66.9202650395
 30
0.0
 10
38.0205727748
 20
67.2587222772
 30
0.0
 10
38.2071610734
 20
67.4133677864
 30
0.0
  0
SPLINE
  5
2CE
100
AcDbEntity
  8
0
100
AcDbSpline
 62
7
  6
BYLAYER
 70
0
 71
3
 72
9
 73
5
 74
0
 42
0.0000001
 43
0.0000001
 44
0.0000000001
 40
0.0
 40
0.0
 40
0.0
 40
0.0
 40
0.2559371542
 40
1.0
 40
1.0
 40
1.0
 40
1.0
 10
38.2485945231
 20
67.4474069008
 30
0.0
 10
38.290385205
 20
67.4814366296
 30
0.0
 10
38.455407542
 20
67.6122397616
 30
0.0
 10
38.6274452214
 20
67.734272169
 30
0.0
 10
38.7592723419
 20
67.818947512
 30
0.0
  0
SPLINE
  5
2CF
100
AcDbEntity
  8
0
100
AcDbSpline
 62
7
  6
BYLAYER
 70
0
 71
3
 72
9
 73
5
 74
0
 42
0.0000001
 43
0.0000001
 44
0.0000000001
 40
0.0
 40
0.0
 40
0.0
 40
0.0
 40
0.2425464121
 40
1.0
 40
1.0
 40
1.0
 40
1.0
 10
38.7592723419
 20
67.818947512
 30
0.0
 10
38.818031918
 20
67.7795693584
 30
0.0
 10
39.0570190528
 20
67.6123545714
 30
0.0
 10
39.2829701525
 20
67.4267425512
 30
0.0
 10
39.4465596539
 20
67.2783035509
 30
0.0
  0
SPLINE
  5
2D0
100
AcDbEntity
  8
0
100
AcDbSpline
 62
7
  6
BYLAYER
 70
0
 71
3
 72
9
 73
5
 74
0
 42
0.0000001
 43
0.0000001
 44
0.0000000001
 40
0.0
 40
0.0
 40
0.0
 40
0.0
 40
0.2429964378
 40
1.0
 40
1.0
 40
1.0
 40
1.0
 10
37.5062973326
 20
68.3984893663
 30
0.0
 10
37.5440233947
 20
68.3891601791
 30
0.0
 10
37.6985165544
 20
68.3477215103
 30
0.0
 10
37.8497842232
 20
68.2945296908
 30
0.0
 10
37.9619113293
 20
68.2488691141
 30
0.0
  0
SPLINE
  5
2D1
100
AcDbEntity
  8
0
100
AcDbSpline
 62
7
  6
BYLAYER
 70
0
 71
3
 72
9
 73
5
 74
0
 42
0.0000001
 43
0.0000001
 44
0.0000000001
 40
0.0
 40
0.0
 40
0.0
 40
0.0
 40
0.2426745943
 40
1.0
 40
1.0
 40
1.0
 40
1.0
 10
31.8862551114
 20
22.6043685897
 30
0.0
 10
31.8862551114
 20
22.6271894743
 30
0.0
 10
31.8879409008
 20
22.7212250959
 30
0.0
 10
31.8960818772
 20
22.8151107448
 30
0.0
 10
31.9053269159
 20
22.8857262825
 30
0.0
  0
SPLINE
  5
2D2
100
AcDbEntity
  8
0
100
AcDbSpline
 62
7
  6
BYLAYER
 70
0
 71
3
 72
9
 73
5
 74
0
 42
0.0000001
 43
0.0000001
 44
0.0000000001
 40
0.0
 40
0.0
 40
0.0
 40
0.0
 40
0.2426442702
 40
1.0
 40
1.0
 40
1.0
 40
1.0
 10
24.4616648207
 20
18.317804974
 30
0.0
 10
24.4616648207
 20
18.3407331848
 30
0.0
 10
24.4633668054
 20
18.4352228397
 30
0.0
 10
24.471584429
 20
18.5295602936
 30
0.0
 10
24.4809145842
 20
18.6005143805
 30
0.0
  0
SPLINE
  5
2D3
100
AcDbEntity
  8
0
100
AcDbSpline
 62
7
  6
BYLAYER
 70
0
 71
3
 72
9
 73
5
 74
0
 42
0.0000001
 43
0.0000001
 44
0.0000000001
 40
0.0
 40
0.0
 40
0.0
 40
0.0
 40
0.2397355146
 40
1.0
 40
1.0
 40
1.0
 40
1.0
 10
34.7534099444
 20
24.6091869632
 30
0.0
 10
34.7587930108
 20
24.5831356175
 30
0.0
 10
34.7780911196
 20
24.4738236456
 30
0.0
 10
34.785380844
 20
24.3625305952
 30
0.0
 10
34.785380844
 20
24.2781696206
 30
0.0
  0
SPLINE
  5
2D4
100
AcDbEntity
  8
0
100
AcDbSpline
 62
7
  6
BYLAYER
 70
0
 71
3
 72
9
 73
5
 74
0
 42
0.0000001
 43
0.0000001
 44
0.0000000001
 40
0.0
 40
0.0
 40
0.0
 40
0.0
 40
0.7466323326
 40
1.0
 40
1.0
 40
1.0
 40
1.0
 10
40.2041095146
 20
68.731398583
 30
0.0
 10
40.1972797825
 20
68.7331338909
 30
0.0
 10
40.187982156
 20
68.7349091496
 30
0.0
 10
40.1786091493
 20
68.7360173126
 30
0.0
 10
40.1762299238
 20
68.736257236
 30
0.0
  0
SPLINE
  5
2D5
100
AcDbEntity
  8
0
100
AcDbSpline
 62
7
  6
BYLAYER
 70
0
 71
3
 72
10
 73
6
 74
0
 42
0.0000001
 43
0.0000001
 44
0.0000000001
 40
0.0
 40
0.0
 40
0.0
 40
0.0
 40
0.5314360375
 40
0.7703677862
 40
1.0
 40
1.0
 40
1.0
 40
1.0
 10
36.3088809005
 20
73.7274593149
 30
0.0
 10
36.2779304336
 20
73.7380707854
 30
0.0
 10
36.2298308313
 20
73.7472313225
 30
0.0
 10
36.1684662165
 20
73.7380768098
 30
0.0
 10
36.1414926904
 20
73.7268379984
 30
0.0
 10
36.1292542557
 20
73.7197599741
 30
0.0
  0
SPLINE
  5
2D6
100
AcDbEntity
  8
0
100
AcDbSpline
 62
7
  6
BYLAYER
 70
0
 71
3
 72
9
 73
5
 74
0
 42
0.0000001
 43
0.0000001
 44
0.0000000001
 40
0.0
 40
0.0
 40
0.0
 40
0.0
 40
0.5117247425
 40
1.0
 40
1.0
 40
1.0
 40
1.0
 10
48.6270276397
 20
66.425005631
 30
0.0
 10
48.6015471556
 20
66.4889348839
 30
0.0
 10
48.5361768916
 20
66.6079964642
 30
0.0
 10
48.44473807
 20
66.7090278909
 30
0.0
 10
48.3937538149
 20
66.7504125265
 30
0.0
  0
SPLINE
  5
2D7
100
AcDbEntity
  8
0
100
AcDbSpline
 62
7
  6
BYLAYER
 70
0
 71
3
 72
9
 73
5
 74
0
 42
0.0000001
 43
0.0000001
 44
0.0000000001
 40
0.0
 40
0.0
 40
0.0
 40
0.0
 40
0.4746208276
 40
1.0
 40
1.0
 40
1.0
 40
1.0
 10
48.7153449841
 20
66.1040774253
 30
0.0
 10
48.7153449841
 20
66.1571095839
 30
0.0
 10
48.6970782265
 20
66.2689130584
 30
0.0
 10
48.6545106743
 20
66.3731326569
 30
0.0
 10
48.6270276397
 20
66.425005631
 30
0.0
  0
SPLINE
  5
2D8
100
AcDbEntity
  8
0
100
AcDbSpline
 62
7
  6
BYLAYER
 70
0
 71
3
 72
9
 73
5
 74
0
 42
0.0000001
 43
0.0000001
 44
0.0000000001
 40
0.0
 40
0.0
 40
0.0
 40
0.0
 40
0.5525849532
 40
1.0
 40
1.0
 40
1.0
 40
1.0
 10
40.4808923329
 20
76.1361580828
 30
0.0
 10
40.5729442992
 20
76.1892969878
 30
0.0
 10
40.709124437
 20
76.3287941097
 30
0.0
 10
40.8592085292
 20
76.4506005781
 30
0.0
 10
40.9337382174
 20
76.4936304472
 30
0.0
  0
SPLINE
  5
2D9
100
AcDbEntity
  8
0
100
AcDbSpline
 62
7
  6
BYLAYER
 70
0
 71
3
 72
14
 73
10
 74
0
 42
0.0000001
 43
0.0000001
 44
0.0000000001
 40
0.0
 40
0.0
 40
0.0
 40
0.0
 40
0.238247476
 40
0.3626454698
 40
0.4896110896
 40
0.6184518287
 40
0.7482387357
 40
0.8770713579
 40
1.0
 40
1.0
 40
1.0
 40
1.0
 10
53.6191249156
 20
69.3071771328
 30
0.0
 10
53.5339907278
 20
69.3107082389
 30
0.0
 10
53.4041432522
 20
69.3117048737
 30
0.0
 10
53.2292373183
 20
69.3027108403
 30
0.0
 10
53.0937483285
 20
69.290775235
 30
0.0
 10
52.9569620608
 20
69.2729431513
 30
0.0
 10
52.8205095134
 20
69.2482624393
 30
0.0
 10
52.6880981915
 20
69.2150336118
 30
0.0
 10
52.6038404306
 20
69.1810951886
 30
0.0
 10
52.5657679057
 20
69.1591097609
 30
0.0
  0
SPLINE
  5
2DA
100
AcDbEntity
  8
0
100
AcDbSpline
 62
7
  6
BYLAYER
 70
0
 71
3
 72
10
 73
6
 74
0
 42
0.0000001
 43
0.0000001
 44
0.0000000001
 40
0.0
 40
0.0
 40
0.0
 40
0.0
 40
0.2158679691
 40
0.4581392849
 40
1.0
 40
1.0
 40
1.0
 40
1.0
 10
54.1256489231
 20
69.2276992154
 30
0.0
 10
54.0898724461
 20
69.2367462726
 30
0.0
 10
54.0133844784
 20
69.2537467073
 30
0.0
 10
53.8450977557
 20
69.2840144794
 30
0.0
 10
53.7117602761
 20
69.2992636145
 30
0.0
 10
53.6194858891
 20
69.3073855398
 30
0.0
  0
SPLINE
  5
2DB
100
AcDbEntity
  8
0
100
AcDbSpline
 62
7
  6
BYLAYER
 70
0
 71
3
 72
10
 73
6
 74
0
 42
0.0000001
 43
0.0000001
 44
0.0000000001
 40
0.0
 40
0.0
 40
0.0
 40
0.0
 40
0.2412457897
 40
0.4862907458
 40
1.0
 40
1.0
 40
1.0
 40
1.0
 10
35.8744297218
 20
67.191633059
 30
0.0
 10
35.8744297224
 20
67.1433715696
 30
0.0
 10
35.8820272248
 20
67.0459022389
 30
0.0
 10
35.9280231995
 20
66.8506203038
 30
0.0
 10
35.9957571059
 20
66.7119757431
 30
0.0
 10
36.0516013807
 20
66.6257046513
 30
0.0
  0
SPLINE
  5
2DC
100
AcDbEntity
  8
0
100
AcDbSpline
 62
7
  6
BYLAYER
 70
0
 71
3
 72
9
 73
5
 74
0
 42
0.0000001
 43
0.0000001
 44
0.0000000001
 40
0.0
 40
0.0
 40
0.0
 40
0.0
 40
0.4846612335
 40
1.0
 40
1.0
 40
1.0
 40
1.0
 10
20.7950092268
 20
50.3562782256
 30
0.0
 10
20.74834859
 20
50.261861607
 30
0.0
 10
20.6459098282
 20
50.0700944975
 30
0.0
 10
20.5305325409
 20
49.8855096356
 30
0.0
 10
20.4656748577
 20
49.7942201301
 30
0.0
  0
SPLINE
  5
2DD
100
AcDbEntity
  8
0
100
AcDbSpline
 62
7
  6
BYLAYER
 70
0
 71
3
 72
16
 73
12
 74
0
 42
0.0000001
 43
0.0000001
 44
0.0000000001
 40
0.0
 40
0.0
 40
0.0
 40
0.0
 40
0.0617453013
 40
0.1211322781
 40
0.1793012188
 40
0.2372715103
 40
0.354582896
 40
0.4752275298
 40
0.5999109678
 40
0.7288901913
 40
1.0
 40
1.0
 40
1.0
 40
1.0
 10
21.3824480702
 20
51.155514512
 30
0.0
 10
21.3646359579
 20
51.1452301924
 30
0.0
 10
21.331023567
 20
51.1226474673
 30
0.0
 10
21.2859224721
 20
51.0833095195
 30
0.0
 10
21.2457963308
 20
51.0406979365
 30
0.0
 10
21.1960592428
 20
50.9808801331
 30
0.0
 10
21.1379461487
 20
50.9011634014
 30
0.0
 10
21.0707943331
 20
50.8007413616
 30
0.0
 10
21.003905652
 20
50.6955062976
 30
0.0
 10
20.911962342
 20
50.5468329914
 30
0.0
 10
20.8426484966
 20
50.4329999664
 30
0.0
 10
20.7950092268
 20
50.3562782256
 30
0.0
  0
SPLINE
  5
2DE
100
AcDbEntity
  8
0
100
AcDbSpline
 62
7
  6
BYLAYER
 70
0
 71
3
 72
22
 73
18
 74
0
 42
0.0000001
 43
0.0000001
 44
0.0000000001
 40
0.0
 40
0.0
 40
0.0
 40
0.0
 40
0.0623811703
 40
0.1287696849
 40
0.1983752541
 40
0.2703721205
 40
0.4173890145
 40
0.4904342948
 40
0.5617427045
 40
0.6303620947
 40
0.6954685118
 40
0.7564347497
 40
0.8128897292
 40
0.8648044934
 40
0.9125938381
 40
0.9571816551
 40
1.0
 40
1.0
 40
1.0
 40
1.0
 10
36.104136591
 20
69.5999617141
 30
0.0
 10
36.2346888608
 20
69.675335663
 30
0.0
 10
36.5145999634
 20
69.8132870347
 30
0.0
 10
36.9660256305
 20
69.9769410843
 30
0.0
 10
37.4539924104
 20
70.1008032965
 30
0.0
 10
38.1435529458
 20
70.2100524836
 30
0.0
 10
38.853193336
 20
70.2296520724
 30
0.0
 10
39.5544913567
 20
70.1599270829
 30
0.0
 10
40.0609129438
 20
70.0640866593
 30
0.0
 10
40.5377640749
 20
69.9266766978
 30
0.0
 10
40.9750111746
 20
69.7504956293
 30
0.0
 10
41.3634805166
 20
69.5392264073
 30
0.0
 10
41.6950326656
 20
69.2969767964
 30
0.0
 10
41.9625672011
 20
69.0282713334
 30
0.0
 10
42.1599891439
 20
68.7379294389
 30
0.0
 10
42.2816547881
 20
68.4316412866
 30
0.0
 10
42.3092992146
 20
68.2195166449
 30
0.0
 10
42.3093016715
 20
68.1160430541
 30
0.0
  0
SPLINE
  5
2DF
100
AcDbEntity
  8
0
100
AcDbSpline
 62
7
  6
BYLAYER
 70
0
 71
3
 72
17
 73
13
 74
0
 42
0.0000001
 43
0.0000001
 44
0.0000000001
 40
0.0
 40
0.0
 40
0.0
 40
0.0
 40
0.2578029638
 40
0.4489639386
 40
0.6053330885
 40
0.7367767951
 40
0.8433773899
 40
0.9238772068
 40
0.9538041752
 40
0.9765536492
 40
0.9919332055
 40
1.0
 40
1.0
 40
1.0
 40
1.0
 10
35.8139229444
 20
73.4417011894
 30
0.0
 10
35.8252071119
 20
73.4482156708
 30
0.0
 10
35.8429092701
 20
73.4637417685
 30
0.0
 10
35.8569633296
 20
73.4913224334
 30
0.0
 10
35.8636909129
 20
73.5146156956
 30
0.0
 10
35.868140477
 20
73.5340514749
 30
0.0
 10
35.8712236818
 20
73.5498480819
 30
0.0
 10
35.8732258197
 20
73.5606470695
 30
0.0
 10
35.8745950369
 20
73.567217099
 30
0.0
 10
35.8753967441
 20
73.5706007358
 30
0.0
 10
35.8761109701
 20
73.5727487136
 30
0.0
 10
35.8766406273
 20
73.5739282156
 30
0.0
 10
35.8769940399
 20
73.5741314934
 30
0.0
  0
SPLINE
  5
2E0
100
AcDbEntity
  8
0
100
AcDbSpline
 62
7
  6
BYLAYER
 70
0
 71
3
 72
9
 73
5
 74
0
 42
0.0000001
 43
0.0000001
 44
0.0000000001
 40
0.0
 40
0.0
 40
0.0
 40
0.0
 40
0.5044955175
 40
1.0
 40
1.0
 40
1.0
 40
1.0
 10
19.9432898479
 20
10.1295784854
 30
0.0
 10
19.9810772622
 20
10.0869437765
 30
0.0
 10
20.0620682852
 20
10.0075337321
 30
0.0
 10
20.1552073406
 20
9.9425771049
 30
0.0
 10
20.2036762552
 20
9.9146179039
 30
0.0
  0
SPLINE
  5
2E1
100
AcDbEntity
  8
0
100
AcDbSpline
 62
7
  6
BYLAYER
 70
0
 71
3
 72
9
 73
5
 74
0
 42
0.0000001
 43
0.0000001
 44
0.0000000001
 40
0.0
 40
0.0
 40
0.0
 40
0.0
 40
0.5258909838
 40
1.0
 40
1.0
 40
1.0
 40
1.0
 10
36.104136591
 20
67.9669781111
 30
0.0
 10
35.9541225122
 20
67.8803679593
 30
0.0
 10
35.6805243513
 20
67.693910156
 30
0.0
 10
35.4467106794
 20
67.4576425138
 30
0.0
 10
35.3515815345
 20
67.3337962401
 30
0.0
  0
SPLINE
  5
2E2
100
AcDbEntity
  8
0
100
AcDbSpline
 62
7
  6
BYLAYER
 70
0
 71
3
 72
10
 73
6
 74
0
 42
0.0000001
 43
0.0000001
 44
0.0000000001
 40
0.0
 40
0.0
 40
0.0
 40
0.0
 40
0.5137083997
 40
0.7587536593
 40
1.0
 40
1.0
 40
1.0
 40
1.0
 10
41.2972457471
 20
66.6257233736
 30
0.0
 10
41.3530863798
 20
66.7119920936
 30
0.0
 10
41.420815599
 20
66.8506323186
 30
0.0
 10
41.4668083218
 20
67.0459073561
 30
0.0
 10
41.4744052874
 20
67.1433732435
 30
0.0
 10
41.4744052868
 20
67.191633059
 30
0.0
  0
SPLINE
  5
2E3
100
AcDbEntity
  8
0
100
AcDbSpline
 62
7
  6
BYLAYER
 70
0
 71
3
 72
9
 73
5
 74
0
 42
0.0000001
 43
0.0000001
 44
0.0000000001
 40
0.0
 40
0.0
 40
0.0
 40
0.0
 40
0.2319588269
 40
1.0
 40
1.0
 40
1.0
 40
1.0
 10
42.0240184802
 20
67.2980248195
 30
0.0
 10
41.9814217072
 20
67.3563684517
 30
0.0
 10
41.7826382989
 20
67.5968603897
 30
0.0
 10
41.5321762576
 20
67.7912536574
 30
0.0
 10
41.328626412
 20
67.9168714472
 30
0.0
  0
SPLINE
  5
2E4
100
AcDbEntity
  8
0
100
AcDbSpline
 62
7
  6
BYLAYER
 70
0
 71
3
 72
9
 73
5
 74
0
 42
0.0000001
 43
0.0000001
 44
0.0000000001
 40
0.0
 40
0.0
 40
0.0
 40
0.0
 40
0.2425126043
 40
1.0
 40
1.0
 40
1.0
 40
1.0
 10
36.5287801068
 20
66.5588246478
 30
0.0
 10
36.5488282609
 20
66.5431059476
 30
0.0
 10
36.632748434
 20
66.4798931293
 30
0.0
 10
36.7213608193
 20
66.4229874501
 30
0.0
 10
36.7902734051
 20
66.3832016502
 30
0.0
  0
SPLINE
  5
2E5
100
AcDbEntity
  8
0
100
AcDbSpline
 62
7
  6
BYLAYER
 70
0
 71
3
 72
14
 73
10
 74
0
 42
0.0000001
 43
0.0000001
 44
0.0000000001
 40
0.0
 40
0.0
 40
0.0
 40
0.0
 40
0.1080450045
 40
0.218133786
 40
0.332105767
 40
0.4514800016
 40
0.5774272209
 40
0.7107510424
 40
1.0
 40
1.0
 40
1.0
 40
1.0
 10
35.0395332306
 20
68.1160427582
 30
0.0
 10
35.0395332297
 20
68.1848541997
 30
0.0
 10
35.0514473446
 20
68.3240633727
 30
0.0
 10
35.1048512992
 20
68.5296539437
 30
0.0
 10
35.192854536
 20
68.7308317667
 30
0.0
 10
35.3144578786
 20
68.9255275775
 30
0.0
 10
35.4683232759
 20
69.1120472601
 30
0.0
 10
35.7211603114
 20
69.3539753287
 30
0.0
 10
35.9446004692
 20
69.5078540279
 30
0.0
 10
36.104136591
 20
69.5999617141
 30
0.0
  0
SPLINE
  5
2E6
100
AcDbEntity
  8
0
100
AcDbSpline
 62
7
  6
BYLAYER
 70
0
 71
3
 72
14
 73
10
 74
0
 42
0.0000001
 43
0.0000001
 44
0.0000000001
 40
0.0
 40
0.0
 40
0.0
 40
0.0
 40
0.2470100892
 40
0.4997705643
 40
0.6274938618
 40
0.7552594699
 40
0.8817195547
 40
0.9434344397
 40
1.0
 40
1.0
 40
1.0
 40
1.0
 10
48.3505712298
 20
66.3725997337
 30
0.0
 10
48.317383109
 20
66.3930717011
 30
0.0
 10
48.2461930981
 20
66.4281005636
 30
0.0
 10
48.1513962952
 20
66.4579946971
 30
0.0
 10
48.0726406269
 20
66.4737206099
 30
0.0
 10
48.0127517676
 20
66.4809761727
 30
0.0
 10
47.9625943385
 20
66.4816179667
 30
0.0
 10
47.9243638237
 20
66.475521617
 30
0.0
 10
47.9065383677
 20
66.4691141862
 30
0.0
 10
47.8988051641
 20
66.4646490349
 30
0.0
  0
SPLINE
  5
2E7
100
AcDbEntity
  8
0
100
AcDbSpline
 62
7
  6
BYLAYER
 70
0
 71
3
 72
23
 73
19
 74
0
 42
0.0000001
 43
0.0000001
 44
0.0000000001
 40
0.0
 40
0.0
 40
0.0
 40
0.0
 40
0.0707558698
 40
0.1453976937
 40
0.2224685706
 40
0.300452886
 40
0.3777207401
 40
0.4527027793
 40
0.5239817565
 40
0.590404908
 40
0.6512226682
 40
0.7062663788
 40
0.7561432412
 40
0.8023948794
 40
0.847424935
 40
0.8939625041
 40
0.9443593314
 40
1.0
 40
1.0
 40
1.0
 40
1.0
 10
37.1724900897
 20
66.3488029177
 30
0.0
 10
37.2982721423
 20
66.2960522711
 30
0.0
 10
37.5643160096
 20
66.2051748974
 30
0.0
 10
37.984194726
 20
66.1140413112
 30
0.0
 10
38.4252367381
 20
66.0665155872
 30
0.0
 10
38.8738366453
 20
66.0639540154
 30
0.0
 10
39.3164024064
 20
66.1065474222
 30
0.0
 10
39.7394161896
 20
66.1929758834
 30
0.0
 10
40.1300767395
 20
66.3206178117
 30
0.0
 10
40.4766575861
 20
66.4857527684
 30
0.0
 10
40.7688351273
 20
66.6838224382
 30
0.0
 10
40.9978207892
 20
66.909731175
 30
0.0
 10
41.1558921134
 20
67.1581347962
 30
0.0
 10
41.2354632782
 20
67.422499651
 30
0.0
 10
41.2306441425
 20
67.6924881011
 30
0.0
 10
41.1420283301
 20
67.9555070827
 30
0.0
 10
40.9757761841
 20
68.201564941
 30
0.0
 10
40.826000209
 20
68.342930411
 30
0.0
 10
40.7420324188
 20
68.4096665657
 30
0.0
  0
SPLINE
  5
2E8
100
AcDbEntity
  8
0
100
AcDbSpline
 62
7
  6
BYLAYER
 70
0
 71
3
 72
13
 73
9
 74
0
 42
0.0000001
 43
0.0000001
 44
0.0000000001
 40
0.0
 40
0.0
 40
0.0
 40
0.0
 40
0.2582465099
 40
0.5141331071
 40
0.6406038698
 40
0.765271789
 40
0.8864159477
 40
1.0
 40
1.0
 40
1.0
 40
1.0
 10
8.4854462782
 20
57.759704599
 30
0.0
 10
8.5521219111
 20
57.7981999888
 30
0.0
 10
8.6879068153
 20
57.8696589509
 30
0.0
 10
8.8624537142
 20
57.947395611
 30
0.0
 10
9.0025375414
 20
58.004194339
 30
0.0
 10
9.1058436288
 20
58.0447781953
 30
0.0
 10
9.2051321843
 20
58.0850303427
 30
0.0
 10
9.2682397183
 20
58.1156359203
 30
0.0
 10
9.2975658723
 20
58.1325666791
 30
0.0
  0
SPLINE
  5
2E9
100
AcDbEntity
  8
0
100
AcDbSpline
 62
7
  6
BYLAYER
 70
0
 71
3
 72
9
 73
5
 74
0
 42
0.0000001
 43
0.0000001
 44
0.0000000001
 40
0.0
 40
0.0
 40
0.0
 40
0.0
 40
0.2573314624
 40
1.0
 40
1.0
 40
1.0
 40
1.0
 10
39.8425378027
 20
67.5069202771
 30
0.0
 10
39.7869622565
 20
67.5573488015
 30
0.0
 10
39.5677233923
 20
67.7496540374
 30
0.0
 10
39.3351666355
 20
67.9269920728
 30
0.0
 10
39.1552504369
 20
68.0475641893
 30
0.0
  0
SPLINE
  5
2EA
100
AcDbEntity
  8
0
100
AcDbSpline
 62
7
  6
BYLAYER
 70
0
 71
3
 72
10
 73
6
 74
0
 42
0.0000001
 43
0.0000001
 44
0.0000000001
 40
0.0
 40
0.0
 40
0.0
 40
0.0
 40
0.2347230484
 40
0.4809286685
 40
1.0
 40
1.0
 40
1.0
 40
1.0
 10
38.1935846322
 20
68.145540077
 30
0.0
 10
38.0506381591
 20
68.0537225218
 30
0.0
 10
37.7669754649
 20
67.8508905124
 30
0.0
 10
37.216673873
 20
67.3798030127
 30
0.0
 10
36.84074258
 20
66.9691305444
 30
0.0
 10
36.6066719853
 20
66.6752467957
 30
0.0
  0
SPLINE
  5
2EB
100
AcDbEntity
  8
0
100
AcDbSpline
 62
7
  6
BYLAYER
 70
0
 71
3
 72
9
 73
5
 74
0
 42
0.0000001
 43
0.0000001
 44
0.0000000001
 40
0.0
 40
0.0
 40
0.0
 40
0.0
 40
0.2415791405
 40
1.0
 40
1.0
 40
1.0
 40
1.0
 10
37.6842887661
 20
68.5243429277
 30
0.0
 10
37.701105387
 20
68.5340519503
 30
0.0
 10
37.7716004807
 20
68.5727032447
 30
0.0
 10
37.8453201282
 20
68.6053700217
 30
0.0
 10
37.9022753547
 20
68.6271059818
 30
0.0
  0
SPLINE
  5
2EC
100
AcDbEntity
  8
0
100
AcDbSpline
 62
7
  6
BYLAYER
 70
0
 71
3
 72
9
 73
5
 74
0
 42
0.0000001
 43
0.0000001
 44
0.0000000001
 40
0.0
 40
0.0
 40
0.0
 40
0.0
 40
0.2398699171
 40
1.0
 40
1.0
 40
1.0
 40
1.0
 10
37.5062973326
 20
68.3984893663
 30
0.0
 10
37.5194367034
 20
68.4099657053
 30
0.0
 10
37.5755267827
 20
68.4563006108
 30
0.0
 10
37.6364114656
 20
68.4967011203
 30
0.0
 10
37.6842887661
 20
68.5243429277
 30
0.0
  0
SPLINE
  5
2ED
100
AcDbEntity
  8
0
100
AcDbSpline
 62
7
  6
BYLAYER
 70
0
 71
3
 72
15
 73
11
 74
0
 42
0.0000001
 43
0.0000001
 44
0.0000000001
 40
0.0
 40
0.0
 40
0.0
 40
0.0
 40
0.1462820764
 40
0.2789280799
 40
0.3997002569
 40
0.512636682
 40
0.6234607416
 40
0.7384630583
 40
0.8629502682
 40
1.0
 40
1.0
 40
1.0
 40
1.0
 10
36.7892563484
 20
68.5386660756
 30
0.0
 10
36.6953263762
 20
68.4793828413
 30
0.0
 10
36.523983444
 20
68.3529372365
 30
0.0
 10
36.3158429607
 20
68.1292250378
 30
0.0
 10
36.1757271961
 20
67.8855589615
 30
0.0
 10
36.1101435516
 20
67.6285017732
 30
0.0
 10
36.1238289712
 20
67.3676933521
 30
0.0
 10
36.2155191676
 20
67.1143214635
 30
0.0
 10
36.3795588523
 20
66.8770573504
 30
0.0
 10
36.5253358136
 20
66.7401437514
 30
0.0
 10
36.6068025891
 20
66.6753954036
 30
0.0
  0
SPLINE
  5
2EE
100
AcDbEntity
  8
0
100
AcDbSpline
 62
7
  6
BYLAYER
 70
0
 71
3
 72
9
 73
5
 74
0
 42
0.0000001
 43
0.0000001
 44
0.0000000001
 40
0.0
 40
0.0
 40
0.0
 40
0.0
 40
0.4858390404
 40
1.0
 40
1.0
 40
1.0
 40
1.0
 10
40.1763446412
 20
68.7362591676
 30
0.0
 10
40.0357783272
 20
68.7952100886
 30
0.0
 10
39.73703252
 20
68.8946895637
 30
0.0
 10
39.428390572
 20
68.955470463
 30
0.0
 10
39.268592721
 20
68.977528567
 30
0.0
  0
SPLINE
  5
2EF
100
AcDbEntity
  8
0
100
AcDbSpline
 62
7
  6
BYLAYER
 70
0
 71
3
 72
9
 73
5
 74
0
 42
0.0000001
 43
0.0000001
 44
0.0000000001
 40
0.0
 40
0.0
 40
0.0
 40
0.0
 40
0.255203788
 40
1.0
 40
1.0
 40
1.0
 40
1.0
 10
38.0289631923
 20
68.9701198997
 30
0.0
 10
37.9812572678
 20
68.9629344654
 30
0.0
 10
37.7948402759
 20
68.9315115971
 30
0.0
 10
37.6105718303
 20
68.8869258466
 30
0.0
 10
37.4759573931
 20
68.8456609737
 30
0.0
  0
SPLINE
  5
2F0
100
AcDbEntity
  8
0
100
AcDbSpline
 62
7
  6
BYLAYER
 70
0
 71
3
 72
9
 73
5
 74
0
 42
0.0000001
 43
0.0000001
 44
0.0000000001
 40
0.0
 40
0.0
 40
0.0
 40
0.0
 40
0.515156105
 40
1.0
 40
1.0
 40
1.0
 40
1.0
 10
37.4759573931
 20
68.8456609737
 30
0.0
 10
37.3701908681
 20
68.8132391749
 30
0.0
 10
37.1677344427
 20
68.740466133
 30
0.0
 10
36.9740759799
 20
68.646411569
 30
0.0
 10
36.8835090889
 20
68.5950541669
 30
0.0
  0
SPLINE
  5
2F1
100
AcDbEntity
  8
0
100
AcDbSpline
 62
7
  6
BYLAYER
 70
0
 71
3
 72
11
 73
7
 74
0
 42
0.0000001
 43
0.0000001
 44
0.0000000001
 40
0.0
 40
0.0
 40
0.0
 40
0.0
 40
0.2259406995
 40
0.4666978793
 40
0.7244350065
 40
1.0
 40
1.0
 40
1.0
 40
1.0
 10
40.1762299238
 20
68.736257236
 30
0.0
 10
40.0527219539
 20
68.7487119098
 30
0.0
 10
39.7947911877
 20
68.7503983645
 30
0.0
 10
39.4001926563
 20
68.6883766587
 30
0.0
 10
38.9924543582
 20
68.56326451
 30
0.0
 10
38.7243512707
 20
68.4432166554
 30
0.0
 10
38.5896089033
 20
68.37418044
 30
0.0
  0
SPLINE
  5
2F2
100
AcDbEntity
  8
0
100
AcDbSpline
 62
7
  6
BYLAYER
 70
0
 71
3
 72
9
 73
5
 74
0
 42
0.0000001
 43
0.0000001
 44
0.0000000001
 40
0.0
 40
0.0
 40
0.0
 40
0.0
 40
0.2607173628
 40
1.0
 40
1.0
 40
1.0
 40
1.0
 10
38.5896089033
 20
68.37418044
 30
0.0
 10
38.532270886
 20
68.4019578559
 30
0.0
 10
38.3099669835
 20
68.5034133729
 30
0.0
 10
38.0776549578
 20
68.5837457288
 30
0.0
 10
37.9022753547
 20
68.6271059818
 30
0.0
  0
SPLINE
  5
2F3
100
AcDbEntity
  8
0
100
AcDbSpline
 62
7
  6
BYLAYER
 70
0
 71
3
 72
20
 73
16
 74
0
 42
0.0000001
 43
0.0000001
 44
0.0000000001
 40
0.0
 40
0.0
 40
0.0
 40
0.0
 40
0.1257098261
 40
0.2512296432
 40
0.3765433096
 40
0.5016859885
 40
0.6267911375
 40
0.6894291193
 40
0.7521677413
 40
0.815045838
 40
0.8783136358
 40
0.9100278804
 40
0.9423426698
 40
0.9734598106
 40
1.0
 40
1.0
 40
1.0
 40
1.0
 10
7.0684793741
 20
55.4294714825
 30
0.0
 10
7.0684839327
 20
55.3952077083
 30
0.0
 10
7.0698322587
 20
55.3267252178
 30
0.0
 10
7.0756809753
 20
55.2242396044
 30
0.0
 10
7.0851371345
 20
55.122177311
 30
0.0
 10
7.0982665489
 20
55.0206379725
 30
0.0
 10
7.1124963256
 20
54.9365192077
 30
0.0
 10
7.126464169
 20
54.8696854591
 30
0.0
 10
7.1382433871
 20
54.8197345262
 30
0.0
 10
7.1516358621
 20
54.7700258112
 30
0.0
 10
7.1643115902
 20
54.7288606374
 30
0.0
 10
7.177322234
 20
54.6966649853
 30
0.0
 10
7.1883678464
 20
54.6732111381
 30
0.0
 10
7.2015341181
 20
54.6522603901
 30
0.0
 10
7.2152005722
 20
54.6429322788
 30
0.0
 10
7.2221472549
 20
54.6409142834
 30
0.0
  0
SPLINE
  5
2F4
100
AcDbEntity
  8
0
100
AcDbSpline
 62
7
  6
BYLAYER
 70
0
 71
3
 72
19
 73
15
 74
0
 42
0.0000001
 43
0.0000001
 44
0.0000000001
 40
0.0
 40
0.0
 40
0.0
 40
0.0
 40
0.0623918057
 40
0.1288327497
 40
0.270353951
 40
0.4174439676
 40
0.5617182817
 40
0.6953254595
 40
0.7563187559
 40
0.8127988782
 40
0.8647373587
 40
0.9125509587
 40
0.9571581598
 40
1.0
 40
1.0
 40
1.0
 40
1.0
 10
34.785380844
 20
24.2781696206
 30
0.0
 10
34.785380844
 20
24.1931773219
 30
0.0
 10
34.773801036
 20
24.0175558127
 30
0.0
 10
34.7093080528
 20
23.6543984877
 30
0.0
 10
34.5533225876
 20
23.1933635355
 30
0.0
 10
34.2714241818
 20
22.6724201261
 30
0.0
 10
33.9134118719
 20
22.2140461614
 30
0.0
 10
33.5650802924
 20
21.9055497153
 30
0.0
 10
33.272676713
 20
21.7265554272
 30
0.0
 10
33.0608522592
 20
21.6329456917
 30
0.0
 10
32.8541785212
 20
21.5780532229
 30
0.0
 10
32.6566980488
 20
21.5634711863
 30
0.0
 10
32.4728044723
 20
21.5904712224
 30
0.0
 10
32.3613782109
 20
21.6367284068
 30
0.0
 10
32.3108401005
 20
21.6659151354
 30
0.0
  0
SPLINE
  5
2F5
100
AcDbEntity
  8
0
100
AcDbSpline
 62
7
  6
BYLAYER
 70
0
 71
3
 72
9
 73
5
 74
0
 42
0.0000001
 43
0.0000001
 44
0.0000000001
 40
0.0
 40
0.0
 40
0.0
 40
0.0
 40
0.2395813598
 40
1.0
 40
1.0
 40
1.0
 40
1.0
 10
50.7660231158
 20
66.5447928091
 30
0.0
 10
50.7719609156
 20
66.5165086293
 30
0.0
 10
50.7932551574
 20
66.3977272378
 30
0.0
 10
50.8012827569
 20
66.2767257939
 30
0.0
 10
50.8012827569
 20
66.1849963909
 30
0.0
  0
SPLINE
  5
2F6
100
AcDbEntity
  8
0
100
AcDbSpline
 62
7
  6
BYLAYER
 70
0
 71
3
 72
15
 73
11
 74
0
 42
0.0000001
 43
0.0000001
 44
0.0000000001
 40
0.0
 40
0.0
 40
0.0
 40
0.0
 40
0.1141242661
 40
0.2373486253
 40
0.3669740476
 40
0.5000015346
 40
0.6330288076
 40
0.7626536034
 40
0.8858770013
 40
1.0
 40
1.0
 40
1.0
 40
1.0
 10
30.1892059021
 20
21.6245826204
 30
0.0
 10
30.1892059021
 20
21.5100276186
 30
0.0
 10
30.1681721841
 20
21.2715665352
 30
0.0
 10
30.0845696213
 20
20.9118332233
 30
0.0
 10
29.9504813559
 20
20.5474495414
 30
0.0
 10
29.7711393533
 20
20.1921310199
 30
0.0
 10
29.5530975035
 20
19.8591564577
 30
0.0
 10
29.3045785302
 20
19.5608410893
 30
0.0
 10
29.034844336
 20
19.3085737569
 30
0.0
 10
28.8388496238
 20
19.1711287582
 30
0.0
 10
28.7396430358
 20
19.1138521498
 30
0.0
  0
SPLINE
  5
2F7
100
AcDbEntity
  8
0
100
AcDbSpline
 62
7
  6
BYLAYER
 70
0
 71
3
 72
12
 73
8
 74
0
 42
0.0000001
 43
0.0000001
 44
0.0000000001
 40
0.0
 40
0.0
 40
0.0
 40
0.0
 40
0.2894842122
 40
0.5486744391
 40
0.7816258062
 40
0.8918290155
 40
1.0
 40
1.0
 40
1.0
 40
1.0
 10
25.911227687
 20
17.4808755344
 30
0.0
 10
25.8212773742
 20
17.4289430071
 30
0.0
 10
25.6422888195
 20
17.3438457816
 30
0.0
 10
25.3674463721
 20
17.2773088717
 30
0.0
 10
25.1479229208
 20
17.2831697799
 30
0.0
 10
24.9912495849
 20
17.3265732144
 30
0.0
 10
24.9198618838
 20
17.3599469461
 30
0.0
 10
24.8862501927
 20
17.3793522298
 30
0.0
  0
SPLINE
  5
2F8
100
AcDbEntity
  8
0
100
AcDbSpline
 62
7
  6
BYLAYER
 70
0
 71
3
 72
15
 73
11
 74
0
 42
0.0000001
 43
0.0000001
 44
0.0000000001
 40
0.0
 40
0.0
 40
0.0
 40
0.0
 40
0.1141242661
 40
0.2373486253
 40
0.3669740476
 40
0.5000015346
 40
0.6330288076
 40
0.7626536034
 40
0.8858770013
 40
1.0
 40
1.0
 40
1.0
 40
1.0
 10
22.7646156114
 20
17.3380190047
 30
0.0
 10
22.7646156114
 20
17.223464003
 30
0.0
 10
22.7435818933
 20
16.9850029195
 30
0.0
 10
22.6599793305
 20
16.6252696077
 30
0.0
 10
22.5258910652
 20
16.2608859257
 30
0.0
 10
22.3465490625
 20
15.9055674043
 30
0.0
 10
22.1285072127
 20
15.5725928421
 30
0.0
 10
21.8799882394
 20
15.2742774737
 30
0.0
 10
21.6102540452
 20
15.0220101413
 30
0.0
 10
21.4142593331
 20
14.8845651426
 30
0.0
 10
21.3150527451
 20
14.8272885342
 30
0.0
  0
SPLINE
  5
2F9
100
AcDbEntity
  8
0
100
AcDbSpline
 62
7
  6
BYLAYER
 70
0
 71
3
 72
9
 73
5
 74
0
 42
0.0000001
 43
0.0000001
 44
0.0000000001
 40
0.0
 40
0.0
 40
0.0
 40
0.0
 40
0.2568618448
 40
1.0
 40
1.0
 40
1.0
 40
1.0
 10
20.9615008265
 20
14.6231664573
 30
0.0
 10
20.9443154889
 20
14.6132445572
 30
0.0
 10
20.8768157278
 20
14.5756639874
 30
0.0
 10
20.8069060785
 20
14.5423540267
 30
0.0
 10
20.7537895175
 20
14.5205669028
 30
0.0
  0
SPLINE
  5
2FA
100
AcDbEntity
  8
0
100
AcDbSpline
 62
7
  6
BYLAYER
 70
0
 71
3
 72
13
 73
9
 74
0
 42
0.0000001
 43
0.0000001
 44
0.0000000001
 40
0.0
 40
0.0
 40
0.0
 40
0.0
 40
0.2995049519
 40
0.5814683504
 40
0.7055777119
 40
0.8152341031
 40
0.911670615
 40
1.0
 40
1.0
 40
1.0
 40
1.0
 10
30.9152578046
 20
20.5754321894
 30
0.0
 10
30.9262047409
 20
20.6036481398
 30
0.0
 10
30.9550137312
 20
20.6556679925
 30
0.0
 10
31.0049566396
 20
20.7081387801
 30
0.0
 10
31.0496652762
 20
20.7354982131
 30
0.0
 10
31.0815004905
 20
20.7465491737
 30
0.0
 10
31.1117144126
 20
20.7481683031
 30
0.0
 10
31.1299811569
 20
20.7421370145
 30
0.0
 10
31.1377070643
 20
20.7376672533
 30
0.0
  0
SPLINE
  5
2FB
100
AcDbEntity
  8
0
100
AcDbSpline
 62
7
  6
BYLAYER
 70
0
 71
3
 72
9
 73
5
 74
0
 42
0.0000001
 43
0.0000001
 44
0.0000000001
 40
0.0
 40
0.0
 40
0.0
 40
0.0
 40
0.2397363974
 40
1.0
 40
1.0
 40
1.0
 40
1.0
 10
30.1572627299
 20
21.9554630383
 30
0.0
 10
30.1626410681
 20
21.9294219916
 30
0.0
 10
30.1819221925
 20
21.8201542743
 30
0.0
 10
30.1892059021
 20
21.7089081673
 30
0.0
 10
30.1892059021
 20
21.6245826204
 30
0.0
  0
SPLINE
  5
2FC
100
AcDbEntity
  8
0
100
AcDbSpline
 62
7
  6
BYLAYER
 70
0
 71
3
 72
9
 73
5
 74
0
 42
0.0000001
 43
0.0000001
 44
0.0000000001
 40
0.0
 40
0.0
 40
0.0
 40
0.0
 40
0.2483052992
 40
1.0
 40
1.0
 40
1.0
 40
1.0
 10
54.3872813554
 20
69.1220547166
 30
0.0
 10
54.3670148291
 20
69.1337433023
 30
0.0
 10
54.2837643487
 20
69.1779465908
 30
0.0
 10
54.194313084
 20
69.210335611
 30
0.0
 10
54.1256489231
 20
69.2276992154
 30
0.0
  0
SPLINE
  5
2FD
100
AcDbEntity
  8
0
100
AcDbSpline
 62
7
  6
BYLAYER
 70
0
 71
3
 72
13
 73
9
 74
0
 42
0.0000001
 43
0.0000001
 44
0.0000000001
 40
0.0
 40
0.0
 40
0.0
 40
0.0
 40
0.2995051997
 40
0.5814684583
 40
0.7055777223
 40
0.8152340509
 40
0.9116705646
 40
1.0
 40
1.0
 40
1.0
 40
1.0
 10
23.4906674047
 20
16.2888691516
 30
0.0
 10
23.5016144583
 20
16.3170850627
 30
0.0
 10
23.5304235974
 20
16.3691047952
 30
0.0
 10
23.5803666139
 20
16.421575415
 30
0.0
 10
23.6250752641
 20
16.4489347037
 30
0.0
 10
23.656910469
 20
16.4599855747
 30
0.0
 10
23.6871243719
 20
16.4616046447
 30
0.0
 10
23.7053911004
 20
16.4555733432
 30
0.0
 10
23.7131170078
 20
16.4511035833
 30
0.0
  0
SPLINE
  5
2FE
100
AcDbEntity
  8
0
100
AcDbSpline
 62
7
  6
BYLAYER
 70
0
 71
3
 72
25
 73
21
 74
0
 42
0.0000001
 43
0.0000001
 44
0.0000000001
 40
0.0
 40
0.0
 40
0.0
 40
0.0
 40
0.0972992675
 40
0.2065041645
 40
0.3248023993
 40
0.4499673678
 40
0.5146581064
 40
0.5805796871
 40
0.6476163321
 40
0.7157480409
 40
0.7849378882
 40
0.8199907357
 40
0.8554343768
 40
0.8913511456
 40
0.9278362387
 40
0.9464000611
 40
0.9651854971
 40
0.9838572863
 40
0.9925701658
 40
1.0
 40
1.0
 40
1.0
 40
1.0
 10
19.9467138945
 20
10.1255769152
 30
0.0
 10
19.9170495192
 20
10.1590221128
 30
0.0
 10
19.8562039976
 20
10.2318994774
 30
0.0
 10
19.7667855938
 20
10.351452051
 30
0.0
 10
19.6759010426
 20
10.4856702975
 30
0.0
 10
19.6019384924
 20
10.6064600675
 30
0.0
 10
19.5437851352
 20
10.7085899928
 30
0.0
 10
19.5004549114
 20
10.7884057483
 30
0.0
 10
19.4580255777
 20
10.870485994
 30
0.0
 10
19.4163151971
 20
10.9546125217
 30
0.0
 10
19.3822950332
 20
11.0261355168
 30
0.0
 10
19.3550575423
 20
11.0842490936
 30
0.0
 10
19.3341972781
 20
11.1284695498
 30
0.0
 10
19.3126868254
 20
11.1731055946
 30
0.0
 10
19.2938445568
 20
11.2104286471
 30
0.0
 10
19.2771621532
 20
11.2399740802
 30
0.0
 10
19.2637293421
 20
11.2619410792
 30
0.0
 10
19.2501085298
 20
11.2784290497
 30
0.0
 10
19.2378114582
 20
11.2886980245
 30
0.0
 10
19.2312561032
 20
11.2924030304
 30
0.0
 10
19.2280171009
 20
11.2934811494
 30
0.0
  0
SPLINE
  5
2FF
100
AcDbEntity
  8
0
100
AcDbSpline
 62
7
  6
BYLAYER
 70
0
 71
3
 72
23
 73
19
 74
0
 42
0.0000001
 43
0.0000001
 44
0.0000000001
 40
0.0
 40
0.0
 40
0.0
 40
0.0
 40
0.0459589348
 40
0.0805468464
 40
0.1113842981
 40
0.142237791
 40
0.1733414493
 40
0.2048322056
 40
0.2683270785
 40
0.3320449336
 40
0.3957242415
 40
0.4589982572
 40
0.5216798827
 40
0.5836755739
 40
0.6450084323
 40
0.7657300407
 40
0.8839052267
 40
1.0
 40
1.0
 40
1.0
 40
1.0
 10
7.2220706588
 20
18.2249607806
 30
0.0
 10
7.2168499272
 20
18.229194565
 30
0.0
 10
7.2059507854
 20
18.2350434121
 30
0.0
 10
7.1887555035
 20
18.2340456731
 30
0.0
 10
7.177077656
 20
18.2255380813
 30
0.0
 10
7.1674580324
 20
18.2160168036
 30
0.0
 10
7.158926237
 20
18.2052808574
 30
0.0
 10
7.1488153809
 20
18.1898497804
 30
0.0
 10
7.1376389995
 20
18.1694672589
 30
0.0
 10
7.1259950166
 20
18.1440746968
 30
0.0
 10
7.1158604657
 20
18.1180823038
 30
0.0
 10
7.1068382615
 20
18.0918498083
 30
0.0
 10
7.0988189405
 20
18.0655516485
 30
0.0
 10
7.0917092273
 20
18.0392873432
 30
0.0
 10
7.0835390657
 20
18.004535725
 30
0.0
 10
7.075674717
 20
17.9612993565
 30
0.0
 10
7.0697937922
 20
17.9096762328
 30
0.0
 10
7.0684404091
 20
17.8753993402
 30
0.0
 10
7.0684475323
 20
17.8584200143
 30
0.0
  0
SPLINE
  5
300
100
AcDbEntity
  8
0
100
AcDbSpline
 62
7
  6
BYLAYER
 70
0
 71
3
 72
13
 73
9
 74
0
 42
0.0000001
 43
0.0000001
 44
0.0000000001
 40
0.0
 40
0.0
 40
0.0
 40
0.0
 40
0.088329821
 40
0.1847666598
 40
0.2944231352
 40
0.418532611
 40
0.7004955967
 40
1.0
 40
1.0
 40
1.0
 40
1.0
 10
25.9405126161
 20
15.1651451688
 30
0.0
 10
25.9327866708
 20
15.1696149403
 30
0.0
 10
25.9145198875
 20
15.1756463212
 30
0.0
 10
25.8843058931
 20
15.1740271305
 30
0.0
 10
25.8524706308
 20
15.1629762399
 30
0.0
 10
25.8077620574
 20
15.1356168001
 30
0.0
 10
25.7578191078
 20
15.0831462744
 30
0.0
 10
25.7290100629
 20
15.0311266097
 30
0.0
 10
25.7180630389
 20
15.0029107749
 30
0.0
  0
SPLINE
  5
301
100
AcDbEntity
  8
0
100
AcDbSpline
 62
7
  6
BYLAYER
 70
0
 71
3
 72
9
 73
5
 74
0
 42
0.0000001
 43
0.0000001
 44
0.0000000001
 40
0.0
 40
0.0
 40
0.0
 40
0.0
 40
0.2397363974
 40
1.0
 40
1.0
 40
1.0
 40
1.0
 10
22.7326724392
 20
17.6688994226
 30
0.0
 10
22.7380507773
 20
17.642858376
 30
0.0
 10
22.7573319018
 20
17.5335906587
 30
0.0
 10
22.7646156114
 20
17.4223445517
 30
0.0
 10
22.7646156114
 20
17.3380190047
 30
0.0
  0
SPLINE
  5
302
100
AcDbEntity
  8
0
100
AcDbSpline
 62
7
  6
BYLAYER
 70
0
 71
3
 72
13
 73
9
 74
0
 42
0.0000001
 43
0.0000001
 44
0.0000000001
 40
0.0
 40
0.0
 40
0.0
 40
0.0
 40
0.0883297706
 40
0.1847666077
 40
0.2944231455
 40
0.418532719
 40
0.7004958445
 40
1.0
 40
1.0
 40
1.0
 40
1.0
 10
33.3651026725
 20
19.4517088388
 30
0.0
 10
33.3573767274
 20
19.4561786116
 30
0.0
 10
33.3391099281
 20
19.4622099795
 30
0.0
 10
33.3088959147
 20
19.4605907295
 30
0.0
 10
33.277060643
 20
19.4495397494
 30
0.0
 10
33.232352083
 20
19.4221801652
 30
0.0
 10
33.1824092416
 20
19.3697094717
 30
0.0
 10
33.1536003455
 20
19.3176896867
 30
0.0
 10
33.1426534388
 20
19.2894738127
 30
0.0
  0
SPLINE
  5
303
100
AcDbEntity
  8
0
100
AcDbSpline
 62
7
  6
BYLAYER
 70
0
 71
3
 72
15
 73
11
 74
0
 42
0.0000001
 43
0.0000001
 44
0.0000000001
 40
0.0
 40
0.0
 40
0.0
 40
0.0
 40
0.1168265313
 40
0.2436696118
 40
0.377043619
 40
0.512917968
 40
0.6469328338
 40
0.774945125
 40
0.8934231512
 40
1.0
 40
1.0
 40
1.0
 40
1.0
 10
50.8012827569
 20
66.1849963909
 30
0.0
 10
50.8012827569
 20
66.0467130418
 30
0.0
 10
50.7727401087
 20
65.7579977901
 30
0.0
 10
50.6608748229
 20
65.3245270801
 30
0.0
 10
50.4829801251
 20
64.8892774845
 30
0.0
 10
50.2475369038
 20
64.4726278157
 30
0.0
 10
49.9653813041
 20
64.093906158
 30
0.0
 10
49.6495440839
 20
63.7706597634
 30
0.0
 10
49.3146807952
 20
63.517863759
 30
0.0
 10
49.0745966276
 20
63.3972833007
 30
0.0
 10
48.9558480236
 20
63.3547052934
 30
0.0
  0
SPLINE
  5
304
100
AcDbEntity
  8
0
100
AcDbSpline
 62
7
  6
BYLAYER
 70
0
 71
3
 72
28
 73
24
 74
0
 42
0.0000001
 43
0.0000001
 44
0.0000000001
 40
0.0
 40
0.0
 40
0.0
 40
0.0
 40
0.0079768277
 40
0.0150267369
 40
0.0211230119
 40
0.0269906831
 40
0.0329026683
 40
0.0387933921
 40
0.0507149746
 40
0.0630638912
 40
0.075711102
 40
0.1015723425
 40
0.1280946373
 40
0.1551940584
 40
0.1828425676
 40
0.210993858
 40
0.2686260026
 40
0.3279015052
 40
0.4511026973
 40
0.5803177344
 40
0.715245351
 40
0.8554252997
 40
1.0
 40
1.0
 40
1.0
 40
1.0
 10
19.2280913595
 20
47.7094005739
 30
0.0
 10
19.2308940146
 20
47.7069410758
 30
0.0
 10
19.2366450711
 20
47.7028262925
 30
0.0
 10
19.2459450847
 20
47.6990169249
 30
0.0
 10
19.2550727765
 20
47.6990657602
 30
0.0
 10
19.2629745121
 20
47.7020829506
 30
0.0
 10
19.2700745275
 20
47.7063199297
 30
0.0
 10
19.2791607117
 20
47.7126969997
 30
0.0
 10
19.2896616555
 20
47.7221875699
 30
0.0
 10
19.3010378053
 20
47.7351865445
 30
0.0
 10
19.3157243306
 20
47.7538866629
 30
0.0
 10
19.3334436687
 20
47.7786007802
 30
0.0
 10
19.3542190901
 20
47.8094062065
 30
0.0
 10
19.3748305377
 20
47.8413219318
 30
0.0
 10
19.3952998698
 20
47.8742277269
 30
0.0
 10
19.4228103945
 20
47.9195576289
 30
0.0
 10
19.457567597
 20
47.9777813578
 30
0.0
 10
19.5147501148
 20
48.0743627458
 30
0.0
 10
19.588706994
 20
48.1999004728
 30
0.0
 10
19.6792116408
 20
48.3567273837
 30
0.0
 10
19.7712382002
 20
48.5218307051
 30
0.0
 10
19.8620779924
 20
48.6957404524
 30
0.0
 10
19.9193356366
 20
48.8159803311
 30
0.0
 10
19.9464723427
 20
48.8778749802
 30
0.0
  0
ENDSEC
  0
SECTION
  2
OBJECTS
  0
DICTIONARY
  5
C
100
AcDbDictionary
280
0
281
1
  3
ACAD_GROUP
350
D
  3
ACAD_MLINESTYLE
350
17
  3
ACAD_LAYOUT
350
1A
  3
ACAD_PLOTSETTINGS
350
19
  3
ACAD_PLOTSTYLENAME
350
E
  0
DICTIONARY
  5
D
102
{ACAD_REACTORS
330
C
102
}
100
AcDbDictionary
280
0
281
1
  0
ACDBDICTIONARYWDFLT
  5
E
102
{ACAD_REACTORS
330
C
102
}
100
AcDbDictionary
281
1
  3
Normal
350
F
100
AcDbDictionaryWithDefault
340
F
  0
DICTIONARY
  5
17
102
{ACAD_REACTORS
330
C
102
}
100
AcDbDictionary
280
0
281
1
  3
Standard
350
18
  0
DICTIONARY
  5
19
102
{ACAD_REACTORS
330
C
102
}
100
AcDbDictionary
281
1
  0
DICTIONARY
  5
1A
102
{ACAD_REACTORS
330
C
102
}
100
AcDbDictionary
281
1
  3
Model
350
305
  3
Layout1
350
306
  0
ACDBPLACEHOLDER
  5
F
102
{ACAD_REACTORS
330
E
102
}
  0
MLINESTYLE
  5
18
102
{ACAD_REACTORS
330
17
102
}
100
AcDbMlineStyle
  2
STANDARD
 70
0
  3

 62
256
 51
90.0
 52
90.0
 71
2
 49
0.5
 62
256
  6
BYLAYER
 49
-0.5
 62
256
  6
BYLAYER
  0
LAYOUT
  5
305
102
{ACAD_REACTORS
330
1A
102
}
100
AcDbPlotSettings
  1

  2
none_device
  4

  6

 40
0.0
 41
0.0
 42
0.0
 43
0.0
 44
210.0
 45
297.0
 46
0.0
 47
0.0
 48
0.0
 49
0.0
140
0.0
141
0.0
142
1.0
143
1.0
 70
1024
 72
1
 73
0
 74
0
  7

 75
0
147
1.0
148
0.0
149
0.0
100
AcDbLayout
  1
Model
 70
0
 71
0
 10
0.0
 20
0.0
 11
210.0
 21
297.0
 12
0.0
 22
0.0
 32
0.0
 14
0.0
 24
0.0
 34
0.0
 15
0.0
 25
0.0
 35
0.0
146
0.0
 13
0.0
 23
0.0
 33
0.0
 16
1.0
 26
0.0
 36
0.0
 17
0.0
 27
1.0
 37
0.0
 76
0
330
210
345
0
346
0
  0
LAYOUT
  5
306
102
{ACAD_REACTORS
330
1A
102
}
100
AcDbPlotSettings
  1

  2
none_device
  4

  6

 40
0.0
 41
0.0
 42
0.0
 43
0.0
 44
210.0
 45
297.0
 46
0.0
 47
0.0
 48
0.0
 49
0.0
140
0.0
141
0.0
142
1.0
143
1.0
 70
0
 72
1
 73
0
 74
0
  7

 75
0
147
1.0
148
0.0
149
0.0
100
AcDbLayout
  1
Layout1
 70
0
 71
1
 10
0.0
 20
0.0
 11
210.0
 21
297.0
 12
0.0
 22
0.0
 32
0.0
 14
0.0
 24
0.0
 34
0.0
 15
0.0
 25
0.0
 35
0.0
146
0.0
 13
0.0
 23
0.0
 33
0.0
 16
1.0
 26
0.0
 36
0.0
 17
0.0
 27
1.0
 37
0.0
 76
0
330
211
345
0
346
0
  0
ENDSEC
  0
EOF
