999
DXF file: C:\Users\sesa63760\Dev\_Creo\CAD\MCADPD0003997_3D-CAD\drw0001_5.dxf
999
Pro/ENGINEER 2019471 by Parametric Technology Corporation
  0
SECTION
  2
HEADER
  9
$ACADVER
  1
AC1024
  9
$DWGCODEPAGE
  3
ANSI_1252
  9
$EXTMAX
 10
126.6801110455
 20
179.1618713357
 30
0.0
  9
$EXTMIN
 10
0.0
 20
0.0
 30
0.0
  9
$LIMMIN
 10
0.0
 20
0.0
  9
$LIMMAX
 10
126.6801110455
 20
179.1618713357
  9
$VIEWCTR
 10
63.3400555227
 20
89.5809356679
  9
$VIEWSIZE
 40
179.1618713357
  9
$CLAYER
  8
0
  9
$LTSCALE
 40
11.6786997611
  9
$CELTYPE
  6
BYLAYER
  9
$DIMSCALE
 40
1.0
  9
$DIMASZ
 40
1.5080965601
  9
$DIMEXO
 40
1.0
  9
$DIMDLI
 40
8.068919835
  9
$DIMEXE
 40
1.0
  9
$DIMCEN
 40
1.9110599609
  9
$DIMLFAC
 40
1.0
  9
$DIMBLK
  1
_FILLED
  9
$DIMALT
 70
0
  9
$DIMALTF
 40
0.0393700787
  9
$DIMTXT
 40
2.1113351841
  9
$DIMTOL
 70
1
  9
$DIMLIM
 70
0
  9
$DIMTFAC
 40
1.0
  9
$DIMTP
 40
0.01
  9
$DIMTM
 40
0.01
  9
$DIMGAP
 40
0.625
  9
$DIMDSEP
 70
46
  9
$AUNITS
 70
0
  9
$PDMODE
 70
3
  9
$PDSIZE
 40
0.3125
  9
$HANDSEED
  5
28E
  9
$TILEMODE
 70
1
  9
$MEASUREMENT
 70
1
  9
$INSUNITS
 70
4
  0
ENDSEC
  0
SECTION
  2
CLASSES
  0
CLASS
  1
ACDBDICTIONARYWDFLT
  2
AcDbDictionaryWithDefault
  3
AutoCAD 2000
 90
0
 91
1
280
0
281
0
  0
CLASS
  1
ACDBPLACEHOLDER
  2
AcDbPlaceHolder
  3
AutoCAD 2000
 90
0
 91
1
280
0
281
0
  0
CLASS
  1
LAYOUT
  2
AcDbLayout
  3
AutoCAD 2000
 90
0
 91
0
280
0
281
0
  0
ENDSEC
  0
SECTION
  2
TABLES
  0
TABLE
  2
VPORT
  5
8
100
AcDbSymbolTable
 70
2
  0
VPORT
  5
1F4
100
AcDbSymbolTableRecord
100
AcDbViewportTableRecord
  2
*ACTIVE
 70
0
 10
0.0
 20
0.0
 11
1.0
 21
1.0
 12
63.3400555227
 22
89.5809356679
 13
0.0
 23
0.0
 14
1.0
 24
1.0
 15
0.0
 25
0.0
 16
0.0
 26
0.0
 36
1.0
 17
0.0
 27
0.0
 37
0.0
 40
179.1618713357
 41
0.7070707071
 42
50.0
 43
0.0
 44
0.0
 50
0.0
 51
0.0
 71
0
 72
100
 73
1
 74
1
 75
0
 76
0
 77
0
 78
0
  0
ENDTAB
  0
TABLE
  2
LTYPE
  5
5
100
AcDbSymbolTable
 70
6
  0
LTYPE
  5
14
100
AcDbSymbolTableRecord
100
AcDbLinetypeTableRecord
  2
BYBLOCK
 70
0
  3

 72
65
 73
0
 40
0.0
  0
LTYPE
  5
15
100
AcDbSymbolTableRecord
100
AcDbLinetypeTableRecord
  2
BYLAYER
 70
0
  3

 72
65
 73
0
 40
0.0
  0
LTYPE
  5
16
100
AcDbSymbolTableRecord
100
AcDbLinetypeTableRecord
  2
CONTINUOUS
 70
64
  3
Solid line
 72
65
 73
0
 40
0.0
  0
LTYPE
  5
1F5
100
AcDbSymbolTableRecord
100
AcDbLinetypeTableRecord
  2
CENTER
 70
64
  3
____ _ ____ _ ____ _ ____ _ ____ _ ____ _ ____
 72
65
 73
4
 40
0.6
 49
0.375
 74
0
 49
-0.075
 74
0
 49
0.075
 74
0
 49
-0.075
 74
0
  0
LTYPE
  5
1F6
100
AcDbSymbolTableRecord
100
AcDbLinetypeTableRecord
  2
HIDDEN
 70
64
  3
- - - - - - - - - - - - - - - - - - - -
 72
65
 73
2
 40
0.2
 49
0.1
 74
0
 49
-0.1
 74
0
  0
LTYPE
  5
1F7
100
AcDbSymbolTableRecord
100
AcDbLinetypeTableRecord
  2
PHANTOM
 70
64
  3
_____ _ _ _____ _ _ _____ _ _ _____
 72
65
 73
6
 40
0.8
 49
0.45
 74
0
 49
-0.05
 74
0
 49
0.1
 74
0
 49
-0.05
 74
0
 49
0.1
 74
0
 49
-0.05
 74
0
  0
LTYPE
  5
1F8
100
AcDbSymbolTableRecord
100
AcDbLinetypeTableRecord
  2
DOT
 70
64
  3
. . . . . . . . . . . . . . . . . . . .
 72
65
 73
2
 40
0.2
 49
0.1
 74
0
 49
-0.1
 74
0
  0
LTYPE
  5
1F9
100
AcDbSymbolTableRecord
100
AcDbLinetypeTableRecord
  2
DASHED
 70
64
  3
- - - - - - - - - - - - - - - - - - - -
 72
65
 73
2
 40
0.2
 49
0.1
 74
0
 49
-0.1
 74
0
  0
ENDTAB
  0
TABLE
  2
LAYER
  5
2
100
AcDbSymbolTable
 70
36
  0
LAYER
  5
10
100
AcDbSymbolTableRecord
100
AcDbLayerTableRecord
  2
0
 70
0
 62
7
  6
CONTINUOUS
370
-3
390
F
  0
LAYER
  5
1FA
100
AcDbSymbolTableRecord
100
AcDbLayerTableRecord
  2
DEFAULT_1
 70
0
 62
7
  6
CENTER
370
-3
390
F
  0
LAYER
  5
1FB
100
AcDbSymbolTableRecord
100
AcDbLayerTableRecord
  2
DEFAULT_2
 70
0
 62
7
  6
HIDDEN
370
-3
390
F
  0
LAYER
  5
1FC
100
AcDbSymbolTableRecord
100
AcDbLayerTableRecord
  2
DEFAULT_3
 70
0
 62
7
  6
PHANTOM
370
-3
390
F
  0
LAYER
  5
1FD
100
AcDbSymbolTableRecord
100
AcDbLayerTableRecord
  2
00_COMPONENTS
 70
0
 62
7
  6
CONTINUOUS
370
-3
390
F
  0
LAYER
  5
1FE
100
AcDbSymbolTableRecord
100
AcDbLayerTableRecord
  2
00_COMPONENTS_1
 70
0
 62
7
  6
CONTINUOUS
370
-3
390
F
  0
LAYER
  5
1FF
100
AcDbSymbolTableRecord
100
AcDbLayerTableRecord
  2
01_1_DEFAULT_DATUMS
 70
0
 62
7
  6
CONTINUOUS
370
-3
390
F
  0
LAYER
  5
200
100
AcDbSymbolTableRecord
100
AcDbLayerTableRecord
  2
01_PLANES
 70
0
 62
7
  6
CONTINUOUS
370
-3
390
F
  0
LAYER
  5
201
100
AcDbSymbolTableRecord
100
AcDbLayerTableRecord
  2
02_COORD_SYS
 70
0
 62
7
  6
CONTINUOUS
370
-3
390
F
  0
LAYER
  5
202
100
AcDbSymbolTableRecord
100
AcDbLayerTableRecord
  2
03_AXES
 70
0
 62
7
  6
CONTINUOUS
370
-3
390
F
  0
LAYER
  5
203
100
AcDbSymbolTableRecord
100
AcDbLayerTableRecord
  2
03_AXES_1
 70
0
 62
7
  6
CONTINUOUS
370
-3
390
F
  0
LAYER
  5
204
100
AcDbSymbolTableRecord
100
AcDbLayerTableRecord
  2
04_POINTS
 70
0
 62
7
  6
CONTINUOUS
370
-3
390
F
  0
LAYER
  5
205
100
AcDbSymbolTableRecord
100
AcDbLayerTableRecord
  2
05_CURVES
 70
0
 62
7
  6
CONTINUOUS
370
-3
390
F
  0
LAYER
  5
206
100
AcDbSymbolTableRecord
100
AcDbLayerTableRecord
  2
06_SURFS
 70
0
 62
7
  6
CONTINUOUS
370
-3
390
F
  0
LAYER
  5
207
100
AcDbSymbolTableRecord
100
AcDbLayerTableRecord
  2
07_COSMETICS
 70
0
 62
7
  6
CONTINUOUS
370
-3
390
F
  0
LAYER
  5
208
100
AcDbSymbolTableRecord
100
AcDbLayerTableRecord
  2
10_NOTES
 70
0
 62
7
  6
CONTINUOUS
370
-3
390
F
  0
LAYER
  5
209
100
AcDbSymbolTableRecord
100
AcDbLayerTableRecord
  2
11_NOTES_PUB
 70
0
 62
7
  6
CONTINUOUS
370
-3
390
F
  0
LAYER
  5
20A
100
AcDbSymbolTableRecord
100
AcDbLayerTableRecord
  2
13_REF_GTOL
 70
0
 62
7
  6
CONTINUOUS
370
-3
390
F
  0
LAYER
  5
20B
100
AcDbSymbolTableRecord
100
AcDbLayerTableRecord
  2
16_MISC
 70
0
 62
7
  6
CONTINUOUS
370
-3
390
F
  0
LAYER
  5
20C
100
AcDbSymbolTableRecord
100
AcDbLayerTableRecord
  2
17_NO_PRINT
 70
0
 62
7
  6
CONTINUOUS
370
-3
390
F
  0
LAYER
  5
20D
100
AcDbSymbolTableRecord
100
AcDbLayerTableRecord
  2
18_DATUM_CAMS_JOINTS
 70
0
 62
7
  6
CONTINUOUS
370
-3
390
F
  0
LAYER
  5
20E
100
AcDbSymbolTableRecord
100
AcDbLayerTableRecord
  2
19_DATUM_FUNCTIONAL
 70
0
 62
7
  6
CONTINUOUS
370
-3
390
F
  0
LAYER
  5
20F
100
AcDbSymbolTableRecord
100
AcDbLayerTableRecord
  2
20_DATUM_KINEMATIC_SCHEME
 70
0
 62
7
  6
CONTINUOUS
370
-3
390
F
  0
LAYER
  5
210
100
AcDbSymbolTableRecord
100
AcDbLayerTableRecord
  2
INTFCLR_20
 70
0
 62
7
  6
CONTINUOUS
370
-3
390
F
  0
LAYER
  5
211
100
AcDbSymbolTableRecord
100
AcDbLayerTableRecord
  2
INTFCLR_97
 70
0
 62
7
  6
CONTINUOUS
370
-3
390
F
  0
LAYER
  5
212
100
AcDbSymbolTableRecord
100
AcDbLayerTableRecord
  2
INTF_BLANK
 70
0
 62
7
  6
CONTINUOUS
370
-3
390
F
  0
LAYER
  5
213
100
AcDbSymbolTableRecord
100
AcDbLayerTableRecord
  2
INTF_YELLOW
 70
0
 62
7
  6
CONTINUOUS
370
-3
390
F
  0
LAYER
  5
214
100
AcDbSymbolTableRecord
100
AcDbLayerTableRecord
  2
_BLACK_HOLE
 70
0
 62
7
  6
CONTINUOUS
370
-3
390
F
  0
ENDTAB
  0
TABLE
  2
STYLE
  5
3
100
AcDbSymbolTable
 70
1
  0
STYLE
  5
11
100
AcDbSymbolTableRecord
100
AcDbTextStyleTableRecord
  2
STANDARD
 70
0
 40
0.0
 41
1.0
 50
0.0
 71
0
 42
0.2
  3
ARIAL.TTF
  4

  0
STYLE
  5
215
100
AcDbSymbolTableRecord
100
AcDbTextStyleTableRecord
  2
TEXTSTYLE_1
 70
0
 40
0.0
 41
0.8
 50
0.0
 71
0
 42
0.2
  3
gdt
  4

  0
ENDTAB
  0
TABLE
  2
VIEW
  5
6
100
AcDbSymbolTable
 70
0
  0
ENDTAB
  0
TABLE
  2
UCS
  5
7
100
AcDbSymbolTable
 70
0
  0
ENDTAB
  0
TABLE
  2
APPID
  5
9
100
AcDbSymbolTable
 70
1
  0
APPID
  5
216
100
AcDbSymbolTableRecord
100
AcDbRegAppTableRecord
  2
ACAD
 70
0
  0
ENDTAB
  0
TABLE
  2
BLOCK_RECORD
  5
1
100
AcDbSymbolTable
 70
0
  0
BLOCK_RECORD
  5
217
100
AcDbSymbolTableRecord
100
AcDbBlockTableRecord
  2
*Model_Space
  0
BLOCK_RECORD
  5
218
100
AcDbSymbolTableRecord
100
AcDbBlockTableRecord
  2
*Paper_Space
  0
BLOCK_RECORD
  5
219
100
AcDbSymbolTableRecord
100
AcDbBlockTableRecord
  2
_FILLED
  0
ENDTAB
  0
TABLE
  2
DIMSTYLE
  5
A
100
AcDbSymbolTable
 70
1
100
AcDbDimStyleTable
 71
0
  0
DIMSTYLE
105
21A
100
AcDbSymbolTableRecord
100
AcDbDimStyleTableRecord
  2
STANDARD
 70
0
  3

  4

 40
1.0
 41
1.5080965601
 42
1.0
 43
0.38
 44
1.0
 45
0.0
 46
0.0
 47
0.01
 48
0.01
140
2.1113351841
141
0.09
142
0.0
143
25.4
144
1.0
145
0.0
146
1.0
147
0.625
 71
1
 72
0
 73
0
 74
0
 75
0
 76
0
 77
1
 78
8
 79
2
170
0
171
1
172
0
173
0
174
0
175
0
176
0
177
0
178
0
270
2
179
2
271
2
272
2
273
2
274
2
275
0
280
0
281
0
282
0
283
1
284
8
285
0
286
0
287
3
288
0
340
11
278
46
341
219
342
219
343
219
344
219
  0
ENDTAB
  0
ENDSEC
  0
SECTION
  2
BLOCKS
  0
BLOCK
  5
20
100
AcDbEntity
  8
0
100
AcDbBlockBegin
  2
*Model_Space
 70
0
 10
0.0
 20
0.0
 30
0.0
  3
*Model_Space
  1

  0
ENDBLK
  5
21
100
AcDbEntity
  8
0
100
AcDbBlockEnd
  0
BLOCK
  5
1C
100
AcDbEntity
  8
0
100
AcDbBlockBegin
  2
*Paper_Space
 70
0
 10
0.0
 20
0.0
 30
0.0
  3
*Paper_Space
  1

  0
ENDBLK
  5
1D
100
AcDbEntity
  8
0
100
AcDbBlockEnd
  0
BLOCK
  5
21B
100
AcDbEntity
  8
0
100
AcDbBlockBegin
  2
_FILLED
 70
64
 10
0.0
 20
0.0
  3
_FILLED
  1

  0
SOLID
  5
21C
100
AcDbEntity
  8
0
  6
BYBLOCK
 62
0
100
AcDbTrace
 10
0.0
 20
0.0
 11
-1.0
 21
0.25
 12
-1.0
 22
-0.25
 13
-1.0
 23
-0.25
  0
ENDBLK
  5
21D
100
AcDbEntity
  8
0
  6
BYBLOCK
 62
0
100
AcDbBlockEnd
  0
ENDSEC
  0
SECTION
  2
ENTITIES
  0
LINE
  5
21E
100
AcDbEntity
  8
00_COMPONENTS_1
100
AcDbLine
 62
7
  6
BYLAYER
 10
66.967307907
 20
45.300228044
 11
45.867307907
 21
45.300228044
  0
LINE
  5
21F
100
AcDbEntity
  8
00_COMPONENTS_1
100
AcDbLine
 62
7
  6
BYLAYER
 10
32.767307907
 20
45.300228044
 11
28.2197940092
 21
45.300228044
  0
LINE
  5
220
100
AcDbEntity
  8
00_COMPONENTS_1
100
AcDbLine
 62
7
  6
BYLAYER
 10
26.467307907
 20
121.400228044
 11
28.1397438399
 21
133.300228044
  0
LINE
  5
221
100
AcDbEntity
  8
00_COMPONENTS_1
100
AcDbLine
 62
7
  6
BYLAYER
 10
26.467307907
 20
46.300228044
 11
77.4673047947
 21
46.300228044
  0
LINE
  5
222
100
AcDbEntity
  8
00_COMPONENTS_1
100
AcDbLine
 62
7
  6
BYLAYER
 10
26.467307907
 20
90.800228044
 11
26.467307907
 21
89.800228044
  0
LINE
  5
223
100
AcDbEntity
  8
00_COMPONENTS_1
100
AcDbLine
 62
7
  6
BYLAYER
 10
26.467307907
 20
70.8495016603
 11
26.467307907
 21
46.300228044
  0
LINE
  5
224
100
AcDbEntity
  8
00_COMPONENTS_1
100
AcDbLine
 62
7
  6
BYLAYER
 10
26.467307907
 20
105.600228044
 11
26.467307907
 21
121.400228044
  0
LINE
  5
225
100
AcDbEntity
  8
00_COMPONENTS_1
100
AcDbLine
 62
7
  6
BYLAYER
 10
27.167307907
 20
94.577530709
 11
27.167307907
 21
85.0229253791
  0
LINE
  5
226
100
AcDbEntity
  8
00_COMPONENTS_1
100
AcDbLine
 62
7
  6
BYLAYER
 10
28.2197940092
 20
134.300228044
 11
28.2197940092
 21
133.300228044
  0
LINE
  5
227
100
AcDbEntity
  8
00_COMPONENTS_1
100
AcDbLine
 62
7
  6
BYLAYER
 10
28.2197940092
 20
45.300228044
 11
28.2197940092
 21
46.300228044
  0
LINE
  5
228
100
AcDbEntity
  8
00_COMPONENTS_1
100
AcDbLine
 62
7
  6
BYLAYER
 10
30.767307907
 20
109.500228044
 11
30.126909337
 21
105.600228044
  0
LINE
  5
229
100
AcDbEntity
  8
00_COMPONENTS_1
100
AcDbLine
 62
7
  6
BYLAYER
 10
30.267307907
 20
73.300228044
 11
30.667307907
 21
72.900228044
  0
LINE
  5
22A
100
AcDbEntity
  8
00_COMPONENTS_1
100
AcDbLine
 62
7
  6
BYLAYER
 10
30.667307907
 20
72.300228044
 11
30.667307907
 21
72.900228044
  0
LINE
  5
22B
100
AcDbEntity
  8
00_COMPONENTS_1
100
AcDbLine
 62
7
  6
BYLAYER
 10
30.767307907
 20
109.500228044
 11
30.767307907
 21
109.6997143369
  0
LINE
  5
22C
100
AcDbEntity
  8
00_COMPONENTS_1
100
AcDbLine
 62
7
  6
BYLAYER
 10
31.967307907
 20
106.500228044
 11
31.967307907
 21
99.500228044
  0
LINE
  5
22D
100
AcDbEntity
  8
00_COMPONENTS_1
100
AcDbLine
 62
7
  6
BYLAYER
 10
31.967307907
 20
80.100228044
 11
31.967307907
 21
72.300228044
  0
LINE
  5
22E
100
AcDbEntity
  8
00_COMPONENTS_1
100
AcDbLine
 62
7
  6
BYLAYER
 10
32.227307907
 20
109.6997143368
 11
32.227307907
 21
106.500228044
  0
LINE
  5
22F
100
AcDbEntity
  8
00_COMPONENTS_1
100
AcDbLine
 62
7
  6
BYLAYER
 10
32.767307907
 20
134.300228044
 11
32.767307907
 21
133.300228044
  0
LINE
  5
230
100
AcDbEntity
  8
00_COMPONENTS_1
100
AcDbLine
 62
7
  6
BYLAYER
 10
32.767307907
 20
45.300228044
 11
32.767307907
 21
46.300228044
  0
LINE
  5
231
100
AcDbEntity
  8
00_COMPONENTS_1
100
AcDbLine
 62
7
  6
BYLAYER
 10
76.9040175952
 20
50.7533993382
 11
76.9166893944
 21
50.7502881981
  0
LINE
  5
232
100
AcDbEntity
  8
00_COMPONENTS_1
100
AcDbLine
 62
7
  6
BYLAYER
 10
28.0201550343
 20
96.2158347976
 11
31.5408843433
 21
98.6810759997
  0
LINE
  5
233
100
AcDbEntity
  8
00_COMPONENTS_1
100
AcDbLine
 62
7
  6
BYLAYER
 10
31.5408843433
 20
80.9193800883
 11
28.0201550343
 21
83.3846212905
  0
LINE
  5
234
100
AcDbEntity
  8
00_COMPONENTS_1
100
AcDbLine
 62
7
  6
BYLAYER
 10
89.637307907
 20
67.800228044
 11
75.967307907
 21
67.800228044
  0
LINE
  5
235
100
AcDbEntity
  8
00_COMPONENTS_1
100
AcDbLine
 62
7
  6
BYLAYER
 10
89.637307907
 20
67.900228044
 11
93.6672773877
 21
67.900228044
  0
LINE
  5
236
100
AcDbEntity
  8
00_COMPONENTS_1
100
AcDbLine
 62
7
  6
BYLAYER
 10
45.867307907
 20
134.300228044
 11
45.867307907
 21
133.300228044
  0
LINE
  5
237
100
AcDbEntity
  8
00_COMPONENTS_1
100
AcDbLine
 62
7
  6
BYLAYER
 10
45.867307907
 20
45.300228044
 11
45.867307907
 21
46.300228044
  0
LINE
  5
238
100
AcDbEntity
  8
00_COMPONENTS_1
100
AcDbLine
 62
7
  6
BYLAYER
 10
31.967307907
 20
72.300228044
 11
30.667307907
 21
72.300228044
  0
LINE
  5
239
100
AcDbEntity
  8
00_COMPONENTS_1
100
AcDbLine
 62
7
  6
BYLAYER
 10
30.267307907
 20
73.300228044
 11
29.967307907
 21
73.300228044
  0
LINE
  5
23A
100
AcDbEntity
  8
00_COMPONENTS_1
100
AcDbLine
 62
7
  6
BYLAYER
 10
55.967307907
 20
134.300228044
 11
55.967307907
 21
133.300228044
  0
LINE
  5
23B
100
AcDbEntity
  8
00_COMPONENTS_1
100
AcDbLine
 62
7
  6
BYLAYER
 10
55.967307907
 20
45.300228044
 11
55.967307907
 21
46.300228044
  0
LINE
  5
23C
100
AcDbEntity
  8
00_COMPONENTS_1
100
AcDbLine
 62
7
  6
BYLAYER
 10
26.467307907
 20
70.8495016603
 11
29.967307907
 21
73.300228044
  0
LINE
  5
23D
100
AcDbEntity
  8
00_COMPONENTS_1
100
AcDbLine
 62
7
  6
BYLAYER
 10
93.6672740702
 20
82.700228044
 11
89.637307907
 21
82.700228044
  0
LINE
  5
23E
100
AcDbEntity
  8
00_COMPONENTS_1
100
AcDbLine
 62
7
  6
BYLAYER
 10
89.637307907
 20
82.900228044
 11
93.4684728938
 21
82.900228044
  0
LINE
  5
23F
100
AcDbEntity
  8
00_COMPONENTS_1
100
AcDbLine
 62
7
  6
BYLAYER
 10
61.967307907
 20
134.300228044
 11
61.967307907
 21
133.300228044
  0
LINE
  5
240
100
AcDbEntity
  8
00_COMPONENTS_1
100
AcDbLine
 62
7
  6
BYLAYER
 10
61.967307907
 20
45.300228044
 11
61.967307907
 21
46.300228044
  0
LINE
  5
241
100
AcDbEntity
  8
00_COMPONENTS_1
100
AcDbLine
 62
7
  6
BYLAYER
 10
95.1584946951
 20
89.263626031
 11
93.4684728938
 21
89.263626031
  0
LINE
  5
242
100
AcDbEntity
  8
00_COMPONENTS_1
100
AcDbLine
 62
7
  6
BYLAYER
 10
92.7400987332
 20
89.500228044
 11
95.2172934505
 21
89.500228044
  0
LINE
  5
243
100
AcDbEntity
  8
00_COMPONENTS_1
100
AcDbLine
 62
7
  6
BYLAYER
 10
27.167307907
 20
89.800228044
 11
26.467307907
 21
89.800228044
  0
LINE
  5
244
100
AcDbEntity
  8
00_COMPONENTS_1
100
AcDbLine
 62
7
  6
BYLAYER
 10
66.967307907
 20
134.300228044
 11
66.967307907
 21
133.300228044
  0
LINE
  5
245
100
AcDbEntity
  8
00_COMPONENTS_1
100
AcDbLine
 62
7
  6
BYLAYER
 10
66.967307907
 20
45.300228044
 11
66.967307907
 21
46.300228044
  0
LINE
  5
246
100
AcDbEntity
  8
00_COMPONENTS_1
100
AcDbLine
 62
7
  6
BYLAYER
 10
92.7400987332
 20
90.700228044
 11
95.2172934505
 21
90.700228044
  0
LINE
  5
247
100
AcDbEntity
  8
00_COMPONENTS_1
100
AcDbLine
 62
7
  6
BYLAYER
 10
27.167307907
 20
90.800228044
 11
26.467307907
 21
90.800228044
  0
LINE
  5
248
100
AcDbEntity
  8
00_COMPONENTS_1
100
AcDbLine
 62
7
  6
BYLAYER
 10
77.467304552
 20
58.2500731189
 11
77.4672999375
 21
58.2502215054
  0
LINE
  5
249
100
AcDbEntity
  8
00_COMPONENTS_1
100
AcDbLine
 62
7
  6
BYLAYER
 10
75.967307907
 20
46.300228044
 11
75.967307907
 21
67.800228044
  0
LINE
  5
24A
100
AcDbEntity
  8
00_COMPONENTS_1
100
AcDbLine
 62
7
  6
BYLAYER
 10
75.967307907
 20
112.800228044
 11
75.967307907
 21
133.300228044
  0
LINE
  5
24B
100
AcDbEntity
  8
00_COMPONENTS_1
100
AcDbLine
 62
7
  6
BYLAYER
 10
77.467307907
 20
46.300228044
 11
77.467307907
 21
50.7502345827
  0
LINE
  5
24C
100
AcDbEntity
  8
00_COMPONENTS_1
100
AcDbLine
 62
7
  6
BYLAYER
 10
77.467307907
 20
58.2502215054
 11
77.467307907
 21
67.800228044
  0
LINE
  5
24D
100
AcDbEntity
  8
00_COMPONENTS_1
100
AcDbLine
 62
7
  6
BYLAYER
 10
77.467307907
 20
112.800228044
 11
77.467307907
 21
121.350228044
  0
LINE
  5
24E
100
AcDbEntity
  8
00_COMPONENTS_1
100
AcDbLine
 62
7
  6
BYLAYER
 10
77.467307907
 20
128.850228044
 11
77.467307907
 21
133.300228044
  0
LINE
  5
24F
100
AcDbEntity
  8
00_COMPONENTS_1
100
AcDbLine
 62
7
  6
BYLAYER
 10
77.4667238009
 20
128.8242513131
 11
77.4673047997
 21
128.8501598619
  0
LINE
  5
250
100
AcDbEntity
  8
00_COMPONENTS_1
100
AcDbLine
 62
7
  6
BYLAYER
 10
77.467304552
 20
50.7503829692
 11
77.4672999309
 21
50.7502345827
  0
LINE
  5
251
100
AcDbEntity
  8
00_COMPONENTS_1
100
AcDbLine
 62
7
  6
BYLAYER
 10
103.6275851793
 20
95.3037790717
 11
101.7155981654
 21
94.4569022555
  0
LINE
  5
252
100
AcDbEntity
  8
00_COMPONENTS_1
100
AcDbLine
 62
7
  6
BYLAYER
 10
26.467307907
 20
105.600228044
 11
30.126909337
 21
105.600228044
  0
LINE
  5
253
100
AcDbEntity
  8
00_COMPONENTS_1
100
AcDbLine
 62
7
  6
BYLAYER
 10
32.227307907
 20
106.500228044
 11
31.967307907
 21
106.500228044
  0
LINE
  5
254
100
AcDbEntity
  8
00_COMPONENTS_1
100
AcDbLine
 62
7
  6
BYLAYER
 10
30.767307907
 20
109.6700429864
 11
26.467307907
 21
109.6700429864
  0
LINE
  5
255
100
AcDbEntity
  8
00_COMPONENTS_1
100
AcDbLine
 62
7
  6
BYLAYER
 10
26.467307907
 20
109.6997143369
 11
32.227307907
 21
109.6997143368
  0
LINE
  5
256
100
AcDbEntity
  8
00_COMPONENTS_1
100
AcDbLine
 62
7
  6
BYLAYER
 10
89.637307907
 20
109.900228044
 11
93.4684728938
 21
109.900228044
  0
LINE
  5
257
100
AcDbEntity
  8
00_COMPONENTS_1
100
AcDbLine
 62
7
  6
BYLAYER
 10
89.637307907
 20
110.100228044
 11
93.4472761117
 21
110.100228044
  0
LINE
  5
258
100
AcDbEntity
  8
00_COMPONENTS_1
100
AcDbLine
 62
7
  6
BYLAYER
 10
96.0880182826
 20
111.5502280445
 11
93.6399151724
 21
111.5502280445
  0
LINE
  5
259
100
AcDbEntity
  8
00_COMPONENTS_1
100
AcDbLine
 62
7
  6
BYLAYER
 10
89.637307907
 20
112.700228044
 11
93.6399151724
 21
112.700228044
  0
LINE
  5
25A
100
AcDbEntity
  8
00_COMPONENTS_1
100
AcDbLine
 62
7
  6
BYLAYER
 10
89.637307907
 20
112.800228044
 11
89.637307907
 21
67.800228044
  0
LINE
  5
25B
100
AcDbEntity
  8
00_COMPONENTS_1
100
AcDbLine
 62
7
  6
BYLAYER
 10
92.167307907
 20
67.900228044
 11
92.167307907
 21
82.900228044
  0
LINE
  5
25C
100
AcDbEntity
  8
00_COMPONENTS_1
100
AcDbLine
 62
7
  6
BYLAYER
 10
92.167307907
 20
109.900228044
 11
92.167307907
 21
112.700228044
  0
LINE
  5
25D
100
AcDbEntity
  8
00_COMPONENTS_1
100
AcDbLine
 62
7
  6
BYLAYER
 10
92.2109010226
 20
82.900228044
 11
92.2109010226
 21
109.900228044
  0
LINE
  5
25E
100
AcDbEntity
  8
00_COMPONENTS_1
100
AcDbLine
 62
7
  6
BYLAYER
 10
89.637307907
 20
112.800228044
 11
75.967307907
 21
112.800228044
  0
LINE
  5
25F
100
AcDbEntity
  8
00_COMPONENTS_1
100
AcDbLine
 62
7
  6
BYLAYER
 10
92.7400987332
 20
90.9566329843
 11
92.7400987332
 21
89.2438231037
  0
LINE
  5
260
100
AcDbEntity
  8
00_COMPONENTS_1
100
AcDbLine
 62
7
  6
BYLAYER
 10
93.1514915011
 20
89.2453726842
 11
93.1514915011
 21
89.500228044
  0
LINE
  5
261
100
AcDbEntity
  8
00_COMPONENTS_1
100
AcDbLine
 62
7
  6
BYLAYER
 10
93.1514915011
 20
90.700228044
 11
93.1514915011
 21
90.9550834038
  0
LINE
  5
262
100
AcDbEntity
  8
00_COMPONENTS_1
100
AcDbLine
 62
7
  6
BYLAYER
 10
93.4472761117
 20
112.700228044
 11
93.4472761117
 21
110.100228044
  0
LINE
  5
263
100
AcDbEntity
  8
00_COMPONENTS_1
100
AcDbLine
 62
7
  6
BYLAYER
 10
93.467307907
 20
89.500228044
 11
93.467307907
 21
90.700228044
  0
LINE
  5
264
100
AcDbEntity
  8
00_COMPONENTS_1
100
AcDbLine
 62
7
  6
BYLAYER
 10
93.4684728938
 20
109.900228044
 11
93.4684728938
 21
90.700228044
  0
LINE
  5
265
100
AcDbEntity
  8
00_COMPONENTS_1
100
AcDbLine
 62
7
  6
BYLAYER
 10
93.4684728938
 20
89.500228044
 11
93.4684728938
 21
82.900228044
  0
LINE
  5
266
100
AcDbEntity
  8
00_COMPONENTS_1
100
AcDbLine
 62
7
  6
BYLAYER
 10
93.6399151724
 20
82.700228044
 11
93.6399151724
 21
89.263626031
  0
LINE
  5
267
100
AcDbEntity
  8
00_COMPONENTS_1
100
AcDbLine
 62
7
  6
BYLAYER
 10
93.6399151724
 20
107.7050302229
 11
93.6399151724
 21
112.700228044
  0
LINE
  5
268
100
AcDbEntity
  8
00_COMPONENTS_1
100
AcDbLine
 62
7
  6
BYLAYER
 10
93.667307907
 20
67.900228044
 11
93.667307907
 21
82.700228044
  0
LINE
  5
269
100
AcDbEntity
  8
00_COMPONENTS_1
100
AcDbLine
 62
7
  6
BYLAYER
 10
95.217307907
 20
89.500228044
 11
95.217307907
 21
90.700228044
  0
LINE
  5
26A
100
AcDbEntity
  8
00_COMPONENTS_1
100
AcDbLine
 62
7
  6
BYLAYER
 10
93.4684728938
 20
107.7809671879
 11
94.6497889804
 21
107.2577266016
  0
LINE
  5
26B
100
AcDbEntity
  8
00_COMPONENTS_1
100
AcDbLine
 62
7
  6
BYLAYER
 10
100.757307907
 20
96.2008018288
 11
100.757307907
 21
94.5121189929
  0
LINE
  5
26C
100
AcDbEntity
  8
00_COMPONENTS_1
100
AcDbLine
 62
7
  6
BYLAYER
 10
76.9166892097
 20
58.2509611155
 11
76.9013700427
 21
58.245603144
  0
LINE
  5
26D
100
AcDbEntity
  8
00_COMPONENTS_1
100
AcDbLine
 62
7
  6
BYLAYER
 10
100.438468697
 20
96.8688619715
 11
100.757307907
 21
96.2008018288
  0
LINE
  5
26E
100
AcDbEntity
  8
00_COMPONENTS_1
100
AcDbLine
 62
7
  6
BYLAYER
 10
101.7155981654
 20
94.4569022555
 11
97.8907794195
 21
103.0921649447
  0
LINE
  5
26F
100
AcDbEntity
  8
00_COMPONENTS_1
100
AcDbLine
 62
7
  6
BYLAYER
 10
77.4673047947
 20
133.300228044
 11
28.1397438399
 21
133.300228044
  0
LINE
  5
270
100
AcDbEntity
  8
00_COMPONENTS_1
100
AcDbLine
 62
7
  6
BYLAYER
 10
66.967307907
 20
134.300228044
 11
45.867307907
 21
134.300228044
  0
LINE
  5
271
100
AcDbEntity
  8
00_COMPONENTS_1
100
AcDbLine
 62
7
  6
BYLAYER
 10
32.767307907
 20
134.300228044
 11
28.2197940092
 21
134.300228044
  0
ARC
  5
272
100
AcDbEntity
  8
00_COMPONENTS_1
100
AcDbCircle
 62
7
  6
BYLAYER
 10
243.2401378793
 20
125.1006977348
 40
165.8152501428
100
AcDbArc
 50
180.000162298
 51
181.2960473224
  0
ARC
  5
273
100
AcDbEntity
  8
00_COMPONENTS_1
100
AcDbCircle
 62
7
  6
BYLAYER
 10
147.4664080955
 20
102.840228044
 40
52.8
100
AcDbArc
 50
175.5248686095
 51
193.5116728631
  0
ARC
  5
274
100
AcDbEntity
  8
00_COMPONENTS_1
100
AcDbCircle
 62
7
  6
BYLAYER
 10
145.9557570874
 20
128.9009809531
 40
52.8
100
AcDbArc
 50
199.1845963458
 51
217.4015442655
  0
ARC
  5
275
100
AcDbEntity
  8
00_COMPONENTS_1
100
AcDbCircle
 62
7
  6
BYLAYER
 10
85.107307907
 20
112.2967640554
 40
23.69
100
AcDbArc
 50
297.3442057914
 51
311.3468918095
  0
ARC
  5
276
100
AcDbEntity
  8
00_COMPONENTS_1
100
AcDbCircle
 62
7
  6
BYLAYER
 10
85.1030719993
 20
112.3027956105
 40
21.7573428742
100
AcDbArc
 50
298.6269850504
 51
314.816514318
  0
ARC
  5
277
100
AcDbEntity
  8
00_COMPONENTS_1
100
AcDbCircle
 62
7
  6
BYLAYER
 10
85.117307907
 20
112.300228044
 40
21.68
100
AcDbArc
 50
298.7429117478
 51
315.4020819301
  0
ARC
  5
278
100
AcDbEntity
  8
00_COMPONENTS_1
100
AcDbCircle
 62
7
  6
BYLAYER
 10
85.117307907
 20
112.3002280142
 40
15.0
100
AcDbArc
 50
309.820510824
 51
322.6175468848
  0
ARC
  5
279
100
AcDbEntity
  8
00_COMPONENTS_1
100
AcDbCircle
 62
7
  6
BYLAYER
 10
29.167307907
 20
85.0229253791
 40
2.0
100
AcDbArc
 50
180.0
 51
235.0000000008
  0
ARC
  5
27A
100
AcDbEntity
  8
00_COMPONENTS_1
100
AcDbCircle
 62
7
  6
BYLAYER
 10
29.167307907
 20
94.577530709
 40
2.0
100
AcDbArc
 50
124.9999999998
 51
180.0
  0
ARC
  5
27B
100
AcDbEntity
  8
00_COMPONENTS_1
100
AcDbCircle
 62
7
  6
BYLAYER
 10
30.967307907
 20
80.100228044
 40
1.0
100
AcDbArc
 50
0.0
 51
55.0000000002
  0
ARC
  5
27C
100
AcDbEntity
  8
00_COMPONENTS_1
100
AcDbCircle
 62
7
  6
BYLAYER
 10
30.967307907
 20
99.500228044
 40
1.0
100
AcDbArc
 50
304.9999999995
 51
360.0
  0
ARC
  5
27D
100
AcDbEntity
  8
00_COMPONENTS_1
100
AcDbCircle
 62
7
  6
BYLAYER
 10
97.4336170935
 20
102.8896739381
 40
0.5
100
AcDbArc
 50
23.8900000004
 51
142.6175468801
  0
ARC
  5
27E
100
AcDbEntity
  8
00_COMPONENTS_1
100
AcDbCircle
 62
7
  6
BYLAYER
 10
94.5282943764
 20
106.983429206
 40
0.3
100
AcDbArc
 50
355.5248686095
 51
66.1099999919
  0
SPLINE
  5
27F
100
AcDbEntity
  8
00_COMPONENTS_1
100
AcDbSpline
 62
7
  6
BYLAYER
 70
0
 71
3
 72
9
 73
5
 74
0
 42
0.0000001
 43
0.0000001
 44
0.0000000001
 40
0.0
 40
0.0
 40
0.0
 40
0.0
 40
0.2628491355
 40
1.0
 40
1.0
 40
1.0
 40
1.0
 10
92.9753879351
 20
90.9506326442
 30
0.0
 10
92.9908234411
 20
90.9506326437
 30
0.0
 10
93.0495458515
 20
90.9509750486
 30
0.0
 10
93.1082669298
 20
90.952735347
 30
0.0
 10
93.1514915011
 20
90.9550837023
 30
0.0
  0
SPLINE
  5
280
100
AcDbEntity
  8
00_COMPONENTS_1
100
AcDbSpline
 62
7
  6
BYLAYER
 70
0
 71
3
 72
15
 73
11
 74
0
 42
0.0000001
 43
0.0000001
 44
0.0000000001
 40
0.0
 40
0.0
 40
0.0
 40
0.0
 40
0.1231834137
 40
0.2510372289
 40
0.3774146255
 40
0.4992791666
 40
0.6200183152
 40
0.7433376773
 40
0.8704909866
 40
1.0
 40
1.0
 40
1.0
 40
1.0
 10
96.1277885213
 20
90.5038533649
 30
0.0
 10
96.145122629
 20
90.4317159905
 30
0.0
 10
96.1643023966
 20
90.2802984317
 30
0.0
 10
96.1417450289
 20
90.0521825284
 30
0.0
 10
96.0685013202
 20
89.8357473219
 30
0.0
 10
95.9514492097
 20
89.6447432814
 30
0.0
 10
95.7969530489
 20
89.4851202777
 30
0.0
 10
95.6083519275
 20
89.361554166
 30
0.0
 10
95.3916840849
 20
89.2819531837
 30
0.0
 10
95.2364890897
 20
89.2636260958
 30
0.0
 10
95.1584946951
 20
89.263626031
 30
0.0
  0
SPLINE
  5
281
100
AcDbEntity
  8
00_COMPONENTS_1
100
AcDbSpline
 62
7
  6
BYLAYER
 70
0
 71
3
 72
20
 73
16
 74
0
 42
0.0000001
 43
0.0000001
 44
0.0000000001
 40
0.0
 40
0.0
 40
0.0
 40
0.0
 40
0.0024002084
 40
0.009558922
 40
0.0214203708
 40
0.0378666199
 40
0.0838319581
 40
0.1456910153
 40
0.2210830324
 40
0.3071379304
 40
0.4005625548
 40
0.4977847672
 40
0.6887640152
 40
0.851177393
 40
1.0
 40
1.0
 40
1.0
 40
1.0
 10
77.4673078295
 20
50.7502359309
 30
0.0
 10
77.4669601454
 20
50.7562267409
 30
0.0
 10
77.4669295828
 20
50.7801400424
 30
0.0
 10
77.4652471183
 20
50.8336611658
 30
0.0
 10
77.4635774908
 20
50.922322468
 30
0.0
 10
77.459463631
 20
51.1079678652
 30
0.0
 10
77.4534137797
 20
51.4186074153
 30
0.0
 10
77.4453755847
 20
51.8766054763
 30
0.0
 10
77.4373960828
 20
52.434849395
 30
0.0
 10
77.4305906595
 20
53.0720325604
 30
0.0
 10
77.4260158522
 20
53.7638166422
 30
0.0
 10
77.4238160892
 20
54.7179405587
 30
0.0
 10
77.4285774067
 20
55.8445528629
 30
0.0
 10
77.4439138724
 20
57.1000848613
 30
0.0
 10
77.4588880126
 20
57.8780856503
 30
0.0
 10
77.467304552
 20
58.2500698901
 30
0.0
  0
SPLINE
  5
282
100
AcDbEntity
  8
00_COMPONENTS_1
100
AcDbSpline
 62
7
  6
BYLAYER
 70
0
 71
3
 72
31
 73
27
 74
0
 42
0.0000001
 43
0.0000001
 44
0.0000000001
 40
0.0
 40
0.0
 40
0.0
 40
0.0
 40
0.0046543905
 40
0.0082409685
 40
0.0128508551
 40
0.025292829
 40
0.0420746359
 40
0.0631295166
 40
0.0882908843
 40
0.1500280865
 40
0.2250667002
 40
0.3106177935
 40
0.4034465881
 40
0.4999957255
 40
0.5965446903
 40
0.6893765928
 40
0.7749342868
 40
0.8499706813
 40
0.9117050612
 40
0.9368701547
 40
0.9579200061
 40
0.9747094828
 40
0.9871480009
 40
0.9917567839
 40
0.9953466286
 40
1.0
 40
1.0
 40
1.0
 40
1.0
 10
76.9166860566
 20
128.8501660017
 30
0.0
 10
76.9049060991
 20
128.8501501999
 30
0.0
 10
76.8862362769
 20
128.8347162722
 30
0.0
 10
76.8691647155
 20
128.8079027883
 30
0.0
 10
76.8462561351
 20
128.760454027
 30
0.0
 10
76.8199354876
 20
128.678942401
 30
0.0
 10
76.7898018361
 20
128.5551886256
 30
0.0
 10
76.7601761233
 20
128.3984879629
 30
0.0
 10
76.7186378703
 20
128.1283973857
 30
0.0
 10
76.6727633087
 20
127.7209788983
 30
0.0
 10
76.6280107153
 20
127.1600068346
 30
0.0
 10
76.5937676155
 20
126.5194673402
 30
0.0
 10
76.5722220381
 20
125.8239214743
 30
0.0
 10
76.5648823832
 20
125.1002447142
 30
0.0
 10
76.572227277
 20
124.3765602235
 30
0.0
 10
76.5937692452
 20
123.6809900588
 30
0.0
 10
76.6280061764
 20
123.0404315594
 30
0.0
 10
76.6727503235
 20
122.4794539881
 30
0.0
 10
76.7186503185
 20
122.0720429075
 30
0.0
 10
76.7601617916
 20
121.8019580367
 30
0.0
 10
76.7898037834
 20
121.6452451623
 30
0.0
 10
76.8199113177
 20
121.5214853665
 30
0.0
 10
76.8462557176
 20
121.4399750661
 30
0.0
 10
76.8691977933
 20
121.3925391719
 30
0.0
 10
76.8862661872
 20
121.3657396701
 30
0.0
 10
76.9049113961
 20
121.350228044
 30
0.0
 10
76.9166887849
 20
121.350228044
 30
0.0
  0
SPLINE
  5
283
100
AcDbEntity
  8
00_COMPONENTS_1
100
AcDbSpline
 62
7
  6
BYLAYER
 70
0
 71
3
 72
18
 73
14
 74
0
 42
0.0000001
 43
0.0000001
 44
0.0000000001
 40
0.0
 40
0.0
 40
0.0
 40
0.0
 40
0.0048077037
 40
0.0192149645
 40
0.0430615172
 40
0.0761230191
 40
0.1180913585
 40
0.1685375917
 40
0.2929015988
 40
0.4444488922
 40
0.6173055685
 40
0.8049521759
 40
1.0
 40
1.0
 40
1.0
 40
1.0
 10
77.4673047997
 20
128.8501598616
 30
0.0
 10
77.4677265751
 20
128.8561550732
 30
0.0
 10
77.4658327141
 20
128.8029282544
 30
0.0
 10
77.4659294148
 20
128.7772412497
 30
0.0
 10
77.463240986
 20
128.6722059259
 30
0.0
 10
77.4609350888
 20
128.5555698883
 30
0.0
 10
77.4576068098
 20
128.3961061898
 30
0.0
 10
77.4524157239
 20
128.1263835274
 30
0.0
 10
77.4452773989
 20
127.7177052311
 30
0.0
 10
77.4372836571
 20
127.1570766656
 30
0.0
 10
77.4304829657
 20
126.5169025308
 30
0.0
 10
77.4259466578
 20
125.8224621118
 30
0.0
 10
77.4248877371
 20
125.3440540506
 30
0.0
 10
77.4248877371
 20
125.1002280408
 30
0.0
  0
SPLINE
  5
284
100
AcDbEntity
  8
00_COMPONENTS_1
100
AcDbSpline
 62
7
  6
BYLAYER
 70
0
 71
3
 72
29
 73
25
 74
0
 42
0.0000001
 43
0.0000001
 44
0.0000000001
 40
0.0
 40
0.0
 40
0.0
 40
0.0
 40
0.0060467271
 40
0.0159235559
 40
0.0298964849
 40
0.0479590753
 40
0.0699929746
 40
0.095848368
 40
0.1581431755
 40
0.2327433675
 40
0.3169691842
 40
0.4077940358
 40
0.5019592064
 40
0.5960449234
 40
0.6866345076
 40
0.770479232
 40
0.844571923
 40
0.9062504293
 40
0.931769055
 40
0.9534504469
 40
0.9711475216
 40
0.9847474806
 40
0.9942576562
 40
1.0
 40
1.0
 40
1.0
 40
1.0
 10
76.9013700427
 20
58.245603144
 30
0.0
 10
76.8882959577
 20
58.2377579387
 30
0.0
 10
76.8646542707
 20
58.2027031522
 30
0.0
 10
76.8365937955
 20
58.1335600851
 30
0.0
 10
76.8074087245
 20
58.031409519
 30
0.0
 10
76.7783882337
 20
57.8983153845
 30
0.0
 10
76.7496830333
 20
57.7344121461
 30
0.0
 10
76.7101297864
 20
57.4594009197
 30
0.0
 10
76.6663473718
 20
57.0512209083
 30
0.0
 10
76.6240004374
 20
56.4952098335
 30
0.0
 10
76.5917922907
 20
55.8664601105
 30
0.0
 10
76.571651804
 20
55.1878654771
 30
0.0
 10
76.5649356583
 20
54.4841403774
 30
0.0
 10
76.5722666672
 20
53.7810144813
 30
0.0
 10
76.5929985474
 20
53.1041929144
 30
0.0
 10
76.6257215327
 20
52.4783066145
 30
0.0
 10
76.6684631776
 20
51.9261325213
 30
0.0
 10
76.7125146772
 20
51.5216801561
 30
0.0
 10
76.7522418909
 20
51.2500239745
 30
0.0
 10
76.7810126463
 20
51.0888220505
 30
0.0
 10
76.8100034409
 20
50.9585632658
 30
0.0
 10
76.8392391467
 20
50.8592485978
 30
0.0
 10
76.8670304428
 20
50.7929892177
 30
0.0
 10
76.8910557451
 20
50.7598532665
 30
0.0
 10
76.9040175952
 20
50.7533993382
 30
0.0
  0
SPLINE
  5
285
100
AcDbEntity
  8
00_COMPONENTS_1
100
AcDbSpline
 62
7
  6
BYLAYER
 70
0
 71
3
 72
9
 73
5
 74
0
 42
0.0000001
 43
0.0000001
 44
0.0000000001
 40
0.0
 40
0.0
 40
0.0
 40
0.0
 40
0.2372176438
 40
1.0
 40
1.0
 40
1.0
 40
1.0
 10
93.1514915011
 20
89.2453726748
 30
0.0
 10
93.1375835403
 20
89.2461269397
 30
0.0
 10
93.0789289599
 20
89.2488417396
 30
0.0
 10
93.0202002
 20
89.2498152331
 30
0.0
 10
92.9754129042
 20
89.2498152317
 30
0.0
  0
SPLINE
  5
286
100
AcDbEntity
  8
00_COMPONENTS_1
100
AcDbSpline
 62
7
  6
BYLAYER
 70
0
 71
3
 72
16
 73
12
 74
0
 42
0.0000001
 43
0.0000001
 44
0.0000000001
 40
0.0
 40
0.0
 40
0.0
 40
0.0
 40
0.1356017192
 40
0.2743832854
 40
0.4066336543
 40
0.53309073
 40
0.6453846406
 40
0.7490829615
 40
0.8793021873
 40
0.9987239714
 40
1.0
 40
1.0
 40
1.0
 40
1.0
 10
104.0115294906
 20
96.8304061015
 30
0.0
 10
104.0611373251
 20
96.7655250235
 30
0.0
 10
104.1459488126
 20
96.6214742745
 30
0.0
 10
104.2157896754
 20
96.384166392
 30
0.0
 10
104.2262572975
 20
96.1427058558
 30
0.0
 10
104.1836943229
 20
95.9213378166
 30
0.0
 10
104.1016400643
 20
95.7305420686
 30
0.0
 10
103.9828530143
 20
95.5577226869
 30
0.0
 10
103.8264912947
 20
95.4103661511
 30
0.0
 10
103.6947196757
 20
95.333607432
 30
0.0
 10
103.6282878413
 20
95.3040903007
 30
0.0
 10
103.6275851793
 20
95.3037790717
 30
0.0
  0
SPLINE
  5
287
100
AcDbEntity
  8
00_COMPONENTS_1
100
AcDbSpline
 62
7
  6
BYLAYER
 70
0
 71
3
 72
20
 73
16
 74
0
 42
0.0000001
 43
0.0000001
 44
0.0000000001
 40
0.0
 40
0.0
 40
0.0
 40
0.0
 40
0.1934132145
 40
0.3794843249
 40
0.550866544
 40
0.7011470084
 40
0.7665358513
 40
0.8246097922
 40
0.8748239337
 40
0.9167735692
 40
0.9501289068
 40
0.9747335975
 40
0.9838163998
 40
0.9908631845
 40
1.0
 40
1.0
 40
1.0
 40
1.0
 10
77.1803308377
 20
125.100228044
 30
0.0
 10
77.1803308377
 20
125.344344161
 30
0.0
 10
77.1776046788
 20
125.8233140214
 30
0.0
 10
77.1653058297
 20
126.5185006702
 30
0.0
 10
77.1447771289
 20
127.1590291016
 30
0.0
 10
77.1201156203
 20
127.646974157
 30
0.0
 10
77.0951541663
 20
127.9915898855
 30
0.0
 10
77.0753936212
 20
128.2099183631
 30
0.0
 10
77.0537547099
 20
128.3983280308
 30
0.0
 10
77.0306002938
 20
128.5550821829
 30
0.0
 10
77.0058044469
 20
128.6788315556
 30
0.0
 10
76.9830967985
 20
128.7603900165
 30
0.0
 10
76.9622587175
 20
128.8078816465
 30
0.0
 10
76.9465061833
 20
128.8347753709
 30
0.0
 10
76.9282180603
 20
128.850181471
 30
0.0
 10
76.9166860566
 20
128.8501660017
 30
0.0
  0
SPLINE
  5
288
100
AcDbEntity
  8
00_COMPONENTS_1
100
AcDbSpline
 62
7
  6
BYLAYER
 70
0
 71
3
 72
21
 73
17
 74
0
 42
0.0000001
 43
0.0000001
 44
0.0000000001
 40
0.0
 40
0.0
 40
0.0
 40
0.0
 40
0.0091364732
 40
0.0161790275
 40
0.0252570116
 40
0.0364805358
 40
0.0498898451
 40
0.0832453418
 40
0.1251846087
 40
0.1753959079
 40
0.2334428335
 40
0.2988250052
 40
0.4490960076
 40
0.6205071819
 40
0.8065532548
 40
1.0
 40
1.0
 40
1.0
 40
1.0
 10
76.9166887849
 20
121.350228044
 30
0.0
 10
76.9282205906
 20
121.350228044
 30
0.0
 10
76.9464614226
 20
121.3656789306
 30
0.0
 10
76.9622362507
 20
121.3925292537
 30
0.0
 10
76.9763044287
 20
121.4244091582
 30
0.0
 10
76.9897174242
 20
121.4647293986
 30
0.0
 10
77.0087676983
 20
121.5354705659
 30
0.0
 10
77.0305055664
 20
121.6453769004
 30
0.0
 10
77.053782157
 20
121.8021023848
 30
0.0
 10
77.0753631502
 20
121.9904715785
 30
0.0
 10
77.0951643785
 20
122.2087537745
 30
0.0
 10
77.1201063776
 20
122.5533235782
 30
0.0
 10
77.1447783635
 20
123.0412933334
 30
0.0
 10
77.1652893551
 20
123.6818279861
 30
0.0
 10
77.1776059795
 20
124.3770749072
 30
0.0
 10
77.1803308377
 20
124.8560648721
 30
0.0
 10
77.1803308377
 20
125.100228044
 30
0.0
  0
SPLINE
  5
289
100
AcDbEntity
  8
00_COMPONENTS_1
100
AcDbSpline
 62
7
  6
BYLAYER
 70
0
 71
3
 72
9
 73
5
 74
0
 42
0.0000001
 43
0.0000001
 44
0.0000000001
 40
0.0
 40
0.0
 40
0.0
 40
0.0
 40
0.2368330953
 40
1.0
 40
1.0
 40
1.0
 40
1.0
 10
92.9754129042
 20
89.2498152317
 30
0.0
 10
92.9568291413
 20
89.2498152311
 30
0.0
 10
92.8783615385
 20
89.2492662812
 30
0.0
 10
92.7999150707
 20
89.2466684948
 30
0.0
 10
92.7400987332
 20
89.2438226032
 30
0.0
  0
SPLINE
  5
28A
100
AcDbEntity
  8
00_COMPONENTS_1
100
AcDbSpline
 62
7
  6
BYLAYER
 70
0
 71
3
 72
9
 73
5
 74
0
 42
0.0000001
 43
0.0000001
 44
0.0000000001
 40
0.0
 40
0.0
 40
0.0
 40
0.0
 40
0.263214231
 40
1.0
 40
1.0
 40
1.0
 40
1.0
 10
92.7400987332
 20
90.9566337762
 30
0.0
 10
92.7607269135
 20
90.955650841
 30
0.0
 10
92.8391147524
 20
90.9523155284
 30
0.0
 10
92.9175802921
 20
90.9506326461
 30
0.0
 10
92.9753879351
 20
90.9506326442
 30
0.0
  0
SPLINE
  5
28B
100
AcDbEntity
  8
00_COMPONENTS_1
100
AcDbSpline
 62
7
  6
BYLAYER
 70
0
 71
3
 72
35
 73
31
 74
0
 42
0.0000001
 43
0.0000001
 44
0.0000000001
 40
0.0
 40
0.0
 40
0.0
 40
0.0
 40
0.004573002
 40
0.0080947803
 40
0.0126344671
 40
0.0182478972
 40
0.0249529927
 40
0.0416289105
 40
0.0625970922
 40
0.0877062968
 40
0.1167314032
 40
0.1494251814
 40
0.224551373
 40
0.3102570544
 40
0.4032560218
 40
0.4999857183
 40
0.5967143438
 40
0.6897112682
 40
0.7754186757
 40
0.8505569088
 40
0.8832572867
 40
0.9122855604
 40
0.9373969742
 40
0.958368977
 40
0.9750472705
 40
0.9817534181
 40
0.9873680853
 40
0.9919078203
 40
0.9954283293
 40
1.0
 40
1.0
 40
1.0
 40
1.0
 10
76.9166881072
 20
50.7502519009
 30
0.0
 10
76.9282318059
 20
50.7502884304
 30
0.0
 10
76.9464645022
 20
50.7657326468
 30
0.0
 10
76.9622601934
 20
50.7925973276
 30
0.0
 10
76.9763273604
 20
50.824482994
 30
0.0
 10
76.9897347793
 20
50.8648130884
 30
0.0
 10
77.0087834455
 20
50.9355542967
 30
0.0
 10
77.0305223645
 20
51.0454525866
 30
0.0
 10
77.0537993005
 20
51.2021776414
 30
0.0
 10
77.0753690022
 20
51.3905563944
 30
0.0
 10
77.0951718933
 20
51.6088568593
 30
0.0
 10
77.1201044489
 20
51.9534124264
 30
0.0
 10
77.1447821139
 20
52.4413620052
 30
0.0
 10
77.1652791307
 20
53.0818085656
 30
0.0
 10
77.1776045844
 20
53.7770066541
 30
0.0
 10
77.1817246889
 20
54.5001227314
 30
0.0
 10
77.1776100497
 20
55.223233713
 30
0.0
 10
77.1652820004
 20
55.9184282592
 30
0.0
 10
77.1447859613
 20
56.5589044349
 30
0.0
 10
77.1201113939
 20
57.0469056107
 30
0.0
 10
77.0951813562
 20
57.3915165642
 30
0.0
 10
77.0753758425
 20
57.6098471945
 30
0.0
 10
77.0538009913
 20
57.7982486987
 30
0.0
 10
77.0305243812
 20
57.9549951995
 30
0.0
 10
77.0087825816
 20
58.0649117132
 30
0.0
 10
76.9897331055
 20
58.1356646377
 30
0.0
 10
76.9763301732
 20
58.1760026944
 30
0.0
 10
76.9622664345
 20
58.2078891391
 30
0.0
 10
76.9464691953
 20
58.2347493517
 30
0.0
 10
76.9282278867
 20
58.2501678963
 30
0.0
 10
76.9166875365
 20
58.2502002889
 30
0.0
  0
ENDSEC
  0
SECTION
  2
OBJECTS
  0
DICTIONARY
  5
C
100
AcDbDictionary
280
0
281
1
  3
ACAD_GROUP
350
D
  3
ACAD_MLINESTYLE
350
17
  3
ACAD_LAYOUT
350
1A
  3
ACAD_PLOTSETTINGS
350
19
  3
ACAD_PLOTSTYLENAME
350
E
  0
DICTIONARY
  5
D
102
{ACAD_REACTORS
330
C
102
}
100
AcDbDictionary
280
0
281
1
  0
ACDBDICTIONARYWDFLT
  5
E
102
{ACAD_REACTORS
330
C
102
}
100
AcDbDictionary
281
1
  3
Normal
350
F
100
AcDbDictionaryWithDefault
340
F
  0
DICTIONARY
  5
17
102
{ACAD_REACTORS
330
C
102
}
100
AcDbDictionary
280
0
281
1
  3
Standard
350
18
  0
DICTIONARY
  5
19
102
{ACAD_REACTORS
330
C
102
}
100
AcDbDictionary
281
1
  0
DICTIONARY
  5
1A
102
{ACAD_REACTORS
330
C
102
}
100
AcDbDictionary
281
1
  3
Model
350
28C
  3
Layout1
350
28D
  0
ACDBPLACEHOLDER
  5
F
102
{ACAD_REACTORS
330
E
102
}
  0
MLINESTYLE
  5
18
102
{ACAD_REACTORS
330
17
102
}
100
AcDbMlineStyle
  2
STANDARD
 70
0
  3

 62
256
 51
90.0
 52
90.0
 71
2
 49
0.5
 62
256
  6
BYLAYER
 49
-0.5
 62
256
  6
BYLAYER
  0
LAYOUT
  5
28C
102
{ACAD_REACTORS
330
1A
102
}
100
AcDbPlotSettings
  1

  2
none_device
  4

  6

 40
0.0
 41
0.0
 42
0.0
 43
0.0
 44
210.0
 45
297.0
 46
0.0
 47
0.0
 48
0.0
 49
0.0
140
0.0
141
0.0
142
1.0
143
1.0
 70
1024
 72
1
 73
0
 74
0
  7

 75
0
147
1.0
148
0.0
149
0.0
100
AcDbLayout
  1
Model
 70
0
 71
0
 10
0.0
 20
0.0
 11
210.0
 21
297.0
 12
0.0
 22
0.0
 32
0.0
 14
0.0
 24
0.0
 34
0.0
 15
0.0
 25
0.0
 35
0.0
146
0.0
 13
0.0
 23
0.0
 33
0.0
 16
1.0
 26
0.0
 36
0.0
 17
0.0
 27
1.0
 37
0.0
 76
0
330
217
345
0
346
0
  0
LAYOUT
  5
28D
102
{ACAD_REACTORS
330
1A
102
}
100
AcDbPlotSettings
  1

  2
none_device
  4

  6

 40
0.0
 41
0.0
 42
0.0
 43
0.0
 44
210.0
 45
297.0
 46
0.0
 47
0.0
 48
0.0
 49
0.0
140
0.0
141
0.0
142
1.0
143
1.0
 70
0
 72
1
 73
0
 74
0
  7

 75
0
147
1.0
148
0.0
149
0.0
100
AcDbLayout
  1
Layout1
 70
0
 71
1
 10
0.0
 20
0.0
 11
210.0
 21
297.0
 12
0.0
 22
0.0
 32
0.0
 14
0.0
 24
0.0
 34
0.0
 15
0.0
 25
0.0
 35
0.0
146
0.0
 13
0.0
 23
0.0
 33
0.0
 16
1.0
 26
0.0
 36
0.0
 17
0.0
 27
1.0
 37
0.0
 76
0
330
218
345
0
346
0
  0
ENDSEC
  0
EOF
