999
DXF file: C:\Users\sesa63760\OneDrive - Schneider Electric\Documents\7-Dev\_Creo\CAD\MCADUE0000021_3D-CAD\drw0001_1.dxf
999
Pro/ENGINEER 2019471 by Parametric Technology Corporation
  0
SECTION
  2
HEADER
  9
$ACADVER
  1
AC1024
  9
$DWGCODEPAGE
  3
ANSI_1252
  9
$EXTMAX
 10
1631.8260160033
 20
2307.8682226332
 30
0.0
  9
$EXTMIN
 10
0.0
 20
0.0
 30
0.0
  9
$LIMMIN
 10
0.0
 20
0.0
  9
$LIMMAX
 10
1631.8260160033
 20
2307.8682226332
  9
$VIEWCTR
 10
815.9130080016
 20
1153.9341113166
  9
$VIEWSIZE
 40
2307.8682226332
  9
$CLAYER
  8
0
  9
$LTSCALE
 40
150.4388174753
  9
$CELTYPE
  6
BYLAYER
  9
$DIMSCALE
 40
1.0
  9
$DIMASZ
 40
19.4265001905
  9
$DIMEXO
 40
1.0
  9
$DIMDLI
 40
103.9395466193
  9
$DIMEXE
 40
1.0
  9
$DIMCEN
 40
24.6172610414
  9
$DIMLFAC
 40
1.0
  9
$DIMBLK
  1
_FILLED
  9
$DIMALT
 70
0
  9
$DIMALTF
 40
0.0393700787
  9
$DIMTXT
 40
27.1971002667
  9
$DIMTOL
 70
1
  9
$DIMLIM
 70
0
  9
$DIMTFAC
 40
1.0
  9
$DIMTP
 40
0.01
  9
$DIMTM
 40
0.01
  9
$DIMGAP
 40
0.625
  9
$DIMDSEP
 70
46
  9
$AUNITS
 70
0
  9
$PDMODE
 70
3
  9
$PDSIZE
 40
0.3125
  9
$HANDSEED
  5
3BA
  9
$TILEMODE
 70
1
  9
$MEASUREMENT
 70
1
  9
$INSUNITS
 70
4
  0
ENDSEC
  0
SECTION
  2
CLASSES
  0
CLASS
  1
ACDBDICTIONARYWDFLT
  2
AcDbDictionaryWithDefault
  3
AutoCAD 2000
 90
0
 91
1
280
0
281
0
  0
CLASS
  1
ACDBPLACEHOLDER
  2
AcDbPlaceHolder
  3
AutoCAD 2000
 90
0
 91
1
280
0
281
0
  0
CLASS
  1
LAYOUT
  2
AcDbLayout
  3
AutoCAD 2000
 90
0
 91
0
280
0
281
0
  0
ENDSEC
  0
SECTION
  2
TABLES
  0
TABLE
  2
VPORT
  5
8
100
AcDbSymbolTable
 70
2
  0
VPORT
  5
1F4
100
AcDbSymbolTableRecord
100
AcDbViewportTableRecord
  2
*ACTIVE
 70
0
 10
0.0
 20
0.0
 11
1.0
 21
1.0
 12
815.9130080016
 22
1153.9341113166
 13
0.0
 23
0.0
 14
1.0
 24
1.0
 15
0.0
 25
0.0
 16
0.0
 26
0.0
 36
1.0
 17
0.0
 27
0.0
 37
0.0
 40
2307.8682226332
 41
0.7070707071
 42
50.0
 43
0.0
 44
0.0
 50
0.0
 51
0.0
 71
0
 72
100
 73
1
 74
1
 75
0
 76
0
 77
0
 78
0
  0
ENDTAB
  0
TABLE
  2
LTYPE
  5
5
100
AcDbSymbolTable
 70
6
  0
LTYPE
  5
14
100
AcDbSymbolTableRecord
100
AcDbLinetypeTableRecord
  2
BYBLOCK
 70
0
  3

 72
65
 73
0
 40
0.0
  0
LTYPE
  5
15
100
AcDbSymbolTableRecord
100
AcDbLinetypeTableRecord
  2
BYLAYER
 70
0
  3

 72
65
 73
0
 40
0.0
  0
LTYPE
  5
16
100
AcDbSymbolTableRecord
100
AcDbLinetypeTableRecord
  2
CONTINUOUS
 70
64
  3
Solid line
 72
65
 73
0
 40
0.0
  0
LTYPE
  5
1F5
100
AcDbSymbolTableRecord
100
AcDbLinetypeTableRecord
  2
CENTER
 70
64
  3
____ _ ____ _ ____ _ ____ _ ____ _ ____ _ ____
 72
65
 73
4
 40
0.6
 49
0.375
 74
0
 49
-0.075
 74
0
 49
0.075
 74
0
 49
-0.075
 74
0
  0
LTYPE
  5
1F6
100
AcDbSymbolTableRecord
100
AcDbLinetypeTableRecord
  2
HIDDEN
 70
64
  3
- - - - - - - - - - - - - - - - - - - -
 72
65
 73
2
 40
0.2
 49
0.1
 74
0
 49
-0.1
 74
0
  0
LTYPE
  5
1F7
100
AcDbSymbolTableRecord
100
AcDbLinetypeTableRecord
  2
PHANTOM
 70
64
  3
_____ _ _ _____ _ _ _____ _ _ _____
 72
65
 73
6
 40
0.8
 49
0.45
 74
0
 49
-0.05
 74
0
 49
0.1
 74
0
 49
-0.05
 74
0
 49
0.1
 74
0
 49
-0.05
 74
0
  0
LTYPE
  5
1F8
100
AcDbSymbolTableRecord
100
AcDbLinetypeTableRecord
  2
DOT
 70
64
  3
. . . . . . . . . . . . . . . . . . . .
 72
65
 73
2
 40
0.2
 49
0.1
 74
0
 49
-0.1
 74
0
  0
LTYPE
  5
1F9
100
AcDbSymbolTableRecord
100
AcDbLinetypeTableRecord
  2
DASHED
 70
64
  3
- - - - - - - - - - - - - - - - - - - -
 72
65
 73
2
 40
0.2
 49
0.1
 74
0
 49
-0.1
 74
0
  0
ENDTAB
  0
TABLE
  2
LAYER
  5
2
100
AcDbSymbolTable
 70
36
  0
LAYER
  5
10
100
AcDbSymbolTableRecord
100
AcDbLayerTableRecord
  2
0
 70
0
 62
7
  6
CONTINUOUS
370
-3
390
F
  0
LAYER
  5
1FA
100
AcDbSymbolTableRecord
100
AcDbLayerTableRecord
  2
DEFAULT_1
 70
0
 62
7
  6
CENTER
370
-3
390
F
  0
LAYER
  5
1FB
100
AcDbSymbolTableRecord
100
AcDbLayerTableRecord
  2
DEFAULT_2
 70
0
 62
8
  6
HIDDEN
370
-3
390
F
  0
LAYER
  5
1FC
100
AcDbSymbolTableRecord
100
AcDbLayerTableRecord
  2
DEFAULT_3
 70
0
 62
7
  6
PHANTOM
370
-3
390
F
  0
LAYER
  5
1FD
100
AcDbSymbolTableRecord
100
AcDbLayerTableRecord
  2
00_COMPONENTS
 70
0
 62
7
  6
CONTINUOUS
370
-3
390
F
  0
LAYER
  5
1FE
100
AcDbSymbolTableRecord
100
AcDbLayerTableRecord
  2
01_1_DEFAULT_DATUMS
 70
0
 62
7
  6
CONTINUOUS
370
-3
390
F
  0
LAYER
  5
1FF
100
AcDbSymbolTableRecord
100
AcDbLayerTableRecord
  2
01_PLANES
 70
0
 62
7
  6
CONTINUOUS
370
-3
390
F
  0
LAYER
  5
200
100
AcDbSymbolTableRecord
100
AcDbLayerTableRecord
  2
02_COORD_SYS
 70
0
 62
7
  6
CONTINUOUS
370
-3
390
F
  0
LAYER
  5
201
100
AcDbSymbolTableRecord
100
AcDbLayerTableRecord
  2
03_AXES
 70
0
 62
7
  6
CONTINUOUS
370
-3
390
F
  0
LAYER
  5
202
100
AcDbSymbolTableRecord
100
AcDbLayerTableRecord
  2
04_POINTS
 70
0
 62
7
  6
CONTINUOUS
370
-3
390
F
  0
LAYER
  5
203
100
AcDbSymbolTableRecord
100
AcDbLayerTableRecord
  2
05_CURVES
 70
0
 62
7
  6
CONTINUOUS
370
-3
390
F
  0
LAYER
  5
204
100
AcDbSymbolTableRecord
100
AcDbLayerTableRecord
  2
06_SURFS
 70
0
 62
7
  6
CONTINUOUS
370
-3
390
F
  0
LAYER
  5
205
100
AcDbSymbolTableRecord
100
AcDbLayerTableRecord
  2
07_COSMETICS
 70
0
 62
7
  6
CONTINUOUS
370
-3
390
F
  0
LAYER
  5
206
100
AcDbSymbolTableRecord
100
AcDbLayerTableRecord
  2
10_NOTES
 70
0
 62
7
  6
CONTINUOUS
370
-3
390
F
  0
LAYER
  5
207
100
AcDbSymbolTableRecord
100
AcDbLayerTableRecord
  2
11_NOTES_PUB
 70
0
 62
7
  6
CONTINUOUS
370
-3
390
F
  0
LAYER
  5
208
100
AcDbSymbolTableRecord
100
AcDbLayerTableRecord
  2
13_REF_GTOL
 70
0
 62
7
  6
CONTINUOUS
370
-3
390
F
  0
LAYER
  5
209
100
AcDbSymbolTableRecord
100
AcDbLayerTableRecord
  2
16_MISC
 70
0
 62
7
  6
CONTINUOUS
370
-3
390
F
  0
LAYER
  5
20A
100
AcDbSymbolTableRecord
100
AcDbLayerTableRecord
  2
17_NO_PRINT
 70
0
 62
7
  6
CONTINUOUS
370
-3
390
F
  0
LAYER
  5
20B
100
AcDbSymbolTableRecord
100
AcDbLayerTableRecord
  2
18_DATUM_CAMS_JOINTS
 70
0
 62
7
  6
CONTINUOUS
370
-3
390
F
  0
LAYER
  5
20C
100
AcDbSymbolTableRecord
100
AcDbLayerTableRecord
  2
19_DATUM_FUNCTIONAL
 70
0
 62
7
  6
CONTINUOUS
370
-3
390
F
  0
LAYER
  5
20D
100
AcDbSymbolTableRecord
100
AcDbLayerTableRecord
  2
20_DATUM_KINEMATIC_SCHEME
 70
0
 62
7
  6
CONTINUOUS
370
-3
390
F
  0
ENDTAB
  0
TABLE
  2
STYLE
  5
3
100
AcDbSymbolTable
 70
1
  0
STYLE
  5
11
100
AcDbSymbolTableRecord
100
AcDbTextStyleTableRecord
  2
STANDARD
 70
0
 40
0.0
 41
0.8
 50
0.0
 71
0
 42
0.2
  3
txt
  4

  0
STYLE
  5
20E
100
AcDbSymbolTableRecord
100
AcDbTextStyleTableRecord
  2
TEXTSTYLE_1
 70
0
 40
0.0
 41
0.8
 50
0.0
 71
0
 42
0.2
  3
gdt
  4

  0
ENDTAB
  0
TABLE
  2
VIEW
  5
6
100
AcDbSymbolTable
 70
0
  0
ENDTAB
  0
TABLE
  2
UCS
  5
7
100
AcDbSymbolTable
 70
0
  0
ENDTAB
  0
TABLE
  2
APPID
  5
9
100
AcDbSymbolTable
 70
1
  0
APPID
  5
20F
100
AcDbSymbolTableRecord
100
AcDbRegAppTableRecord
  2
ACAD
 70
0
  0
ENDTAB
  0
TABLE
  2
BLOCK_RECORD
  5
1
100
AcDbSymbolTable
 70
0
  0
BLOCK_RECORD
  5
210
100
AcDbSymbolTableRecord
100
AcDbBlockTableRecord
  2
*Model_Space
  0
BLOCK_RECORD
  5
211
100
AcDbSymbolTableRecord
100
AcDbBlockTableRecord
  2
*Paper_Space
  0
BLOCK_RECORD
  5
212
100
AcDbSymbolTableRecord
100
AcDbBlockTableRecord
  2
_FILLED
  0
ENDTAB
  0
TABLE
  2
DIMSTYLE
  5
A
100
AcDbSymbolTable
 70
1
100
AcDbDimStyleTable
 71
0
  0
DIMSTYLE
105
213
100
AcDbSymbolTableRecord
100
AcDbDimStyleTableRecord
  2
STANDARD
 70
0
  3

  4

 40
1.0
 41
19.4265001905
 42
1.0
 43
0.38
 44
1.0
 45
0.0
 46
0.0
 47
0.01
 48
0.01
140
27.1971002667
141
0.09
142
0.0
143
25.4
144
1.0
145
0.0
146
1.0
147
0.625
 71
1
 72
0
 73
0
 74
0
 75
0
 76
0
 77
1
 78
8
 79
2
170
0
171
1
172
0
173
0
174
0
175
0
176
0
177
0
178
0
270
2
179
2
271
2
272
2
273
2
274
2
275
0
280
0
281
0
282
0
283
1
284
8
285
0
286
0
287
3
288
0
340
11
278
46
341
212
342
212
343
212
344
212
  0
ENDTAB
  0
ENDSEC
  0
SECTION
  2
BLOCKS
  0
BLOCK
  5
20
100
AcDbEntity
  8
0
100
AcDbBlockBegin
  2
*Model_Space
 70
0
 10
0.0
 20
0.0
 30
0.0
  3
*Model_Space
  1

  0
ENDBLK
  5
21
100
AcDbEntity
  8
0
100
AcDbBlockEnd
  0
BLOCK
  5
1C
100
AcDbEntity
  8
0
100
AcDbBlockBegin
  2
*Paper_Space
 70
0
 10
0.0
 20
0.0
 30
0.0
  3
*Paper_Space
  1

  0
ENDBLK
  5
1D
100
AcDbEntity
  8
0
100
AcDbBlockEnd
  0
BLOCK
  5
214
100
AcDbEntity
  8
0
100
AcDbBlockBegin
  2
_FILLED
 70
64
 10
0.0
 20
0.0
  3
_FILLED
  1

  0
SOLID
  5
215
100
AcDbEntity
  8
0
  6
BYBLOCK
 62
0
100
AcDbTrace
 10
0.0
 20
0.0
 11
-1.0
 21
0.25
 12
-1.0
 22
-0.25
 13
-1.0
 23
-0.25
  0
ENDBLK
  5
216
100
AcDbEntity
  8
0
  6
BYBLOCK
 62
0
100
AcDbBlockEnd
  0
ENDSEC
  0
SECTION
  2
ENTITIES
  0
LINE
  5
217
100
AcDbEntity
  8
0
100
AcDbLine
 62
7
  6
CONTINUOUS
 10
984.0384396384
 20
215.5151694968
 11
990.8456521524
 21
216.4983816175
  0
LINE
  5
218
100
AcDbEntity
  8
0
100
AcDbLine
 62
7
  6
CONTINUOUS
 10
941.4877598369
 20
237.864921687
 11
947.0719089804
 21
237.8230833662
  0
LINE
  5
219
100
AcDbEntity
  8
0
100
AcDbLine
 62
7
  6
CONTINUOUS
 10
728.1608842885
 20
2092.1111981892
 11
725.4890683167
 21
2090.5686337265
  0
LINE
  5
21A
100
AcDbEntity
  8
0
100
AcDbLine
 62
7
  6
CONTINUOUS
 10
941.2872600793
 20
237.3715216264
 11
947.5696689993
 21
236.4975303147
  0
LINE
  5
21B
100
AcDbEntity
  8
0
100
AcDbLine
 62
7
  6
CONTINUOUS
 10
947.0719089804
 20
237.8230833662
 11
947.7012776132
 21
237.7354439467
  0
LINE
  5
21C
100
AcDbEntity
  8
0
100
AcDbLine
 62
7
  6
CONTINUOUS
 10
735.7220207751
 20
2084.6607695237
 11
734.7320753503
 21
2084.0892276779
  0
LINE
  5
21D
100
AcDbEntity
  8
0
100
AcDbLine
 62
7
  6
CONTINUOUS
 10
664.9107838303
 20
327.4253887989
 11
922.8100888305
 21
178.5305240851
  0
LINE
  5
21E
100
AcDbEntity
  8
0
100
AcDbLine
 62
7
  6
CONTINUOUS
 10
920.6719959693
 20
180.7524480496
 11
665.7893519976
 21
327.9056821075
  0
LINE
  5
21F
100
AcDbEntity
  8
0
100
AcDbLine
 62
7
  6
CONTINUOUS
 10
728.5304558111
 20
2092.4743736005
 11
728.1608842885
 21
2092.1111981892
  0
LINE
  5
220
100
AcDbEntity
  8
0
100
AcDbLine
 62
7
  6
CONTINUOUS
 10
727.5802874834
 20
2093.1171100147
 11
725.3691961499
 21
2091.0767991077
  0
LINE
  5
221
100
AcDbEntity
  8
0
100
AcDbLine
 62
7
  6
CONTINUOUS
 10
975.6590405535
 20
221.6493990736
 11
976.2075102771
 21
221.3363249007
  0
LINE
  5
222
100
AcDbEntity
  8
0
100
AcDbLine
 62
7
  6
CONTINUOUS
 10
932.1824097821
 20
242.6280904769
 11
941.2872600793
 21
237.3715216264
  0
LINE
  5
223
100
AcDbEntity
  8
0
100
AcDbLine
 62
7
  6
CONTINUOUS
 10
932.1824097821
 20
243.2372465078
 11
941.4877598369
 21
237.864921687
  0
LINE
  5
224
100
AcDbEntity
  8
0
100
AcDbLine
 62
7
  6
CONTINUOUS
 10
947.5696689993
 20
236.4975303147
 11
975.6182636473
 21
220.3040329901
  0
LINE
  5
225
100
AcDbEntity
  8
0
100
AcDbLine
 62
7
  6
CONTINUOUS
 10
975.6998174596
 20
220.3293663405
 11
984.0384396384
 21
215.5151694926
  0
LINE
  5
226
100
AcDbEntity
  8
0
100
AcDbLine
 62
7
  6
CONTINUOUS
 10
947.0719089804
 20
237.8230833662
 11
932.1824097821
 21
246.419345263
  0
LINE
  5
227
100
AcDbEntity
  8
0
100
AcDbLine
 62
7
  6
CONTINUOUS
 10
947.6104459055
 20
237.8428963982
 11
976.2050881295
 21
221.3349197713
  0
LINE
  5
228
100
AcDbEntity
  8
0
100
AcDbLine
 62
7
  6
CONTINUOUS
 10
932.318603454
 20
248.8283369596
 11
933.7328229043
 21
248.0118554506
  0
LINE
  5
229
100
AcDbEntity
  8
0
100
AcDbLine
 62
7
  6
CONTINUOUS
 10
933.7328229043
 20
250.3926972769
 11
932.318603454
 21
251.209178786
  0
LINE
  5
22A
100
AcDbEntity
  8
0
100
AcDbLine
 62
7
  6
CONTINUOUS
 10
932.1824097821
 20
254.9619752511
 11
982.8674449304
 21
225.6996185673
  0
LINE
  5
22B
100
AcDbEntity
  8
0
100
AcDbLine
 62
7
  6
CONTINUOUS
 10
932.4657848144
 20
246.6335571922
 11
947.6104459055
 21
237.8428963982
  0
LINE
  5
22C
100
AcDbEntity
  8
0
100
AcDbLine
 62
7
  6
CONTINUOUS
 10
727.5802874834
 20
2129.4204728924
 11
731.8393603155
 21
2134.8263454576
  0
LINE
  5
22D
100
AcDbEntity
  8
0
100
AcDbLine
 62
7
  6
CONTINUOUS
 10
980.5044853744
 20
1943.777703545
 11
984.0384396384
 21
1945.0542764611
  0
LINE
  5
22E
100
AcDbEntity
  8
0
100
AcDbLine
 62
7
  6
CONTINUOUS
 10
982.5536863408
 20
1945.5381764081
 11
982.851237806
 21
1945.6455233676
  0
LINE
  5
22F
100
AcDbEntity
  8
0
100
AcDbLine
 62
7
  6
CONTINUOUS
 10
968.4014056511
 20
255.9474848223
 11
977.4119187939
 21
250.745380382
  0
LINE
  5
230
100
AcDbEntity
  8
0
100
AcDbLine
 62
7
  6
CONTINUOUS
 10
990.8456521524
 20
1985.2923760541
 11
984.0384396384
 21
1981.3576393388
  0
LINE
  5
231
100
AcDbEntity
  8
0
100
AcDbLine
 62
7
  6
CONTINUOUS
 10
968.4014056511
 20
1949.1832289088
 11
969.3913510759
 21
1949.7547707547
  0
LINE
  5
232
100
AcDbEntity
  8
0
100
AcDbLine
 62
7
  6
CONTINUOUS
 10
929.5914442046
 20
1914.9605941775
 11
931.6826633714
 21
1916.1679529194
  0
LINE
  5
233
100
AcDbEntity
  8
0
100
AcDbLine
 62
7
  6
CONTINUOUS
 10
979.6243035345
 20
1943.8469065519
 11
982.5536863408
 21
1945.5381764081
  0
LINE
  5
234
100
AcDbEntity
  8
0
100
AcDbLine
 62
7
  6
CONTINUOUS
 10
929.5914442046
 20
1949.9228395088
 11
925.3323713726
 21
1947.4684915384
  0
LINE
  5
235
100
AcDbEntity
  8
0
100
AcDbLine
 62
7
  6
CONTINUOUS
 10
929.5914442046
 20
1913.6194766311
 11
931.8025355382
 21
1915.6597875381
  0
LINE
  5
236
100
AcDbEntity
  8
0
100
AcDbLine
 62
7
  6
CONTINUOUS
 10
664.9112306458
 20
327.4242407801
 11
664.9112306458
 21
2094.8506466273
  0
LINE
  5
237
100
AcDbEntity
  8
0
100
AcDbLine
 62
7
  6
CONTINUOUS
 10
665.7893519976
 20
327.9056821075
 11
665.7893519976
 21
2091.9239791225
  0
LINE
  5
238
100
AcDbEntity
  8
0
100
AcDbLine
 62
7
  6
CONTINUOUS
 10
674.3204938821
 20
2035.9676966036
 11
674.3204938821
 21
2027.7442460103
  0
LINE
  5
239
100
AcDbEntity
  8
0
100
AcDbLine
 62
7
  6
CONTINUOUS
 10
674.3204938821
 20
1423.5908837564
 11
674.3204938821
 21
1415.3674331631
  0
LINE
  5
23A
100
AcDbEntity
  8
0
100
AcDbLine
 62
7
  6
CONTINUOUS
 10
674.3204938821
 20
994.9271147634
 11
674.3204938821
 21
986.7036641701
  0
LINE
  5
23B
100
AcDbEntity
  8
0
100
AcDbLine
 62
7
  6
CONTINUOUS
 10
674.3204938821
 20
382.5503019162
 11
674.3204938821
 21
374.3268513229
  0
LINE
  5
23C
100
AcDbEntity
  8
0
100
AcDbLine
 62
7
  6
CONTINUOUS
 10
674.6180453473
 20
2035.5258178189
 11
674.6180453473
 21
2027.843148571
  0
LINE
  5
23D
100
AcDbEntity
  8
0
100
AcDbLine
 62
7
  6
CONTINUOUS
 10
674.6180453473
 20
1423.1490049717
 11
674.6180453473
 21
1415.4663357238
  0
LINE
  5
23E
100
AcDbEntity
  8
0
100
AcDbLine
 62
7
  6
CONTINUOUS
 10
674.6180453473
 20
994.4852359787
 11
674.6180453473
 21
986.8025667308
  0
LINE
  5
23F
100
AcDbEntity
  8
0
100
AcDbLine
 62
7
  6
CONTINUOUS
 10
674.6180453473
 20
382.1084231315
 11
674.6180453473
 21
374.4257538836
  0
LINE
  5
240
100
AcDbEntity
  8
0
100
AcDbLine
 62
7
  6
CONTINUOUS
 10
724.9893219059
 20
2064.6725055997
 11
724.9893219059
 21
2066.8672853672
  0
LINE
  5
241
100
AcDbEntity
  8
0
100
AcDbLine
 62
7
  6
CONTINUOUS
 10
724.9893219059
 20
2070.8727520824
 11
724.9893219059
 21
2090.3119425638
  0
LINE
  5
242
100
AcDbEntity
  8
0
100
AcDbLine
 62
7
  6
CONTINUOUS
 10
725.7215623129
 20
2064.3956121889
 11
725.7215623129
 21
2066.8672853672
  0
LINE
  5
243
100
AcDbEntity
  8
0
100
AcDbLine
 62
7
  6
CONTINUOUS
 10
725.7215623129
 20
2070.4500024502
 11
725.7215623129
 21
2089.2913321791
  0
LINE
  5
244
100
AcDbEntity
  8
0
100
AcDbLine
 62
7
  6
CONTINUOUS
 10
727.5802874834
 20
2093.1171100147
 11
727.5802874834
 21
2129.4204728924
  0
LINE
  5
245
100
AcDbEntity
  8
0
100
AcDbLine
 62
7
  6
CONTINUOUS
 10
728.1608842885
 20
2069.0416911112
 11
728.1608842885
 21
2071.1162490773
  0
LINE
  5
246
100
AcDbEntity
  8
0
100
AcDbLine
 62
7
  6
CONTINUOUS
 10
728.1608842885
 20
2089.0260949528
 11
728.1608842885
 21
2092.1111981892
  0
LINE
  5
247
100
AcDbEntity
  8
0
100
AcDbLine
 62
7
  6
CONTINUOUS
 10
728.7009690459
 20
2071.2971837038
 11
728.7009690459
 21
2068.7298800853
  0
LINE
  5
248
100
AcDbEntity
  8
0
100
AcDbLine
 62
7
  6
CONTINUOUS
 10
729.0957394814
 20
2066.3740985134
 11
729.0957394814
 21
2067.246188811
  0
LINE
  5
249
100
AcDbEntity
  8
0
100
AcDbLine
 62
7
  6
CONTINUOUS
 10
730.5099589317
 20
2066.429707302
 11
730.5099589317
 21
2065.5576170043
  0
LINE
  5
24A
100
AcDbEntity
  8
0
100
AcDbLine
 62
7
  6
CONTINUOUS
 10
734.7320753503
 20
2084.0892276779
 11
734.7320753503
 21
2065.2478980099
  0
LINE
  5
24B
100
AcDbEntity
  8
0
100
AcDbLine
 62
7
  6
CONTINUOUS
 10
735.7220207751
 20
2084.6607695237
 11
735.7220207751
 21
2064.6763656822
  0
LINE
  5
24C
100
AcDbEntity
  8
0
100
AcDbLine
 62
7
  6
CONTINUOUS
 10
735.81278434
 20
2123.2391584811
 11
735.81278434
 21
2084.6607695237
  0
LINE
  5
24D
100
AcDbEntity
  8
0
100
AcDbLine
 62
7
  6
CONTINUOUS
 10
735.9189096623
 20
2123.2627008983
 11
735.9189096623
 21
2124.6062760487
  0
LINE
  5
24E
100
AcDbEntity
  8
0
100
AcDbLine
 62
7
  6
CONTINUOUS
 10
728.741745952
 20
2127.4063445567
 11
728.7017765667
 21
2093.1158027963
  0
LINE
  5
24F
100
AcDbEntity
  8
0
100
AcDbLine
 62
7
  6
CONTINUOUS
 10
728.7017765667
 20
2093.1158027963
 11
728.7009690459
 21
2088.7142839268
  0
LINE
  5
250
100
AcDbEntity
  8
0
100
AcDbLine
 62
7
  6
CONTINUOUS
 10
763.964927851
 20
2103.5107774252
 11
763.9675314644
 21
2103.8899227758
  0
LINE
  5
251
100
AcDbEntity
  8
0
100
AcDbLine
 62
7
  6
CONTINUOUS
 10
763.9675314644
 20
2103.8899227758
 11
763.8859504978
 21
2108.3439424057
  0
LINE
  5
252
100
AcDbEntity
  8
0
100
AcDbLine
 62
7
  6
CONTINUOUS
 10
785.6640464586
 20
2099.0336308231
 11
785.6640464586
 21
2101.4144726494
  0
LINE
  5
253
100
AcDbEntity
  8
0
100
AcDbLine
 62
7
  6
CONTINUOUS
 10
787.0782659088
 20
2100.5979911404
 11
787.0782659088
 21
2098.2171493141
  0
LINE
  5
254
100
AcDbEntity
  8
0
100
AcDbLine
 62
7
  6
CONTINUOUS
 10
875.7502964769
 20
1981.7049660259
 11
875.7502964769
 21
1982.5770563235
  0
LINE
  5
255
100
AcDbEntity
  8
0
100
AcDbLine
 62
7
  6
CONTINUOUS
 10
877.1645159272
 20
1981.7605748145
 11
877.1645159272
 21
1980.8884845168
  0
LINE
  5
256
100
AcDbEntity
  8
0
100
AcDbLine
 62
7
  6
CONTINUOUS
 10
893.2042002237
 20
1973.7560438775
 11
893.2857811903
 21
1970.9558670358
  0
LINE
  5
257
100
AcDbEntity
  8
0
100
AcDbLine
 62
7
  6
CONTINUOUS
 10
920.6719959693
 20
1944.7707450646
 11
920.6719959693
 21
180.7524480496
  0
LINE
  5
258
100
AcDbEntity
  8
0
100
AcDbLine
 62
7
  6
CONTINUOUS
 10
925.3323713726
 20
178.6744971018
 11
925.3323713726
 21
1947.4684915384
  0
LINE
  5
259
100
AcDbEntity
  8
0
100
AcDbLine
 62
7
  6
CONTINUOUS
 10
929.5914442046
 20
184.0803696669
 11
929.5914442046
 21
220.3837325446
  0
LINE
  5
25A
100
AcDbEntity
  8
0
100
AcDbLine
 62
7
  6
CONTINUOUS
 10
929.5914442046
 20
1913.6194766311
 11
929.5914442046
 21
1949.9228395088
  0
LINE
  5
25B
100
AcDbEntity
  8
0
100
AcDbLine
 62
7
  6
CONTINUOUS
 10
931.8025355382
 20
1915.6597875381
 11
931.8025355382
 21
222.4240434516
  0
LINE
  5
25C
100
AcDbEntity
  8
0
100
AcDbLine
 62
7
  6
CONTINUOUS
 10
932.1824097821
 20
223.1888999956
 11
932.1824097821
 21
1916.4246440821
  0
LINE
  5
25D
100
AcDbEntity
  8
0
100
AcDbLine
 62
7
  6
CONTINUOUS
 10
932.318603454
 20
2014.3644983356
 11
932.318603454
 21
2016.7453401619
  0
LINE
  5
25E
100
AcDbEntity
  8
0
100
AcDbLine
 62
7
  6
CONTINUOUS
 10
933.7328229043
 20
2015.9288586529
 11
933.7328229043
 21
2013.5480168265
  0
LINE
  5
25F
100
AcDbEntity
  8
0
100
AcDbLine
 62
7
  6
CONTINUOUS
 10
933.7328229043
 20
250.3926972769
 11
933.7328229043
 21
248.0118554506
  0
LINE
  5
260
100
AcDbEntity
  8
0
100
AcDbLine
 62
7
  6
CONTINUOUS
 10
947.5696689993
 20
2002.2964971969
 11
947.5696689993
 21
2000.9746735306
  0
LINE
  5
261
100
AcDbEntity
  8
0
100
AcDbLine
 62
7
  6
CONTINUOUS
 10
947.5696689993
 20
237.819353981
 11
947.5696689993
 21
236.4975303147
  0
LINE
  5
262
100
AcDbEntity
  8
0
100
AcDbLine
 62
7
  6
CONTINUOUS
 10
968.4014056511
 20
1949.1832289088
 11
968.4014056511
 21
255.9474848223
  0
LINE
  5
263
100
AcDbEntity
  8
0
100
AcDbLine
 62
7
  6
CONTINUOUS
 10
982.8769811699
 20
217.5292978325
 11
982.8374657985
 21
251.3847037049
  0
LINE
  5
264
100
AcDbEntity
  8
0
100
AcDbLine
 62
7
  6
CONTINUOUS
 10
975.6998174596
 20
1986.1718361909
 11
975.6998174596
 21
1984.8282610405
  0
LINE
  5
265
100
AcDbEntity
  8
0
100
AcDbLine
 62
7
  6
CONTINUOUS
 10
975.6998174596
 20
221.6729414909
 11
975.6998174596
 21
220.3293663405
  0
LINE
  5
266
100
AcDbEntity
  8
0
100
AcDbLine
 62
7
  6
CONTINUOUS
 10
977.4119187939
 20
1943.9811244685
 11
977.4119187939
 21
250.745380382
  0
LINE
  5
267
100
AcDbEntity
  8
0
100
AcDbLine
 62
7
  6
CONTINUOUS
 10
980.5044853744
 20
250.5419594585
 11
980.5044853744
 21
1943.777703545
  0
LINE
  5
268
100
AcDbEntity
  8
0
100
AcDbLine
 62
7
  6
CONTINUOUS
 10
984.0384396384
 20
251.8185323745
 11
984.0384396384
 21
215.5151694968
  0
LINE
  5
269
100
AcDbEntity
  8
0
100
AcDbLine
 62
7
  6
CONTINUOUS
 10
984.0384396384
 20
1945.0542764611
 11
984.0384396384
 21
1981.357639343
  0
LINE
  5
26A
100
AcDbEntity
  8
0
100
AcDbLine
 62
7
  6
CONTINUOUS
 10
990.8456521524
 20
1985.2923760541
 11
990.8456521524
 21
216.4983816175
  0
LINE
  5
26B
100
AcDbEntity
  8
0
100
AcDbLine
 62
7
  6
CONTINUOUS
 10
992.2605010423
 20
218.6502606938
 11
992.2605010423
 21
1986.0766665411
  0
LINE
  5
26C
100
AcDbEntity
  8
0
100
AcDbLine
 62
7
  6
CONTINUOUS
 10
982.8362042637
 20
1945.7012872333
 11
982.8769811699
 21
1980.6846173821
  0
LINE
  5
26D
100
AcDbEntity
  8
0
100
AcDbLine
 62
7
  6
CONTINUOUS
 10
941.4877598369
 20
237.864921687
 11
941.2872600793
 21
237.3715216264
  0
LINE
  5
26E
100
AcDbEntity
  8
0
100
AcDbLine
 62
7
  6
CONTINUOUS
 10
941.2872600793
 20
2001.5166457203
 11
941.4877598369
 21
2001.0202412366
  0
LINE
  5
26F
100
AcDbEntity
  8
0
100
AcDbLine
 62
7
  6
CONTINUOUS
 10
925.3323713726
 20
178.6744971018
 11
929.5914442046
 21
184.0803696669
  0
LINE
  5
270
100
AcDbEntity
  8
0
100
AcDbLine
 62
7
  6
CONTINUOUS
 10
931.6826633714
 20
1916.1679529194
 11
929.5914442046
 21
1917.3752915546
  0
LINE
  5
271
100
AcDbEntity
  8
0
100
AcDbLine
 62
7
  6
CONTINUOUS
 10
929.5914442046
 20
1918.5183656799
 11
931.4501693752
 21
1917.4452544668
  0
LINE
  5
272
100
AcDbEntity
  8
0
100
AcDbLine
 62
7
  6
CONTINUOUS
 10
665.7893519976
 20
2091.9239791225
 11
920.6719959693
 21
1944.7707450646
  0
LINE
  5
273
100
AcDbEntity
  8
0
100
AcDbLine
 62
7
  6
CONTINUOUS
 10
925.3373353981
 20
1947.4713521248
 11
666.3340134634
 21
2097.0036068932
  0
LINE
  5
274
100
AcDbEntity
  8
0
100
AcDbLine
 62
7
  6
CONTINUOUS
 10
723.4389087837
 20
2065.4889871087
 11
724.853128234
 21
2064.6725055997
  0
LINE
  5
275
100
AcDbEntity
  8
0
100
AcDbLine
 62
7
  6
CONTINUOUS
 10
870.0934657792
 20
1980.8198546212
 11
871.5076852295
 21
1980.0033731122
  0
LINE
  5
276
100
AcDbEntity
  8
0
100
AcDbLine
 62
7
  6
CONTINUOUS
 10
931.8025355382
 20
222.4240434516
 11
929.5914442046
 21
220.3837325446
  0
LINE
  5
277
100
AcDbEntity
  8
0
100
AcDbLine
 62
7
  6
CONTINUOUS
 10
982.8769811699
 20
1980.6846173821
 11
975.6590405535
 21
1984.8047186233
  0
LINE
  5
278
100
AcDbEntity
  8
0
100
AcDbLine
 62
7
  6
CONTINUOUS
 10
673.1332920497
 20
2097.9856730667
 11
681.4719142284
 21
2093.1714762188
  0
LINE
  5
279
100
AcDbEntity
  8
0
100
AcDbLine
 62
7
  6
CONTINUOUS
 10
921.2528220258
 20
1954.737036361
 11
929.5914442046
 21
1949.9228395131
  0
LINE
  5
27A
100
AcDbEntity
  8
0
100
AcDbLine
 62
7
  6
CONTINUOUS
 10
681.5534680408
 20
2093.1968095692
 11
709.6020626887
 21
2077.0033122447
  0
LINE
  5
27B
100
AcDbEntity
  8
0
100
AcDbLine
 62
7
  6
CONTINUOUS
 10
893.2857811903
 20
1970.9558670358
 11
921.3343758381
 21
1954.7623697114
  0
LINE
  5
27C
100
AcDbEntity
  8
0
100
AcDbLine
 62
7
  6
CONTINUOUS
 10
729.0957394814
 20
2066.3740985134
 11
730.5099589317
 21
2065.5576170043
  0
LINE
  5
27D
100
AcDbEntity
  8
0
100
AcDbLine
 62
7
  6
CONTINUOUS
 10
875.7502964769
 20
1981.7049660259
 11
877.1645159272
 21
1980.8884845168
  0
LINE
  5
27E
100
AcDbEntity
  8
0
100
AcDbLine
 62
7
  6
CONTINUOUS
 10
877.1645159272
 20
1981.7605748145
 11
875.7502964769
 21
1982.5770563235
  0
LINE
  5
27F
100
AcDbEntity
  8
0
100
AcDbLine
 62
7
  6
CONTINUOUS
 10
730.5099589317
 20
2066.429707302
 11
729.0957394814
 21
2067.246188811
  0
LINE
  5
280
100
AcDbEntity
  8
0
100
AcDbLine
 62
7
  6
CONTINUOUS
 10
715.8844716087
 20
2076.129320933
 11
893.2042002237
 21
1973.7560438775
  0
LINE
  5
281
100
AcDbEntity
  8
0
100
AcDbLine
 62
7
  6
CONTINUOUS
 10
977.4119187939
 20
1943.9811244685
 11
968.4014056511
 21
1949.1832289088
  0
LINE
  5
282
100
AcDbEntity
  8
0
100
AcDbLine
 62
7
  6
CONTINUOUS
 10
734.7320753503
 20
2084.0892276779
 11
725.7215623129
 21
2089.2913321791
  0
LINE
  5
283
100
AcDbEntity
  8
0
100
AcDbLine
 62
7
  6
CONTINUOUS
 10
725.4890683167
 20
2090.5686337265
 11
735.7220207751
 21
2084.6607695237
  0
LINE
  5
284
100
AcDbEntity
  8
0
100
AcDbLine
 62
7
  6
CONTINUOUS
 10
969.3913510759
 20
1949.7547707547
 11
979.6243035345
 21
1943.8469065519
  0
LINE
  5
285
100
AcDbEntity
  8
0
100
AcDbLine
 62
7
  6
CONTINUOUS
 10
727.5802874834
 20
2093.1171100147
 11
728.741745952
 21
2092.4465568252
  0
LINE
  5
286
100
AcDbEntity
  8
0
100
AcDbLine
 62
7
  6
CONTINUOUS
 10
982.8769811699
 20
1945.7248296506
 11
984.0384396384
 21
1945.0542764611
  0
LINE
  5
287
100
AcDbEntity
  8
0
100
AcDbLine
 62
7
  6
CONTINUOUS
 10
941.4877598369
 20
2001.0202412366
 11
763.964927851
 21
2103.5107774252
  0
LINE
  5
288
100
AcDbEntity
  8
0
100
AcDbLine
 62
7
  6
CONTINUOUS
 10
941.2872600794
 20
2001.5166457203
 11
763.9675314644
 21
2103.8899227758
  0
LINE
  5
289
100
AcDbEntity
  8
0
100
AcDbLine
 62
7
  6
CONTINUOUS
 10
780.0072157608
 20
2096.6397678898
 11
781.4214352111
 21
2095.8232863807
  0
LINE
  5
28A
100
AcDbEntity
  8
0
100
AcDbLine
 62
7
  6
CONTINUOUS
 10
926.6617727563
 20
2011.9706354023
 11
928.0759922066
 21
2011.1541538932
  0
LINE
  5
28B
100
AcDbEntity
  8
0
100
AcDbLine
 62
7
  6
CONTINUOUS
 10
975.6590405535
 20
1984.8047186233
 11
947.6104459055
 21
2000.9982159478
  0
LINE
  5
28C
100
AcDbEntity
  8
0
100
AcDbLine
 62
7
  6
CONTINUOUS
 10
763.926727404
 20
2107.0456611566
 11
735.8781327561
 21
2123.2391584811
  0
LINE
  5
28D
100
AcDbEntity
  8
0
100
AcDbLine
 62
7
  6
CONTINUOUS
 10
975.6182636473
 20
1986.1029998723
 11
947.5696689993
 21
2002.2964971969
  0
LINE
  5
28E
100
AcDbEntity
  8
0
100
AcDbLine
 62
7
  6
CONTINUOUS
 10
763.8859504978
 20
2108.3439424057
 11
735.83735585
 21
2124.5374397302
  0
LINE
  5
28F
100
AcDbEntity
  8
0
100
AcDbLine
 62
7
  6
CONTINUOUS
 10
984.0384396384
 20
1981.357639343
 11
975.6998174596
 21
1986.1718361909
  0
LINE
  5
290
100
AcDbEntity
  8
0
100
AcDbLine
 62
7
  6
CONTINUOUS
 10
735.9189096623
 20
2124.6062760487
 11
727.5802874834
 21
2129.4204728967
  0
LINE
  5
291
100
AcDbEntity
  8
0
100
AcDbLine
 62
7
  6
CONTINUOUS
 10
785.6640464586
 20
2099.0336308231
 11
787.0782659088
 21
2098.2171493141
  0
LINE
  5
292
100
AcDbEntity
  8
0
100
AcDbLine
 62
7
  6
CONTINUOUS
 10
932.318603454
 20
2014.3644983356
 11
933.7328229043
 21
2013.5480168265
  0
LINE
  5
293
100
AcDbEntity
  8
0
100
AcDbLine
 62
7
  6
CONTINUOUS
 10
933.7328229043
 20
2015.9288586529
 11
932.318603454
 21
2016.7453401619
  0
LINE
  5
294
100
AcDbEntity
  8
0
100
AcDbLine
 62
7
  6
CONTINUOUS
 10
787.0782659088
 20
2100.5979911404
 11
785.6640464586
 21
2101.4144726494
  0
LINE
  5
295
100
AcDbEntity
  8
0
100
AcDbLine
 62
7
  6
CONTINUOUS
 10
731.83439629
 20
2134.8200448166
 11
990.8377182246
 21
1985.2877900482
  0
LINE
  5
296
100
AcDbEntity
  8
0
100
AcDbLine
 62
7
  6
CONTINUOUS
 10
992.2609918724
 20
1986.0754283492
 11
734.3616868722
 21
2134.970293063
  0
LINE
  5
297
100
AcDbEntity
  8
0
100
AcDbLine
 62
7
  6
CONTINUOUS
 10
735.8781327561
 20
2123.2391584811
 11
728.741745952
 21
2127.4063445567
  0
LINE
  5
298
100
AcDbEntity
  8
0
100
AcDbLine
 62
7
  6
CONTINUOUS
 10
947.7012776132
 20
2001.0566114529
 11
947.0719089804
 21
2000.9784029158
  0
LINE
  5
299
100
AcDbEntity
  8
0
100
AcDbLine
 62
7
  6
CONTINUOUS
 10
947.5696689993
 20
2002.2964971969
 11
941.2872600793
 21
2001.5166457203
  0
LWPOLYLINE
  5
29A
100
AcDbEntity
  8
0
100
AcDbPolyline
 62
7
  6
CONTINUOUS
 90
4
 70
0
 10
871.3614489895
 20
1982.2849641735
 10
871.4651382011
 20
1982.2904633948
 10
871.6536307989
 20
1982.2956224154
 10
871.8452134598
 20
1982.296126877
  0
LINE
  5
29B
100
AcDbEntity
  8
0
100
AcDbLine
 62
7
  6
CONTINUOUS
 10
947.0719089804
 20
2000.9784029158
 11
941.4877598369
 21
2001.0202412366
  0
LINE
  5
29C
100
AcDbEntity
  8
0
100
AcDbLine
 62
7
  6
CONTINUOUS
 10
984.0384396384
 20
251.8185323745
 11
980.5044853744
 21
250.5419594585
  0
LINE
  5
29D
100
AcDbEntity
  8
0
100
AcDbLine
 62
7
  6
CONTINUOUS
 10
666.3260795357
 20
2097.0024609419
 11
673.1332920497
 21
2097.9856730625
  0
LWPOLYLINE
  5
29E
100
AcDbEntity
  8
0
100
AcDbPolyline
 62
7
  6
CONTINUOUS
 90
4
 70
0
 10
724.7302740653
 20
2066.9553367436
 10
724.8105812056
 20
2066.9595958823
 10
724.9990738034
 20
2066.964754903
 10
725.1906564643
 20
2066.9652593645
  0
LINE
  5
29F
100
AcDbEntity
  8
0
100
AcDbLine
 62
7
  6
CONTINUOUS
 10
709.6020626887
 20
2077.0033122446
 11
715.8844716087
 21
2076.129320933
  0
ARC
  5
2A0
100
AcDbEntity
  8
0
100
AcDbCircle
 62
7
  6
CONTINUOUS
 10
737.0710625378
 20
2070.2437724819
 40
9.446110452
100
AcDbArc
 50
205.9935753134
 51
215.7018974378
  0
ARC
  5
2A1
100
AcDbEntity
  8
0
100
AcDbCircle
 62
7
  6
CONTINUOUS
 10
736.9027341543
 20
2070.1666318911
 40
9.2610022577
100
AcDbArc
 50
202.7360276032
 51
206.021020154
  0
ARC
  5
2A2
100
AcDbEntity
  8
0
100
AcDbCircle
 62
7
  6
CONTINUOUS
 10
735.7223129474
 20
2069.4157885041
 40
9.0050686629
100
AcDbArc
 50
216.2909675032
 51
220.2104948531
  0
ARC
  5
2A3
100
AcDbEntity
  8
0
100
AcDbCircle
 62
7
  6
CONTINUOUS
 10
734.9598108763
 20
2069.2308184105
 40
8.2403432712
100
AcDbArc
 50
195.8943896648
 51
198.8965681605
  0
ARC
  5
2A4
100
AcDbEntity
  8
0
100
AcDbCircle
 62
7
  6
CONTINUOUS
 10
734.6282666816
 20
2069.1363058548
 40
7.8955909461
100
AcDbArc
 50
193.4040975399
 51
195.8936582034
  0
ARC
  5
2A5
100
AcDbEntity
  8
0
100
AcDbCircle
 62
7
  6
CONTINUOUS
 10
932.0013752282
 20
2010.5432574767
 40
3.4679229815
100
AcDbArc
 50
55.1569152269
 51
60.0479458421
  0
ARC
  5
2A6
100
AcDbEntity
  8
0
100
AcDbCircle
 62
7
  6
CONTINUOUS
 10
785.3468182326
 20
2095.2123899641
 40
3.4679229816
100
AcDbArc
 50
55.1569152269
 51
60.047945842
  0
ARC
  5
2A7
100
AcDbEntity
  8
0
100
AcDbCircle
 62
7
  6
CONTINUOUS
 10
871.8249022502
 20
1978.7002230883
 40
3.4679031442
100
AcDbArc
 50
119.9524784471
 51
124.8429415669
  0
ARC
  5
2A8
100
AcDbEntity
  8
0
100
AcDbCircle
 62
7
  6
CONTINUOUS
 10
725.1703452548
 20
2063.3693555757
 40
3.4679031443
100
AcDbArc
 50
119.9524784472
 51
124.8429415668
  0
ARC
  5
2A9
100
AcDbEntity
  8
0
100
AcDbCircle
 62
7
  6
CONTINUOUS
 10
932.0013866685
 20
250.1314866011
 40
3.4679026955
100
AcDbArc
 50
299.9524782357
 51
304.84295213
  0
ARC
  5
2AA
100
AcDbEntity
  8
0
100
AcDbCircle
 62
7
  6
CONTINUOUS
 10
739.8058249013
 20
2076.8068630839
 40
2.1825794294
100
AcDbArc
 50
107.8383596714
 51
119.9935992954
  0
ARC
  5
2AB
100
AcDbEntity
  8
0
100
AcDbCircle
 62
7
  6
CONTINUOUS
 10
670.1560969357
 20
383.1774192402
 40
2.1825794294
100
AcDbArc
 50
107.8383596715
 51
119.9935992954
  0
ARC
  5
2AC
100
AcDbEntity
  8
0
100
AcDbCircle
 62
7
  6
CONTINUOUS
 10
670.1560969357
 20
1424.2180010804
 40
2.1825794294
100
AcDbArc
 50
107.8383596713
 51
119.9935992955
  0
ARC
  5
2AD
100
AcDbEntity
  8
0
100
AcDbCircle
 62
7
  6
CONTINUOUS
 10
670.1560969357
 20
995.5542320874
 40
2.1825794294
100
AcDbArc
 50
107.8383596713
 51
119.9935992955
  0
ARC
  5
2AE
100
AcDbEntity
  8
0
100
AcDbCircle
 62
7
  6
CONTINUOUS
 10
670.1560969357
 20
2036.5948139276
 40
2.1825794294
100
AcDbArc
 50
107.8383596713
 51
119.9935992955
  0
ARC
  5
2AF
100
AcDbEntity
  8
0
100
AcDbCircle
 62
7
  6
CONTINUOUS
 10
911.987622936
 20
243.5590811942
 40
2.1825794294
100
AcDbArc
 50
107.8383596715
 51
119.9935992954
  0
ARC
  5
2B0
100
AcDbEntity
  8
0
100
AcDbCircle
 62
7
  6
CONTINUOUS
 10
911.987622936
 20
1284.5996630344
 40
2.1825794295
100
AcDbArc
 50
107.8383596716
 51
119.9935992952
  0
ARC
  5
2B1
100
AcDbEntity
  8
0
100
AcDbCircle
 62
7
  6
CONTINUOUS
 10
911.987622936
 20
855.9358940414
 40
2.1825794294
100
AcDbArc
 50
107.8383596715
 51
119.9935992954
  0
ARC
  5
2B2
100
AcDbEntity
  8
0
100
AcDbCircle
 62
7
  6
CONTINUOUS
 10
911.987622936
 20
1896.9764758816
 40
2.1825794294
100
AcDbArc
 50
107.8383596714
 51
119.9935992955
  0
ARC
  5
2B3
100
AcDbEntity
  8
0
100
AcDbCircle
 62
7
  6
CONTINUOUS
 10
729.7809652573
 20
2063.6630663545
 40
1.9645412329
100
AcDbArc
 50
33.4559426979
 51
38.7148775292
  0
ARC
  5
2B4
100
AcDbEntity
  8
0
100
AcDbCircle
 62
7
  6
CONTINUOUS
 10
876.4355222526
 20
1978.9939338669
 40
1.9645412331
100
AcDbArc
 50
33.4559426982
 51
38.714877529
  0
ARC
  5
2B5
100
AcDbEntity
  8
0
100
AcDbCircle
 62
7
  6
CONTINUOUS
 10
970.6575398522
 20
276.6604908171
 40
1.850729111
100
AcDbArc
 50
106.562763561
 51
119.9850195739
  0
ARC
  5
2B6
100
AcDbEntity
  8
0
100
AcDbCircle
 62
7
  6
CONTINUOUS
 10
970.6575398522
 20
1317.7010726573
 40
1.850729111
100
AcDbArc
 50
106.562763561
 51
119.9850195739
  0
ARC
  5
2B7
100
AcDbEntity
  8
0
100
AcDbCircle
 62
7
  6
CONTINUOUS
 10
970.6575398522
 20
889.0373036643
 40
1.850729111
100
AcDbArc
 50
106.562763561
 51
119.9850195739
  0
ARC
  5
2B8
100
AcDbEntity
  8
0
100
AcDbCircle
 62
7
  6
CONTINUOUS
 10
970.6575398522
 20
1930.0778855044
 40
1.850729111
100
AcDbArc
 50
106.5627635611
 51
119.9850195737
  0
ARC
  5
2B9
100
AcDbEntity
  8
0
100
AcDbCircle
 62
7
  6
CONTINUOUS
 10
728.8260138603
 20
2069.6962236105
 40
1.8507290631
100
AcDbArc
 50
106.5627637595
 51
119.9850195802
  0
ARC
  5
2BA
100
AcDbEntity
  8
0
100
AcDbCircle
 62
7
  6
CONTINUOUS
 10
924.1998967725
 20
179.573844632
 40
1.4477679695
100
AcDbArc
 50
299.1688752774
 51
321.4643860892
  0
ARC
  5
2BB
100
AcDbEntity
  8
0
100
AcDbCircle
 62
7
  6
CONTINUOUS
 10
732.9718345551
 20
2133.9269980986
 40
1.4477676442
100
AcDbArc
 50
119.1688661224
 51
141.4643793492
  0
SPLINE
  5
2BC
100
AcDbEntity
  8
0
100
AcDbSpline
 62
7
  6
CONTINUOUS
 70
0
 71
3
 72
9
 73
5
 74
0
 42
0.0000001
 43
0.0000001
 44
0.0000000001
 40
0.0
 40
0.0
 40
0.0
 40
0.0
 40
0.5026479413
 40
1.0
 40
1.0
 40
1.0
 40
1.0
 10
990.8456521524
 20
216.4957681967
 30
0.0
 10
990.9408844131
 20
216.5106290244
 30
0.0
 10
991.1277716929
 20
216.5592904598
 30
0.0
 10
991.3021422869
 20
216.6420215455
 30
0.0
 10
991.3840636193
 20
216.6908497685
 30
0.0
  0
SPLINE
  5
2BD
100
AcDbEntity
  8
0
100
AcDbSpline
 62
7
  6
CONTINUOUS
 70
0
 71
3
 72
8
 73
4
 74
0
 42
0.0000001
 43
0.0000001
 44
0.0000000001
 40
0.0
 40
0.0
 40
0.0
 40
0.0
 40
1.0
 40
1.0
 40
1.0
 40
1.0
 10
785.6640464586
 20
2099.0336308231
 30
0.0
 10
784.0310440611
 20
2099.976423868
 30
0.0
 10
781.6401878079
 20
2099.9764220464
 30
0.0
 10
780.0071922091
 20
2099.0336172257
 30
0.0
  0
SPLINE
  5
2BE
100
AcDbEntity
  8
0
100
AcDbSpline
 62
7
  6
CONTINUOUS
 70
0
 71
3
 72
8
 73
4
 74
0
 42
0.0000001
 43
0.0000001
 44
0.0000000001
 40
0.0
 40
0.0
 40
0.0
 40
0.0
 40
1.0
 40
1.0
 40
1.0
 40
1.0
 10
926.6617492046
 20
2014.3644847382
 30
0.0
 10
926.362747081
 20
2014.1918568121
 30
0.0
 10
925.9507211343
 20
2013.9752676935
 30
0.0
 10
925.9308514146
 20
2013.6305825255
 30
0.0
  0
SPLINE
  5
2BF
100
AcDbEntity
  8
0
100
AcDbSpline
 62
7
  6
CONTINUOUS
 70
0
 71
3
 72
8
 73
4
 74
0
 42
0.0000001
 43
0.0000001
 44
0.0000000001
 40
0.0
 40
0.0
 40
0.0
 40
0.0
 40
1.0
 40
1.0
 40
1.0
 40
1.0
 10
932.318603454
 20
2014.3644983356
 30
0.0
 10
930.6856010566
 20
2015.3072913805
 30
0.0
 10
928.2947448033
 20
2015.3072895589
 30
0.0
 10
926.6617492046
 20
2014.3644847382
 30
0.0
  0
SPLINE
  5
2C0
100
AcDbEntity
  8
0
100
AcDbSpline
 62
7
  6
CONTINUOUS
 70
0
 71
3
 72
8
 73
4
 74
0
 42
0.0000001
 43
0.0000001
 44
0.0000000001
 40
0.0
 40
0.0
 40
0.0
 40
0.0
 40
1.0
 40
1.0
 40
1.0
 40
1.0
 10
780.0071922091
 20
2099.0336172257
 30
0.0
 10
779.7081900855
 20
2098.8609892996
 30
0.0
 10
779.2961641388
 20
2098.644400181
 30
0.0
 10
779.2762944191
 20
2098.299715013
 30
0.0
  0
SPLINE
  5
2C1
100
AcDbEntity
  8
0
100
AcDbSpline
 62
7
  6
CONTINUOUS
 70
0
 71
3
 72
8
 73
4
 74
0
 42
0.0000001
 43
0.0000001
 44
0.0000000001
 40
0.0
 40
0.0
 40
0.0
 40
0.0
 40
1.0
 40
1.0
 40
1.0
 40
1.0
 10
933.7328464561
 20
247.1267576434
 30
0.0
 10
933.477086335
 20
246.9790953501
 30
0.0
 10
933.2099187416
 20
246.8384160587
 30
0.0
 10
932.9235645423
 20
246.7661757313
 30
0.0
  0
SPLINE
  5
2C2
100
AcDbEntity
  8
0
100
AcDbSpline
 62
7
  6
CONTINUOUS
 70
0
 71
3
 72
9
 73
5
 74
0
 42
0.0000001
 43
0.0000001
 44
0.0000000001
 40
0.0
 40
0.0
 40
0.0
 40
0.0
 40
0.482143142
 40
1.0
 40
1.0
 40
1.0
 40
1.0
 10
932.9235645423
 20
246.7661757313
 30
0.0
 10
932.8508351382
 20
246.7478278391
 30
0.0
 10
932.6977641349
 20
246.7180836078
 30
0.0
 10
932.5422277108
 20
246.7063216533
 30
0.0
 10
932.4616784495
 20
246.7047735291
 30
0.0
  0
SPLINE
  5
2C3
100
AcDbEntity
  8
0
100
AcDbSpline
 62
7
  6
CONTINUOUS
 70
0
 71
3
 72
8
 73
4
 74
0
 42
0.0000001
 43
0.0000001
 44
0.0000000001
 40
0.0
 40
0.0
 40
0.0
 40
0.0
 40
1.0
 40
1.0
 40
1.0
 40
1.0
 10
728.153528274
 20
2071.1086978298
 30
0.0
 10
727.8579881976
 20
2070.5861572112
 30
0.0
 10
727.7518194371
 20
2069.953415719
 30
0.0
 10
727.7518194371
 20
2069.3530886124
 30
0.0
  0
SPLINE
  5
2C4
100
AcDbEntity
  8
0
100
AcDbSpline
 62
7
  6
CONTINUOUS
 70
0
 71
3
 72
8
 73
4
 74
0
 42
0.0000001
 43
0.0000001
 44
0.0000000001
 40
0.0
 40
0.0
 40
0.0
 40
0.0
 40
1.0
 40
1.0
 40
1.0
 40
1.0
 10
728.2984348581
 20
2071.4701622965
 30
0.0
 10
728.769024106
 20
2071.6106629645
 30
0.0
 10
729.3016389392
 20
2071.5633708541
 30
0.0
 10
729.7708728344
 20
2071.4184079985
 30
0.0
  0
SPLINE
  5
2C5
100
AcDbEntity
  8
0
100
AcDbSpline
 62
7
  6
CONTINUOUS
 70
0
 71
3
 72
8
 73
4
 74
0
 42
0.0000001
 43
0.0000001
 44
0.0000000001
 40
0.0
 40
0.0
 40
0.0
 40
0.0
 40
1.0
 40
1.0
 40
1.0
 40
1.0
 10
729.7708728344
 20
2071.4184079985
 30
0.0
 10
730.4055672686
 20
2071.2223285623
 30
0.0
 10
730.9905760418
 20
2070.8541037966
 30
0.0
 10
731.5002640452
 20
2070.4280729182
 30
0.0
  0
SPLINE
  5
2C6
100
AcDbEntity
  8
0
100
AcDbSpline
 62
7
  6
CONTINUOUS
 70
0
 71
3
 72
8
 73
4
 74
0
 42
0.0000001
 43
0.0000001
 44
0.0000000001
 40
0.0
 40
0.0
 40
0.0
 40
0.0
 40
1.0
 40
1.0
 40
1.0
 40
1.0
 10
731.5002640452
 20
2070.4280729182
 30
0.0
 10
732.4090834953
 20
2069.6684216291
 30
0.0
 10
733.1445262087
 20
2068.67646663
 30
0.0
 10
733.6736019615
 20
2067.6167016931
 30
0.0
  0
SPLINE
  5
2C7
100
AcDbEntity
  8
0
100
AcDbSpline
 62
7
  6
CONTINUOUS
 70
0
 71
3
 72
8
 73
4
 74
0
 42
0.0000001
 43
0.0000001
 44
0.0000000001
 40
0.0
 40
0.0
 40
0.0
 40
0.0
 40
1.0
 40
1.0
 40
1.0
 40
1.0
 10
733.6736019615
 20
2067.6167016931
 30
0.0
 10
733.8522709191
 20
2067.258818922
 30
0.0
 10
734.0088834976
 20
2066.8888150816
 30
0.0
 10
734.1383721556
 20
2066.5103506029
 30
0.0
  0
SPLINE
  5
2C8
100
AcDbEntity
  8
0
100
AcDbSpline
 62
7
  6
CONTINUOUS
 70
0
 71
3
 72
8
 73
4
 74
0
 42
0.0000001
 43
0.0000001
 44
0.0000000001
 40
0.0
 40
0.0
 40
0.0
 40
0.0
 40
1.0
 40
1.0
 40
1.0
 40
1.0
 10
734.1383721556
 20
2066.5103506029
 30
0.0
 10
734.2562210401
 20
2066.1659064073
 30
0.0
 10
734.3521574423
 20
2065.8129189991
 30
0.0
 10
734.4213645831
 20
2065.4555109199
 30
0.0
  0
SPLINE
  5
2C9
100
AcDbEntity
  8
0
100
AcDbSpline
 62
7
  6
CONTINUOUS
 70
0
 71
3
 72
8
 73
4
 74
0
 42
0.0000001
 43
0.0000001
 44
0.0000000001
 40
0.0
 40
0.0
 40
0.0
 40
0.0
 40
1.0
 40
1.0
 40
1.0
 40
1.0
 10
738.9038282983
 20
2078.4088711375
 30
0.0
 10
738.5545536626
 20
2077.7913231337
 30
0.0
 10
738.4290814911
 20
2077.0435377338
 30
0.0
 10
738.4290814911
 20
2076.3340602443
 30
0.0
  0
SPLINE
  5
2CA
100
AcDbEntity
  8
0
100
AcDbSpline
 62
7
  6
CONTINUOUS
 70
0
 71
3
 72
8
 73
4
 74
0
 42
0.0000001
 43
0.0000001
 44
0.0000000001
 40
0.0
 40
0.0
 40
0.0
 40
0.0
 40
1.0
 40
1.0
 40
1.0
 40
1.0
 10
739.1372294747
 20
2078.8845139499
 30
0.0
 10
739.7044130288
 20
2079.0674774124
 30
0.0
 10
740.3551048462
 20
2079.0138954305
 30
0.0
 10
740.924515218
 20
2078.8379845405
 30
0.0
  0
SPLINE
  5
2CB
100
AcDbEntity
  8
0
100
AcDbSpline
 62
7
  6
CONTINUOUS
 70
0
 71
3
 72
8
 73
4
 74
0
 42
0.0000001
 43
0.0000001
 44
0.0000000001
 40
0.0
 40
0.0
 40
0.0
 40
0.0
 40
1.0
 40
1.0
 40
1.0
 40
1.0
 10
740.924515218
 20
2078.8379845405
 30
0.0
 10
741.6746086435
 20
2078.6062543006
 30
0.0
 10
742.3659826527
 20
2078.1710795801
 30
0.0
 10
742.9683412063
 20
2077.6675885433
 30
0.0
  0
SPLINE
  5
2CC
100
AcDbEntity
  8
0
100
AcDbSpline
 62
7
  6
CONTINUOUS
 70
0
 71
3
 72
9
 73
5
 74
0
 42
0.0000001
 43
0.0000001
 44
0.0000000001
 40
0.0
 40
0.0
 40
0.0
 40
0.0
 40
0.7659803344
 40
1.0
 40
1.0
 40
1.0
 40
1.0
 10
742.9683412063
 20
2077.6675885433
 30
0.0
 10
744.5794982914
 20
2076.3208771098
 30
0.0
 10
746.1380022099
 20
2073.7815864728
 30
0.0
 10
746.5608521622
 20
2071.0561095837
 30
0.0
 10
746.5608521622
 20
2070.4145642047
 30
0.0
  0
SPLINE
  5
2CD
100
AcDbEntity
  8
0
100
AcDbSpline
 62
7
  6
CONTINUOUS
 70
0
 71
3
 72
8
 73
4
 74
0
 42
0.0000001
 43
0.0000001
 44
0.0000000001
 40
0.0
 40
0.0
 40
0.0
 40
0.0
 40
1.0
 40
1.0
 40
1.0
 40
1.0
 10
746.5608521622
 20
2070.4145642047
 30
0.0
 10
746.5608521622
 20
2069.6799431664
 30
0.0
 10
746.4259967995
 20
2068.9005008631
 30
0.0
 10
746.0463090231
 20
2068.2716087719
 30
0.0
  0
SPLINE
  5
2CE
100
AcDbEntity
  8
0
100
AcDbSpline
 62
7
  6
CONTINUOUS
 70
0
 71
3
 72
9
 73
5
 74
0
 42
0.0000001
 43
0.0000001
 44
0.0000000001
 40
0.0
 40
0.0
 40
0.0
 40
0.0
 40
0.505405488
 40
1.0
 40
1.0
 40
1.0
 40
1.0
 10
746.0463090231
 20
2068.2716087719
 30
0.0
 10
746.0132156641
 20
2068.2167949142
 30
0.0
 10
745.9439170064
 20
2068.1105936437
 30
0.0
 10
745.8669972177
 20
2068.0097603793
 30
0.0
 10
745.8271129053
 20
2067.9614338363
 30
0.0
  0
SPLINE
  5
2CF
100
AcDbEntity
  8
0
100
AcDbSpline
 62
7
  6
CONTINUOUS
 70
0
 71
3
 72
8
 73
4
 74
0
 42
0.0000001
 43
0.0000001
 44
0.0000000001
 40
0.0
 40
0.0
 40
0.0
 40
0.0
 40
1.0
 40
1.0
 40
1.0
 40
1.0
 10
745.8271129053
 20
2067.9614338363
 30
0.0
 10
745.6563043209
 20
2067.7544705483
 30
0.0
 10
745.4468939031
 20
2067.5733318334
 30
0.0
 10
745.214531547
 20
2067.4391040028
 30
0.0
  0
SPLINE
  5
2D0
100
AcDbEntity
  8
0
100
AcDbSpline
 62
7
  6
CONTINUOUS
 70
0
 71
3
 72
8
 73
4
 74
0
 42
0.0000001
 43
0.0000001
 44
0.0000000001
 40
0.0
 40
0.0
 40
0.0
 40
0.0
 40
1.0
 40
1.0
 40
1.0
 40
1.0
 10
980.5044853744
 20
250.5419594585
 30
0.0
 10
979.5327080582
 20
250.1913745889
 30
0.0
 10
978.3066001513
 20
250.2288475449
 30
0.0
 10
977.4119187939
 20
250.745380382
 30
0.0
  0
SPLINE
  5
2D1
100
AcDbEntity
  8
0
100
AcDbSpline
 62
7
  6
CONTINUOUS
 70
0
 71
3
 72
8
 73
4
 74
0
 42
0.0000001
 43
0.0000001
 44
0.0000000001
 40
0.0
 40
0.0
 40
0.0
 40
0.0
 40
1.0
 40
1.0
 40
1.0
 40
1.0
 10
969.5833454374
 20
1929.7347505665
 30
0.0
 10
969.5833454374
 20
1928.9878110991
 30
0.0
 10
969.7396780164
 20
1928.2365023213
 30
0.0
 10
969.9802403342
 20
1927.52936136
 30
0.0
  0
SPLINE
  5
2D2
100
AcDbEntity
  8
0
100
AcDbSpline
 62
7
  6
CONTINUOUS
 70
0
 71
3
 72
8
 73
4
 74
0
 42
0.0000001
 43
0.0000001
 44
0.0000000001
 40
0.0
 40
0.0
 40
0.0
 40
0.0
 40
1.0
 40
1.0
 40
1.0
 40
1.0
 10
969.9802403342
 20
1927.52936136
 30
0.0
 10
970.4846819971
 20
1926.046538258
 30
0.0
 10
971.3964248776
 20
1924.6349113588
 30
0.0
 10
972.5923442304
 20
1923.6234754268
 30
0.0
  0
SPLINE
  5
2D3
100
AcDbEntity
  8
0
100
AcDbSpline
 62
7
  6
CONTINUOUS
 70
0
 71
3
 72
9
 73
5
 74
0
 42
0.0000001
 43
0.0000001
 44
0.0000000001
 40
0.0
 40
0.0
 40
0.0
 40
0.0
 40
0.2876638638
 40
1.0
 40
1.0
 40
1.0
 40
1.0
 10
972.5923442304
 20
1923.6234754268
 30
0.0
 10
972.8082250784
 20
1923.4408965212
 30
0.0
 10
973.58979384
 20
1922.8558864407
 30
0.0
 10
974.5721686024
 20
1922.4527296854
 30
0.0
 10
975.2720821905
 20
1922.4702626534
 30
0.0
  0
SPLINE
  5
2D4
100
AcDbEntity
  8
0
100
AcDbSpline
 62
7
  6
CONTINUOUS
 70
0
 71
3
 72
8
 73
4
 74
0
 42
0.0000001
 43
0.0000001
 44
0.0000000001
 40
0.0
 40
0.0
 40
0.0
 40
0.0
 40
1.0
 40
1.0
 40
1.0
 40
1.0
 10
969.9850542743
 20
278.0729650965
 30
0.0
 10
969.6895141978
 20
277.5504244779
 30
0.0
 10
969.5833454374
 20
276.9176829856
 30
0.0
 10
969.5833454374
 20
276.3173558791
 30
0.0
  0
SPLINE
  5
2D5
100
AcDbEntity
  8
0
100
AcDbSpline
 62
7
  6
CONTINUOUS
 70
0
 71
3
 72
8
 73
4
 74
0
 42
0.0000001
 43
0.0000001
 44
0.0000000001
 40
0.0
 40
0.0
 40
0.0
 40
0.0
 40
1.0
 40
1.0
 40
1.0
 40
1.0
 10
969.5833454374
 20
888.6941687263
 30
0.0
 10
969.5833454374
 20
887.9472292589
 30
0.0
 10
969.7396780164
 20
887.1959204811
 30
0.0
 10
969.9802403342
 20
886.4887795198
 30
0.0
  0
SPLINE
  5
2D6
100
AcDbEntity
  8
0
100
AcDbSpline
 62
7
  6
CONTINUOUS
 70
0
 71
3
 72
8
 73
4
 74
0
 42
0.0000001
 43
0.0000001
 44
0.0000000001
 40
0.0
 40
0.0
 40
0.0
 40
0.0
 40
1.0
 40
1.0
 40
1.0
 40
1.0
 10
969.9802403342
 20
886.4887795198
 30
0.0
 10
970.4846819971
 20
885.0059564178
 30
0.0
 10
971.3964248776
 20
883.5943295186
 30
0.0
 10
972.5923442304
 20
882.5828935866
 30
0.0
  0
SPLINE
  5
2D7
100
AcDbEntity
  8
0
100
AcDbSpline
 62
7
  6
CONTINUOUS
 70
0
 71
3
 72
9
 73
5
 74
0
 42
0.0000001
 43
0.0000001
 44
0.0000000001
 40
0.0
 40
0.0
 40
0.0
 40
0.0
 40
0.2876638638
 40
1.0
 40
1.0
 40
1.0
 40
1.0
 10
972.5923442304
 20
882.5828935866
 30
0.0
 10
972.8082250784
 20
882.400314681
 30
0.0
 10
973.58979384
 20
881.8153046004
 30
0.0
 10
974.5721686024
 20
881.4121478451
 30
0.0
 10
975.2720821905
 20
881.4296808132
 30
0.0
  0
SPLINE
  5
2D8
100
AcDbEntity
  8
0
100
AcDbSpline
 62
7
  6
CONTINUOUS
 70
0
 71
3
 72
8
 73
4
 74
0
 42
0.0000001
 43
0.0000001
 44
0.0000000001
 40
0.0
 40
0.0
 40
0.0
 40
0.0
 40
1.0
 40
1.0
 40
1.0
 40
1.0
 10
970.1299608425
 20
278.4344295508
 30
0.0
 10
970.6005500926
 20
278.5749302177
 30
0.0
 10
971.133164926
 20
278.5276381109
 30
0.0
 10
971.6023988243
 20
278.3826752593
 30
0.0
  0
SPLINE
  5
2D9
100
AcDbEntity
  8
0
100
AcDbSpline
 62
7
  6
CONTINUOUS
 70
0
 71
3
 72
8
 73
4
 74
0
 42
0.0000001
 43
0.0000001
 44
0.0000000001
 40
0.0
 40
0.0
 40
0.0
 40
0.0
 40
1.0
 40
1.0
 40
1.0
 40
1.0
 10
971.6023988243
 20
278.3826752593
 30
0.0
 10
972.2370932642
 20
278.1865958279
 30
0.0
 10
972.8221020449
 20
277.8183710666
 30
0.0
 10
973.3317900554
 20
277.3923401905
 30
0.0
  0
SPLINE
  5
2DA
100
AcDbEntity
  8
0
100
AcDbSpline
 62
7
  6
CONTINUOUS
 70
0
 71
3
 72
8
 73
4
 74
0
 42
0.0000001
 43
0.0000001
 44
0.0000000001
 40
0.0
 40
0.0
 40
0.0
 40
0.0
 40
1.0
 40
1.0
 40
1.0
 40
1.0
 10
973.3317900554
 20
277.3923401905
 30
0.0
 10
974.5397593258
 20
276.3826397543
 30
0.0
 10
975.4602402967
 20
274.964226417
 30
0.0
 10
975.9698981966
 20
273.4746178931
 30
0.0
  0
SPLINE
  5
2DB
100
AcDbEntity
  8
0
100
AcDbSpline
 62
7
  6
CONTINUOUS
 70
0
 71
3
 72
8
 73
4
 74
0
 42
0.0000001
 43
0.0000001
 44
0.0000000001
 40
0.0
 40
0.0
 40
0.0
 40
0.0
 40
1.0
 40
1.0
 40
1.0
 40
1.0
 10
975.9698981966
 20
273.4746178931
 30
0.0
 10
976.2132822649
 20
272.7632642915
 30
0.0
 10
976.3716070358
 20
272.0070033434
 30
0.0
 10
976.3716070358
 20
271.2551657604
 30
0.0
  0
SPLINE
  5
2DC
100
AcDbEntity
  8
0
100
AcDbSpline
 62
7
  6
CONTINUOUS
 70
0
 71
3
 72
8
 73
4
 74
0
 42
0.0000001
 43
0.0000001
 44
0.0000000001
 40
0.0
 40
0.0
 40
0.0
 40
0.0
 40
1.0
 40
1.0
 40
1.0
 40
1.0
 10
969.5833454374
 20
1317.3579377193
 30
0.0
 10
969.5833454374
 20
1316.6109982519
 30
0.0
 10
969.7396780164
 20
1315.8596894741
 30
0.0
 10
969.9802403342
 20
1315.1525485128
 30
0.0
  0
SPLINE
  5
2DD
100
AcDbEntity
  8
0
100
AcDbSpline
 62
7
  6
CONTINUOUS
 70
0
 71
3
 72
8
 73
4
 74
0
 42
0.0000001
 43
0.0000001
 44
0.0000000001
 40
0.0
 40
0.0
 40
0.0
 40
0.0
 40
1.0
 40
1.0
 40
1.0
 40
1.0
 10
969.9802403342
 20
1315.1525485128
 30
0.0
 10
970.4846819971
 20
1313.6697254108
 30
0.0
 10
971.3964248776
 20
1312.2580985116
 30
0.0
 10
972.5923442304
 20
1311.2466625796
 30
0.0
  0
SPLINE
  5
2DE
100
AcDbEntity
  8
0
100
AcDbSpline
 62
7
  6
CONTINUOUS
 70
0
 71
3
 72
9
 73
5
 74
0
 42
0.0000001
 43
0.0000001
 44
0.0000000001
 40
0.0
 40
0.0
 40
0.0
 40
0.0
 40
0.2876638638
 40
1.0
 40
1.0
 40
1.0
 40
1.0
 10
972.5923442304
 20
1311.2466625796
 30
0.0
 10
972.8082250784
 20
1311.064083674
 30
0.0
 10
973.58979384
 20
1310.4790735935
 30
0.0
 10
974.5721686024
 20
1310.0759168382
 30
0.0
 10
975.2720821905
 20
1310.0934498062
 30
0.0
  0
SPLINE
  5
2DF
100
AcDbEntity
  8
0
100
AcDbSpline
 62
7
  6
CONTINUOUS
 70
0
 71
3
 72
8
 73
4
 74
0
 42
0.0000001
 43
0.0000001
 44
0.0000000001
 40
0.0
 40
0.0
 40
0.0
 40
0.0
 40
1.0
 40
1.0
 40
1.0
 40
1.0
 10
969.5833454374
 20
276.3173558791
 30
0.0
 10
969.5833454374
 20
275.5704164117
 30
0.0
 10
969.7396780164
 20
274.8191076339
 30
0.0
 10
969.9802403342
 20
274.1119666726
 30
0.0
  0
SPLINE
  5
2E0
100
AcDbEntity
  8
0
100
AcDbSpline
 62
7
  6
CONTINUOUS
 70
0
 71
3
 72
8
 73
4
 74
0
 42
0.0000001
 43
0.0000001
 44
0.0000000001
 40
0.0
 40
0.0
 40
0.0
 40
0.0
 40
1.0
 40
1.0
 40
1.0
 40
1.0
 10
969.9802403342
 20
274.1119666726
 30
0.0
 10
970.4846819971
 20
272.6291435706
 30
0.0
 10
971.3964248776
 20
271.2175166714
 30
0.0
 10
972.5923442304
 20
270.2060807394
 30
0.0
  0
SPLINE
  5
2E1
100
AcDbEntity
  8
0
100
AcDbSpline
 62
7
  6
CONTINUOUS
 70
0
 71
3
 72
9
 73
5
 74
0
 42
0.0000001
 43
0.0000001
 44
0.0000000001
 40
0.0
 40
0.0
 40
0.0
 40
0.0
 40
0.2876638638
 40
1.0
 40
1.0
 40
1.0
 40
1.0
 10
972.5923442304
 20
270.2060807394
 30
0.0
 10
972.8082250784
 20
270.0235018338
 30
0.0
 10
973.58979384
 20
269.4384917533
 30
0.0
 10
974.5721686024
 20
269.035334998
 30
0.0
 10
975.2720821905
 20
269.052867966
 30
0.0
  0
SPLINE
  5
2E2
100
AcDbEntity
  8
0
100
AcDbSpline
 62
7
  6
CONTINUOUS
 70
0
 71
3
 72
8
 73
4
 74
0
 42
0.0000001
 43
0.0000001
 44
0.0000000001
 40
0.0
 40
0.0
 40
0.0
 40
0.0
 40
1.0
 40
1.0
 40
1.0
 40
1.0
 10
976.3716070358
 20
1924.6725604478
 30
0.0
 10
976.3716070358
 20
1924.075353911
 30
0.0
 10
976.2666156957
 20
1923.4464623026
 30
0.0
 10
975.9747121367
 20
1922.9254556233
 30
0.0
  0
SPLINE
  5
2E3
100
AcDbEntity
  8
0
100
AcDbSpline
 62
7
  6
CONTINUOUS
 70
0
 71
3
 72
8
 73
4
 74
0
 42
0.0000001
 43
0.0000001
 44
0.0000000001
 40
0.0
 40
0.0
 40
0.0
 40
0.0
 40
1.0
 40
1.0
 40
1.0
 40
1.0
 10
975.9747121367
 20
1922.9254556233
 30
0.0
 10
975.8003860549
 20
1922.6143081563
 30
0.0
 10
975.5412421652
 20
1922.3332636506
 30
0.0
 10
975.2324126624
 20
1922.1548633501
 30
0.0
  0
SPLINE
  5
2E4
100
AcDbEntity
  8
0
100
AcDbSpline
 62
7
  6
CONTINUOUS
 70
0
 71
3
 72
8
 73
4
 74
0
 42
0.0000001
 43
0.0000001
 44
0.0000000001
 40
0.0
 40
0.0
 40
0.0
 40
0.0
 40
1.0
 40
1.0
 40
1.0
 40
1.0
 10
976.3716070358
 20
883.6319786076
 30
0.0
 10
976.3716070358
 20
883.0347720708
 30
0.0
 10
976.2666156957
 20
882.4058804624
 30
0.0
 10
975.9747121367
 20
881.8848737831
 30
0.0
  0
SPLINE
  5
2E5
100
AcDbEntity
  8
0
100
AcDbSpline
 62
7
  6
CONTINUOUS
 70
0
 71
3
 72
8
 73
4
 74
0
 42
0.0000001
 43
0.0000001
 44
0.0000000001
 40
0.0
 40
0.0
 40
0.0
 40
0.0
 40
1.0
 40
1.0
 40
1.0
 40
1.0
 10
975.9747121367
 20
881.8848737831
 30
0.0
 10
975.8003860549
 20
881.5737263161
 30
0.0
 10
975.5412421652
 20
881.2926818104
 30
0.0
 10
975.2324126624
 20
881.1142815098
 30
0.0
  0
SPLINE
  5
2E6
100
AcDbEntity
  8
0
100
AcDbSpline
 62
7
  6
CONTINUOUS
 70
0
 71
3
 72
8
 73
4
 74
0
 42
0.0000001
 43
0.0000001
 44
0.0000000001
 40
0.0
 40
0.0
 40
0.0
 40
0.0
 40
1.0
 40
1.0
 40
1.0
 40
1.0
 10
976.3716070358
 20
1312.2957476006
 30
0.0
 10
976.3716070358
 20
1311.6985410638
 30
0.0
 10
976.2666156957
 20
1311.0696494554
 30
0.0
 10
975.9747121367
 20
1310.5486427761
 30
0.0
  0
SPLINE
  5
2E7
100
AcDbEntity
  8
0
100
AcDbSpline
 62
7
  6
CONTINUOUS
 70
0
 71
3
 72
8
 73
4
 74
0
 42
0.0000001
 43
0.0000001
 44
0.0000000001
 40
0.0
 40
0.0
 40
0.0
 40
0.0
 40
1.0
 40
1.0
 40
1.0
 40
1.0
 10
975.9747121367
 20
1310.5486427761
 30
0.0
 10
975.8003860549
 20
1310.2374953091
 30
0.0
 10
975.5412421652
 20
1309.9564508034
 30
0.0
 10
975.2324126624
 20
1309.7780505029
 30
0.0
  0
SPLINE
  5
2E8
100
AcDbEntity
  8
0
100
AcDbSpline
 62
7
  6
CONTINUOUS
 70
0
 71
3
 72
8
 73
4
 74
0
 42
0.0000001
 43
0.0000001
 44
0.0000000001
 40
0.0
 40
0.0
 40
0.0
 40
0.0
 40
1.0
 40
1.0
 40
1.0
 40
1.0
 10
976.3716070358
 20
271.2551657604
 30
0.0
 10
976.3716070358
 20
270.6579592236
 30
0.0
 10
976.2666156957
 20
270.0290676152
 30
0.0
 10
975.9747121367
 20
269.5080609359
 30
0.0
  0
SPLINE
  5
2E9
100
AcDbEntity
  8
0
100
AcDbSpline
 62
7
  6
CONTINUOUS
 70
0
 71
3
 72
8
 73
4
 74
0
 42
0.0000001
 43
0.0000001
 44
0.0000000001
 40
0.0
 40
0.0
 40
0.0
 40
0.0
 40
1.0
 40
1.0
 40
1.0
 40
1.0
 10
975.9747121367
 20
269.5080609359
 30
0.0
 10
975.8003860549
 20
269.1969134689
 30
0.0
 10
975.5412421652
 20
268.9158689632
 30
0.0
 10
975.2324126624
 20
268.7374686627
 30
0.0
  0
SPLINE
  5
2EA
100
AcDbEntity
  8
0
100
AcDbSpline
 62
7
  6
CONTINUOUS
 70
0
 71
3
 72
8
 73
4
 74
0
 42
0.0000001
 43
0.0000001
 44
0.0000000001
 40
0.0
 40
0.0
 40
0.0
 40
0.0
 40
1.0
 40
1.0
 40
1.0
 40
1.0
 10
969.9850542743
 20
1319.1135469367
 30
0.0
 10
969.6895141978
 20
1318.5910063181
 30
0.0
 10
969.5833454374
 20
1317.9582648259
 30
0.0
 10
969.5833454374
 20
1317.3579377193
 30
0.0
  0
SPLINE
  5
2EB
100
AcDbEntity
  8
0
100
AcDbSpline
 62
7
  6
CONTINUOUS
 70
0
 71
3
 72
8
 73
4
 74
0
 42
0.0000001
 43
0.0000001
 44
0.0000000001
 40
0.0
 40
0.0
 40
0.0
 40
0.0
 40
1.0
 40
1.0
 40
1.0
 40
1.0
 10
970.1299608425
 20
1319.475011391
 30
0.0
 10
970.6005500926
 20
1319.6155120579
 30
0.0
 10
971.133164926
 20
1319.5682199512
 30
0.0
 10
971.6023988243
 20
1319.4232570995
 30
0.0
  0
SPLINE
  5
2EC
100
AcDbEntity
  8
0
100
AcDbSpline
 62
7
  6
CONTINUOUS
 70
0
 71
3
 72
8
 73
4
 74
0
 42
0.0000001
 43
0.0000001
 44
0.0000000001
 40
0.0
 40
0.0
 40
0.0
 40
0.0
 40
1.0
 40
1.0
 40
1.0
 40
1.0
 10
971.6023988243
 20
1319.4232570995
 30
0.0
 10
972.2370932642
 20
1319.2271776681
 30
0.0
 10
972.8221020449
 20
1318.8589529068
 30
0.0
 10
973.3317900554
 20
1318.4329220308
 30
0.0
  0
SPLINE
  5
2ED
100
AcDbEntity
  8
0
100
AcDbSpline
 62
7
  6
CONTINUOUS
 70
0
 71
3
 72
8
 73
4
 74
0
 42
0.0000001
 43
0.0000001
 44
0.0000000001
 40
0.0
 40
0.0
 40
0.0
 40
0.0
 40
1.0
 40
1.0
 40
1.0
 40
1.0
 10
973.3317900554
 20
1318.4329220308
 30
0.0
 10
974.5397593258
 20
1317.4232215945
 30
0.0
 10
975.4602402967
 20
1316.0048082572
 30
0.0
 10
975.9698981966
 20
1314.5151997333
 30
0.0
  0
SPLINE
  5
2EE
100
AcDbEntity
  8
0
100
AcDbSpline
 62
7
  6
CONTINUOUS
 70
0
 71
3
 72
8
 73
4
 74
0
 42
0.0000001
 43
0.0000001
 44
0.0000000001
 40
0.0
 40
0.0
 40
0.0
 40
0.0
 40
1.0
 40
1.0
 40
1.0
 40
1.0
 10
975.9698981966
 20
1314.5151997333
 30
0.0
 10
976.2132822649
 20
1313.8038461317
 30
0.0
 10
976.3716070358
 20
1313.0475851836
 30
0.0
 10
976.3716070358
 20
1312.2957476006
 30
0.0
  0
SPLINE
  5
2EF
100
AcDbEntity
  8
0
100
AcDbSpline
 62
7
  6
CONTINUOUS
 70
0
 71
3
 72
9
 73
5
 74
0
 42
0.0000001
 43
0.0000001
 44
0.0000000001
 40
0.0
 40
0.0
 40
0.0
 40
0.0
 40
0.2338315643
 40
1.0
 40
1.0
 40
1.0
 40
1.0
 10
738.4290814911
 20
2076.3340602443
 30
0.0
 10
738.4290814911
 20
2075.6965920196
 30
0.0
 10
738.8470993381
 20
2072.9858307422
 30
0.0
 10
740.390346836
 20
2070.4604495342
 30
0.0
 10
741.9851709738
 20
2069.1116441701
 30
0.0
  0
SPLINE
  5
2F0
100
AcDbEntity
  8
0
100
AcDbSpline
 62
7
  6
CONTINUOUS
 70
0
 71
3
 72
9
 73
5
 74
0
 42
0.0000001
 43
0.0000001
 44
0.0000000001
 40
0.0
 40
0.0
 40
0.0
 40
0.0
 40
0.2896776676
 40
1.0
 40
1.0
 40
1.0
 40
1.0
 10
741.9851709738
 20
2069.1116441701
 30
0.0
 10
742.2503441773
 20
2068.8873767849
 30
0.0
 10
743.2037812326
 20
2068.1762029977
 30
0.0
 10
744.4202908212
 20
2067.6963434744
 30
0.0
 10
745.2699241597
 20
2067.7542234329
 30
0.0
  0
SPLINE
  5
2F1
100
AcDbEntity
  8
0
100
AcDbSpline
 62
7
  6
CONTINUOUS
 70
0
 71
3
 72
8
 73
4
 74
0
 42
0.0000001
 43
0.0000001
 44
0.0000000001
 40
0.0
 40
0.0
 40
0.0
 40
0.0
 40
1.0
 40
1.0
 40
1.0
 40
1.0
 10
969.9850542743
 20
890.4497779437
 30
0.0
 10
969.6895141978
 20
889.927237325
 30
0.0
 10
969.5833454374
 20
889.2944958328
 30
0.0
 10
969.5833454374
 20
888.6941687263
 30
0.0
  0
SPLINE
  5
2F2
100
AcDbEntity
  8
0
100
AcDbSpline
 62
7
  6
CONTINUOUS
 70
0
 71
3
 72
8
 73
4
 74
0
 42
0.0000001
 43
0.0000001
 44
0.0000000001
 40
0.0
 40
0.0
 40
0.0
 40
0.0
 40
1.0
 40
1.0
 40
1.0
 40
1.0
 10
970.1299608425
 20
890.8112423979
 30
0.0
 10
970.6005500926
 20
890.9517430649
 30
0.0
 10
971.133164926
 20
890.9044509581
 30
0.0
 10
971.6023988243
 20
890.7594881064
 30
0.0
  0
SPLINE
  5
2F3
100
AcDbEntity
  8
0
100
AcDbSpline
 62
7
  6
CONTINUOUS
 70
0
 71
3
 72
8
 73
4
 74
0
 42
0.0000001
 43
0.0000001
 44
0.0000000001
 40
0.0
 40
0.0
 40
0.0
 40
0.0
 40
1.0
 40
1.0
 40
1.0
 40
1.0
 10
971.6023988243
 20
890.7594881064
 30
0.0
 10
972.2370932642
 20
890.5634086751
 30
0.0
 10
972.8221020449
 20
890.1951839138
 30
0.0
 10
973.3317900554
 20
889.7691530377
 30
0.0
  0
SPLINE
  5
2F4
100
AcDbEntity
  8
0
100
AcDbSpline
 62
7
  6
CONTINUOUS
 70
0
 71
3
 72
8
 73
4
 74
0
 42
0.0000001
 43
0.0000001
 44
0.0000000001
 40
0.0
 40
0.0
 40
0.0
 40
0.0
 40
1.0
 40
1.0
 40
1.0
 40
1.0
 10
973.3317900554
 20
889.7691530377
 30
0.0
 10
974.5397593258
 20
888.7594526014
 30
0.0
 10
975.4602402967
 20
887.3410392642
 30
0.0
 10
975.9698981966
 20
885.8514307403
 30
0.0
  0
SPLINE
  5
2F5
100
AcDbEntity
  8
0
100
AcDbSpline
 62
7
  6
CONTINUOUS
 70
0
 71
3
 72
8
 73
4
 74
0
 42
0.0000001
 43
0.0000001
 44
0.0000000001
 40
0.0
 40
0.0
 40
0.0
 40
0.0
 40
1.0
 40
1.0
 40
1.0
 40
1.0
 10
975.9698981966
 20
885.8514307403
 30
0.0
 10
976.2132822649
 20
885.1400771387
 30
0.0
 10
976.3716070358
 20
884.3838161906
 30
0.0
 10
976.3716070358
 20
883.6319786076
 30
0.0
  0
SPLINE
  5
2F6
100
AcDbEntity
  8
0
100
AcDbSpline
 62
7
  6
CONTINUOUS
 70
0
 71
3
 72
8
 73
4
 74
0
 42
0.0000001
 43
0.0000001
 44
0.0000000001
 40
0.0
 40
0.0
 40
0.0
 40
0.0
 40
1.0
 40
1.0
 40
1.0
 40
1.0
 10
969.9850542743
 20
1931.4903597839
 30
0.0
 10
969.6895141978
 20
1930.9678191653
 30
0.0
 10
969.5833454374
 20
1930.335077673
 30
0.0
 10
969.5833454374
 20
1929.7347505665
 30
0.0
  0
SPLINE
  5
2F7
100
AcDbEntity
  8
0
100
AcDbSpline
 62
7
  6
CONTINUOUS
 70
0
 71
3
 72
8
 73
4
 74
0
 42
0.0000001
 43
0.0000001
 44
0.0000000001
 40
0.0
 40
0.0
 40
0.0
 40
0.0
 40
1.0
 40
1.0
 40
1.0
 40
1.0
 10
970.1299608425
 20
1931.8518242382
 30
0.0
 10
970.6005500926
 20
1931.9923249051
 30
0.0
 10
971.133164926
 20
1931.9450327983
 30
0.0
 10
971.6023988243
 20
1931.8000699466
 30
0.0
  0
SPLINE
  5
2F8
100
AcDbEntity
  8
0
100
AcDbSpline
 62
7
  6
CONTINUOUS
 70
0
 71
3
 72
8
 73
4
 74
0
 42
0.0000001
 43
0.0000001
 44
0.0000000001
 40
0.0
 40
0.0
 40
0.0
 40
0.0
 40
1.0
 40
1.0
 40
1.0
 40
1.0
 10
971.6023988243
 20
1931.8000699466
 30
0.0
 10
972.2370932642
 20
1931.6039905153
 30
0.0
 10
972.8221020449
 20
1931.235765754
 30
0.0
 10
973.3317900553
 20
1930.8097348779
 30
0.0
  0
SPLINE
  5
2F9
100
AcDbEntity
  8
0
100
AcDbSpline
 62
7
  6
CONTINUOUS
 70
0
 71
3
 72
8
 73
4
 74
0
 42
0.0000001
 43
0.0000001
 44
0.0000000001
 40
0.0
 40
0.0
 40
0.0
 40
0.0
 40
1.0
 40
1.0
 40
1.0
 40
1.0
 10
973.3317900553
 20
1930.8097348779
 30
0.0
 10
974.5397593258
 20
1929.8000344417
 30
0.0
 10
975.4602402967
 20
1928.3816211044
 30
0.0
 10
975.9698981966
 20
1926.8920125805
 30
0.0
  0
SPLINE
  5
2FA
100
AcDbEntity
  8
0
100
AcDbSpline
 62
7
  6
CONTINUOUS
 70
0
 71
3
 72
8
 73
4
 74
0
 42
0.0000001
 43
0.0000001
 44
0.0000000001
 40
0.0
 40
0.0
 40
0.0
 40
0.0
 40
1.0
 40
1.0
 40
1.0
 40
1.0
 10
975.9698981966
 20
1926.8920125805
 30
0.0
 10
976.2132822649
 20
1926.1806589789
 30
0.0
 10
976.3716070358
 20
1925.4243980308
 30
0.0
 10
976.3716070358
 20
1924.6725604478
 30
0.0
  0
SPLINE
  5
2FB
100
AcDbEntity
  8
0
100
AcDbSpline
 62
7
  6
CONTINUOUS
 70
0
 71
3
 72
8
 73
4
 74
0
 42
0.0000001
 43
0.0000001
 44
0.0000000001
 40
0.0
 40
0.0
 40
0.0
 40
0.0
 40
1.0
 40
1.0
 40
1.0
 40
1.0
 10
934.9043207837
 20
248.7597206615
 30
0.0
 10
934.9043207597
 20
248.3474084506
 30
0.0
 10
934.682145396
 20
247.9283913297
 30
0.0
 10
934.394990432
 20
247.632514014
 30
0.0
  0
SPLINE
  5
2FC
100
AcDbEntity
  8
0
100
AcDbSpline
 62
7
  6
CONTINUOUS
 70
0
 71
3
 72
9
 73
5
 74
0
 42
0.0000001
 43
0.0000001
 44
0.0000000001
 40
0.0
 40
0.0
 40
0.0
 40
0.0
 40
0.4876945157
 40
1.0
 40
1.0
 40
1.0
 40
1.0
 10
934.394990432
 20
247.632514014
 30
0.0
 10
934.3338946099
 20
247.5695624021
 30
0.0
 10
934.2015555408
 20
247.4472208239
 30
0.0
 10
934.0582841388
 20
247.3380212141
 30
0.0
 10
933.9827000017
 20
247.285305549
 30
0.0
  0
SPLINE
  5
2FD
100
AcDbEntity
  8
0
100
AcDbSpline
 62
7
  6
CONTINUOUS
 70
0
 71
3
 72
8
 73
4
 74
0
 42
0.0000001
 43
0.0000001
 44
0.0000000001
 40
0.0
 40
0.0
 40
0.0
 40
0.0
 40
1.0
 40
1.0
 40
1.0
 40
1.0
 10
725.3691961499
 20
2091.0767991077
 30
0.0
 10
725.1601012036
 20
2090.8836060575
 30
0.0
 10
724.9893083734
 20
2090.5966276022
 30
0.0
 10
724.9892010113
 20
2090.3119449022
 30
0.0
  0
SPLINE
  5
2FE
100
AcDbEntity
  8
0
100
AcDbSpline
 62
7
  6
CONTINUOUS
 70
0
 71
3
 72
8
 73
4
 74
0
 42
0.0000001
 43
0.0000001
 44
0.0000000001
 40
0.0
 40
0.0
 40
0.0
 40
0.0
 40
1.0
 40
1.0
 40
1.0
 40
1.0
 10
934.506911103
 20
2012.9183312056
 30
0.0
 10
934.3560422337
 20
2013.0984209818
 30
0.0
 10
934.1754025646
 20
2013.2550554177
 30
0.0
 10
933.9827067405
 20
2013.389450591
 30
0.0
  0
SPLINE
  5
2FF
100
AcDbEntity
  8
0
100
AcDbSpline
 62
7
  6
CONTINUOUS
 70
0
 71
3
 72
8
 73
4
 74
0
 42
0.0000001
 43
0.0000001
 44
0.0000000001
 40
0.0
 40
0.0
 40
0.0
 40
0.0
 40
1.0
 40
1.0
 40
1.0
 40
1.0
 10
787.8523541075
 20
2097.5874636931
 30
0.0
 10
787.7014852382
 20
2097.7675534693
 30
0.0
 10
787.5208455691
 20
2097.9241879053
 30
0.0
 10
787.328149745
 20
2098.0585830785
 30
0.0
  0
SPLINE
  5
300
100
AcDbEntity
  8
0
100
AcDbSpline
 62
7
  6
CONTINUOUS
 70
0
 71
3
 72
8
 73
4
 74
0
 42
0.0000001
 43
0.0000001
 44
0.0000000001
 40
0.0
 40
0.0
 40
0.0
 40
0.0
 40
1.0
 40
1.0
 40
1.0
 40
1.0
 10
734.3620868606
 20
2134.9704277827
 30
0.0
 10
733.7532286202
 20
2135.320829958
 30
0.0
 10
732.891920566
 20
2135.5105151341
 30
0.0
 10
732.2662139582
 20
2135.1911700508
 30
0.0
  0
SPLINE
  5
301
100
AcDbEntity
  8
0
100
AcDbSpline
 62
7
  6
CONTINUOUS
 70
0
 71
3
 72
8
 73
4
 74
0
 42
0.0000001
 43
0.0000001
 44
0.0000000001
 40
0.0
 40
0.0
 40
0.0
 40
0.0
 40
1.0
 40
1.0
 40
1.0
 40
1.0
 10
729.4002143955
 20
2064.7313237112
 30
0.0
 10
729.6549132488
 20
2064.3773530699
 30
0.0
 10
729.9352417571
 20
2064.0401285475
 30
0.0
 10
730.239869602
 20
2063.7280891319
 30
0.0
  0
SPLINE
  5
302
100
AcDbEntity
  8
0
100
AcDbSpline
 62
7
  6
CONTINUOUS
 70
0
 71
3
 72
8
 73
4
 74
0
 42
0.0000001
 43
0.0000001
 44
0.0000000001
 40
0.0
 40
0.0
 40
0.0
 40
0.0
 40
1.0
 40
1.0
 40
1.0
 40
1.0
 10
992.2605044182
 20
218.6504466616
 30
0.0
 10
992.2604596834
 20
217.9348918311
 30
0.0
 10
991.9855727698
 20
217.0784132593
 30
0.0
 10
991.3840636193
 20
216.6908497685
 30
0.0
  0
SPLINE
  5
303
100
AcDbEntity
  8
0
100
AcDbSpline
 62
7
  6
CONTINUOUS
 70
0
 71
3
 72
8
 73
4
 74
0
 42
0.0000001
 43
0.0000001
 44
0.0000000001
 40
0.0
 40
0.0
 40
0.0
 40
0.0
 40
1.0
 40
1.0
 40
1.0
 40
1.0
 10
745.214531547
 20
2067.4391040028
 30
0.0
 10
744.5754194636
 20
2067.0699106882
 30
0.0
 10
743.7099610405
 20
2067.0804131022
 30
0.0
 10
743.0047626796
 20
2067.2982736777
 30
0.0
  0
SPLINE
  5
304
100
AcDbEntity
  8
0
100
AcDbSpline
 62
7
  6
CONTINUOUS
 70
0
 71
3
 72
9
 73
5
 74
0
 42
0.0000001
 43
0.0000001
 44
0.0000000001
 40
0.0
 40
0.0
 40
0.0
 40
0.0
 40
0.2168295645
 40
1.0
 40
1.0
 40
1.0
 40
1.0
 10
743.0047626796
 20
2067.2982736777
 30
0.0
 10
742.458184932
 20
2067.467130767
 30
0.0
 10
740.1074559306
 20
2068.7473464883
 30
0.0
 10
738.5120588865
 20
2071.143709813
 30
0.0
 10
737.8431725425
 20
2073.0987051278
 30
0.0
  0
SPLINE
  5
305
100
AcDbEntity
  8
0
100
AcDbSpline
 62
7
  6
CONTINUOUS
 70
0
 71
3
 72
8
 73
4
 74
0
 42
0.0000001
 43
0.0000001
 44
0.0000000001
 40
0.0
 40
0.0
 40
0.0
 40
0.0
 40
1.0
 40
1.0
 40
1.0
 40
1.0
 10
737.8431725425
 20
2073.0987051278
 30
0.0
 10
737.5555368271
 20
2073.9393957488
 30
0.0
 10
737.3684257353
 20
2074.8331586878
 30
0.0
 10
737.3684257353
 20
2075.7216940135
 30
0.0
  0
SPLINE
  5
306
100
AcDbEntity
  8
0
100
AcDbSpline
 62
7
  6
CONTINUOUS
 70
0
 71
3
 72
8
 73
4
 74
0
 42
0.0000001
 43
0.0000001
 44
0.0000000001
 40
0.0
 40
0.0
 40
0.0
 40
0.0
 40
1.0
 40
1.0
 40
1.0
 40
1.0
 10
737.3684257353
 20
2075.7216940135
 30
0.0
 10
737.3684257353
 20
2076.4274835563
 30
0.0
 10
737.4925064087
 20
2077.1707190927
 30
0.0
 10
737.8374833407
 20
2077.7864542591
 30
0.0
  0
SPLINE
  5
307
100
AcDbEntity
  8
0
100
AcDbSpline
 62
7
  6
CONTINUOUS
 70
0
 71
3
 72
8
 73
4
 74
0
 42
0.0000001
 43
0.0000001
 44
0.0000000001
 40
0.0
 40
0.0
 40
0.0
 40
0.0
 40
1.0
 40
1.0
 40
1.0
 40
1.0
 10
737.8374833407
 20
2077.7864542591
 30
0.0
 10
738.0435050721
 20
2078.1541739915
 30
0.0
 10
738.3497660308
 20
2078.4863174975
 30
0.0
 10
738.7147463506
 20
2078.6971542154
 30
0.0
  0
SPLINE
  5
308
100
AcDbEntity
  8
0
100
AcDbSpline
 62
7
  6
CONTINUOUS
 70
0
 71
3
 72
9
 73
5
 74
0
 42
0.0000001
 43
0.0000001
 44
0.0000000001
 40
0.0
 40
0.0
 40
0.0
 40
0.0
 40
0.2099658222
 40
1.0
 40
1.0
 40
1.0
 40
1.0
 10
975.2324126624
 20
268.7374686627
 30
0.0
 10
974.999138842
 20
268.6027143102
 30
0.0
 10
973.7243511159
 20
268.2244008113
 30
0.0
 10
972.4109620609
 20
268.9585489498
 30
0.0
 10
971.6332169942
 20
269.6086396038
 30
0.0
  0
SPLINE
  5
309
100
AcDbEntity
  8
0
100
AcDbSpline
 62
7
  6
CONTINUOUS
 70
0
 71
3
 72
8
 73
4
 74
0
 42
0.0000001
 43
0.0000001
 44
0.0000000001
 40
0.0
 40
0.0
 40
0.0
 40
0.0
 40
1.0
 40
1.0
 40
1.0
 40
1.0
 10
971.6332169942
 20
269.6086396038
 30
0.0
 10
970.4252477237
 20
270.6183400401
 30
0.0
 10
969.5047667529
 20
272.0367533774
 30
0.0
 10
968.9951088529
 20
273.5263619013
 30
0.0
  0
SPLINE
  5
30A
100
AcDbEntity
  8
0
100
AcDbSpline
 62
7
  6
CONTINUOUS
 70
0
 71
3
 72
8
 73
4
 74
0
 42
0.0000001
 43
0.0000001
 44
0.0000000001
 40
0.0
 40
0.0
 40
0.0
 40
0.0
 40
1.0
 40
1.0
 40
1.0
 40
1.0
 10
968.9951088529
 20
273.5263619013
 30
0.0
 10
968.7517247846
 20
274.2377155028
 30
0.0
 10
968.5934000137
 20
274.9939764509
 30
0.0
 10
968.5934000137
 20
275.7458140339
 30
0.0
  0
SPLINE
  5
30B
100
AcDbEntity
  8
0
100
AcDbSpline
 62
7
  6
CONTINUOUS
 70
0
 71
3
 72
8
 73
4
 74
0
 42
0.0000001
 43
0.0000001
 44
0.0000000001
 40
0.0
 40
0.0
 40
0.0
 40
0.0
 40
1.0
 40
1.0
 40
1.0
 40
1.0
 10
977.4119187939
 20
1943.9811244685
 30
0.0
 10
978.3066001513
 20
1943.4645916315
 30
0.0
 10
979.5327080582
 20
1943.4271186754
 30
0.0
 10
980.5044853744
 20
1943.777703545
 30
0.0
  0
SPLINE
  5
30C
100
AcDbEntity
  8
0
100
AcDbSpline
 62
7
  6
CONTINUOUS
 70
0
 71
3
 72
8
 73
4
 74
0
 42
0.0000001
 43
0.0000001
 44
0.0000000001
 40
0.0
 40
0.0
 40
0.0
 40
0.0
 40
1.0
 40
1.0
 40
1.0
 40
1.0
 10
968.5934000137
 20
1929.1632087213
 30
0.0
 10
968.5934000137
 20
1929.7604152582
 30
0.0
 10
968.6983913539
 20
1930.3893068665
 30
0.0
 10
968.9902949129
 20
1930.9103135459
 30
0.0
  0
SPLINE
  5
30D
100
AcDbEntity
  8
0
100
AcDbSpline
 62
7
  6
CONTINUOUS
 70
0
 71
3
 72
8
 73
4
 74
0
 42
0.0000001
 43
0.0000001
 44
0.0000000001
 40
0.0
 40
0.0
 40
0.0
 40
0.0
 40
1.0
 40
1.0
 40
1.0
 40
1.0
 10
968.9902949129
 20
1930.9103135459
 30
0.0
 10
969.1646209947
 20
1931.2214610128
 30
0.0
 10
969.4237648844
 20
1931.5025055185
 30
0.0
 10
969.7325943872
 20
1931.6809058191
 30
0.0
  0
SPLINE
  5
30E
100
AcDbEntity
  8
0
100
AcDbSpline
 62
7
  6
CONTINUOUS
 70
0
 71
3
 72
8
 73
4
 74
0
 42
0.0000001
 43
0.0000001
 44
0.0000000001
 40
0.0
 40
0.0
 40
0.0
 40
0.0
 40
1.0
 40
1.0
 40
1.0
 40
1.0
 10
968.5934000137
 20
888.1226268811
 30
0.0
 10
968.5934000137
 20
888.7198334179
 30
0.0
 10
968.6983913539
 20
889.3487250263
 30
0.0
 10
968.9902949129
 20
889.8697317056
 30
0.0
  0
SPLINE
  5
30F
100
AcDbEntity
  8
0
100
AcDbSpline
 62
7
  6
CONTINUOUS
 70
0
 71
3
 72
8
 73
4
 74
0
 42
0.0000001
 43
0.0000001
 44
0.0000000001
 40
0.0
 40
0.0
 40
0.0
 40
0.0
 40
1.0
 40
1.0
 40
1.0
 40
1.0
 10
968.9902949129
 20
889.8697317056
 30
0.0
 10
969.1646209947
 20
890.1808791726
 30
0.0
 10
969.4237648844
 20
890.4619236783
 30
0.0
 10
969.7325943872
 20
890.6403239789
 30
0.0
  0
SPLINE
  5
310
100
AcDbEntity
  8
0
100
AcDbSpline
 62
7
  6
CONTINUOUS
 70
0
 71
3
 72
8
 73
4
 74
0
 42
0.0000001
 43
0.0000001
 44
0.0000000001
 40
0.0
 40
0.0
 40
0.0
 40
0.0
 40
1.0
 40
1.0
 40
1.0
 40
1.0
 10
976.2050881295
 20
221.3349197713
 30
0.0
 10
978.4250440013
 20
220.0593772537
 30
0.0
 10
980.659670817
 20
218.8094336011
 30
0.0
 10
982.8769811699
 20
217.5292978325
 30
0.0
  0
SPLINE
  5
311
100
AcDbEntity
  8
0
100
AcDbSpline
 62
7
  6
CONTINUOUS
 70
0
 71
3
 72
8
 73
4
 74
0
 42
0.0000001
 43
0.0000001
 44
0.0000000001
 40
0.0
 40
0.0
 40
0.0
 40
0.0
 40
1.0
 40
1.0
 40
1.0
 40
1.0
 10
968.5934000137
 20
1316.7863958741
 30
0.0
 10
968.5934000137
 20
1317.383602411
 30
0.0
 10
968.6983913539
 20
1318.0124940194
 30
0.0
 10
968.9902949129
 20
1318.5335006987
 30
0.0
  0
SPLINE
  5
312
100
AcDbEntity
  8
0
100
AcDbSpline
 62
7
  6
CONTINUOUS
 70
0
 71
3
 72
8
 73
4
 74
0
 42
0.0000001
 43
0.0000001
 44
0.0000000001
 40
0.0
 40
0.0
 40
0.0
 40
0.0
 40
1.0
 40
1.0
 40
1.0
 40
1.0
 10
968.9902949129
 20
1318.5335006987
 30
0.0
 10
969.1646209947
 20
1318.8446481657
 30
0.0
 10
969.4237648844
 20
1319.1256926714
 30
0.0
 10
969.7325943872
 20
1319.3040929719
 30
0.0
  0
SPLINE
  5
313
100
AcDbEntity
  8
0
100
AcDbSpline
 62
7
  6
CONTINUOUS
 70
0
 71
3
 72
8
 73
4
 74
0
 42
0.0000001
 43
0.0000001
 44
0.0000000001
 40
0.0
 40
0.0
 40
0.0
 40
0.0
 40
1.0
 40
1.0
 40
1.0
 40
1.0
 10
968.5934000137
 20
275.7458140339
 30
0.0
 10
968.5934000137
 20
276.3430205708
 30
0.0
 10
968.6983913539
 20
276.9719121792
 30
0.0
 10
968.9902949129
 20
277.4929188585
 30
0.0
  0
SPLINE
  5
314
100
AcDbEntity
  8
0
100
AcDbSpline
 62
7
  6
CONTINUOUS
 70
0
 71
3
 72
8
 73
4
 74
0
 42
0.0000001
 43
0.0000001
 44
0.0000000001
 40
0.0
 40
0.0
 40
0.0
 40
0.0
 40
1.0
 40
1.0
 40
1.0
 40
1.0
 10
968.9902949129
 20
277.4929188585
 30
0.0
 10
969.1646209947
 20
277.8040663254
 30
0.0
 10
969.4237648844
 20
278.0851108311
 30
0.0
 10
969.7325943872
 20
278.2635111317
 30
0.0
  0
SPLINE
  5
315
100
AcDbEntity
  8
0
100
AcDbSpline
 62
7
  6
CONTINUOUS
 70
0
 71
3
 72
9
 73
5
 74
0
 42
0.0000001
 43
0.0000001
 44
0.0000000001
 40
0.0
 40
0.0
 40
0.0
 40
0.0
 40
0.510330154
 40
1.0
 40
1.0
 40
1.0
 40
1.0
 10
933.7328229043
 20
250.3926972769
 30
0.0
 10
933.8095170722
 20
250.3484188802
 30
0.0
 10
933.9567305279
 20
250.256197377
 30
0.0
 10
934.0962776184
 20
250.1526729037
 30
0.0
 10
934.1622514835
 20
250.099120367
 30
0.0
  0
SPLINE
  5
316
100
AcDbEntity
  8
0
100
AcDbSpline
 62
7
  6
CONTINUOUS
 70
0
 71
3
 72
8
 73
4
 74
0
 42
0.0000001
 43
0.0000001
 44
0.0000000001
 40
0.0
 40
0.0
 40
0.0
 40
0.0
 40
1.0
 40
1.0
 40
1.0
 40
1.0
 10
934.1622514835
 20
250.099120367
 30
0.0
 10
934.5585378047
 20
249.7774454479
 30
0.0
 10
934.9043208135
 20
249.2701299109
 30
0.0
 10
934.9043207837
 20
248.7597206615
 30
0.0
  0
SPLINE
  5
317
100
AcDbEntity
  8
0
100
AcDbSpline
 62
7
  6
CONTINUOUS
 70
0
 71
3
 72
9
 73
5
 74
0
 42
0.0000001
 43
0.0000001
 44
0.0000000001
 40
0.0
 40
0.0
 40
0.0
 40
0.0
 40
0.2099658222
 40
1.0
 40
1.0
 40
1.0
 40
1.0
 10
975.2324126624
 20
1309.7780505029
 30
0.0
 10
974.999138842
 20
1309.6432961504
 30
0.0
 10
973.7243511159
 20
1309.2649826515
 30
0.0
 10
972.4109620609
 20
1309.99913079
 30
0.0
 10
971.6332169942
 20
1310.649221444
 30
0.0
  0
SPLINE
  5
318
100
AcDbEntity
  8
0
100
AcDbSpline
 62
7
  6
CONTINUOUS
 70
0
 71
3
 72
8
 73
4
 74
0
 42
0.0000001
 43
0.0000001
 44
0.0000000001
 40
0.0
 40
0.0
 40
0.0
 40
0.0
 40
1.0
 40
1.0
 40
1.0
 40
1.0
 10
971.6332169942
 20
1310.649221444
 30
0.0
 10
970.4252477237
 20
1311.6589218803
 30
0.0
 10
969.5047667529
 20
1313.0773352176
 30
0.0
 10
968.9951088529
 20
1314.5669437415
 30
0.0
  0
SPLINE
  5
319
100
AcDbEntity
  8
0
100
AcDbSpline
 62
7
  6
CONTINUOUS
 70
0
 71
3
 72
8
 73
4
 74
0
 42
0.0000001
 43
0.0000001
 44
0.0000000001
 40
0.0
 40
0.0
 40
0.0
 40
0.0
 40
1.0
 40
1.0
 40
1.0
 40
1.0
 10
968.9951088529
 20
1314.5669437415
 30
0.0
 10
968.7517247846
 20
1315.278297343
 30
0.0
 10
968.5934000137
 20
1316.0345582911
 30
0.0
 10
968.5934000137
 20
1316.7863958741
 30
0.0
  0
SPLINE
  5
31A
100
AcDbEntity
  8
0
100
AcDbSpline
 62
7
  6
CONTINUOUS
 70
0
 71
3
 72
9
 73
5
 74
0
 42
0.0000001
 43
0.0000001
 44
0.0000000001
 40
0.0
 40
0.0
 40
0.0
 40
0.0
 40
0.2099658222
 40
1.0
 40
1.0
 40
1.0
 40
1.0
 10
975.2324126624
 20
881.1142815098
 30
0.0
 10
974.999138842
 20
880.9795271574
 30
0.0
 10
973.7243511159
 20
880.6012136585
 30
0.0
 10
972.4109620609
 20
881.3353617969
 30
0.0
 10
971.6332169942
 20
881.985452451
 30
0.0
  0
SPLINE
  5
31B
100
AcDbEntity
  8
0
100
AcDbSpline
 62
7
  6
CONTINUOUS
 70
0
 71
3
 72
8
 73
4
 74
0
 42
0.0000001
 43
0.0000001
 44
0.0000000001
 40
0.0
 40
0.0
 40
0.0
 40
0.0
 40
1.0
 40
1.0
 40
1.0
 40
1.0
 10
971.6332169942
 20
881.985452451
 30
0.0
 10
970.4252477237
 20
882.9951528873
 30
0.0
 10
969.5047667529
 20
884.4135662245
 30
0.0
 10
968.9951088529
 20
885.9031747484
 30
0.0
  0
SPLINE
  5
31C
100
AcDbEntity
  8
0
100
AcDbSpline
 62
7
  6
CONTINUOUS
 70
0
 71
3
 72
8
 73
4
 74
0
 42
0.0000001
 43
0.0000001
 44
0.0000000001
 40
0.0
 40
0.0
 40
0.0
 40
0.0
 40
1.0
 40
1.0
 40
1.0
 40
1.0
 10
968.9951088529
 20
885.9031747484
 30
0.0
 10
968.7517247846
 20
886.61452835
 30
0.0
 10
968.5934000137
 20
887.3707892981
 30
0.0
 10
968.5934000137
 20
888.1226268811
 30
0.0
  0
SPLINE
  5
31D
100
AcDbEntity
  8
0
100
AcDbSpline
 62
7
  6
CONTINUOUS
 70
0
 71
3
 72
8
 73
4
 74
0
 42
0.0000001
 43
0.0000001
 44
0.0000000001
 40
0.0
 40
0.0
 40
0.0
 40
0.0
 40
1.0
 40
1.0
 40
1.0
 40
1.0
 10
991.3840636193
 20
1985.5927941646
 30
0.0
 10
991.2050147241
 20
1985.4927674794
 30
0.0
 10
991.0245747604
 20
1985.3952417794
 30
0.0
 10
990.8456521524
 20
1985.2949893731
 30
0.0
  0
SPLINE
  5
31E
100
AcDbEntity
  8
0
100
AcDbSpline
 62
7
  6
CONTINUOUS
 70
0
 71
3
 72
9
 73
5
 74
0
 42
0.0000001
 43
0.0000001
 44
0.0000000001
 40
0.0
 40
0.0
 40
0.0
 40
0.0
 40
0.7671929023
 40
1.0
 40
1.0
 40
1.0
 40
1.0
 10
991.3840636193
 20
1985.5927941646
 30
0.0
 10
991.6120695147
 20
1985.7090891901
 30
0.0
 10
991.9051406885
 20
1985.7912781697
 30
0.0
 10
992.1858267378
 20
1986.0977007305
 30
0.0
 10
992.2604372613
 20
1986.0761185008
 30
0.0
  0
SPLINE
  5
31F
100
AcDbEntity
  8
0
100
AcDbSpline
 62
7
  6
CONTINUOUS
 70
0
 71
3
 72
8
 73
4
 74
0
 42
0.0000001
 43
0.0000001
 44
0.0000000001
 40
0.0
 40
0.0
 40
0.0
 40
0.0
 40
1.0
 40
1.0
 40
1.0
 40
1.0
 10
728.4640330846
 20
2064.0858133581
 30
0.0
 10
727.9120150565
 20
2064.837154725
 30
0.0
 10
727.4653955163
 20
2065.6799683102
 30
0.0
 10
727.1635828934
 20
2066.5620946581
 30
0.0
  0
SPLINE
  5
320
100
AcDbEntity
  8
0
100
AcDbSpline
 62
7
  6
CONTINUOUS
 70
0
 71
3
 72
9
 73
5
 74
0
 42
0.0000001
 43
0.0000001
 44
0.0000000001
 40
0.0
 40
0.0
 40
0.0
 40
0.0
 40
0.2099658222
 40
1.0
 40
1.0
 40
1.0
 40
1.0
 10
975.2324126624
 20
1922.1548633501
 30
0.0
 10
974.999138842
 20
1922.0201089976
 30
0.0
 10
973.7243511159
 20
1921.6417954987
 30
0.0
 10
972.4109620609
 20
1922.3759436371
 30
0.0
 10
971.6332169942
 20
1923.0260342912
 30
0.0
  0
SPLINE
  5
321
100
AcDbEntity
  8
0
100
AcDbSpline
 62
7
  6
CONTINUOUS
 70
0
 71
3
 72
8
 73
4
 74
0
 42
0.0000001
 43
0.0000001
 44
0.0000000001
 40
0.0
 40
0.0
 40
0.0
 40
0.0
 40
1.0
 40
1.0
 40
1.0
 40
1.0
 10
971.6332169942
 20
1923.0260342912
 30
0.0
 10
970.4252477237
 20
1924.0357347275
 30
0.0
 10
969.5047667529
 20
1925.4541480648
 30
0.0
 10
968.9951088529
 20
1926.9437565887
 30
0.0
  0
SPLINE
  5
322
100
AcDbEntity
  8
0
100
AcDbSpline
 62
7
  6
CONTINUOUS
 70
0
 71
3
 72
8
 73
4
 74
0
 42
0.0000001
 43
0.0000001
 44
0.0000000001
 40
0.0
 40
0.0
 40
0.0
 40
0.0
 40
1.0
 40
1.0
 40
1.0
 40
1.0
 10
968.9951088529
 20
1926.9437565887
 30
0.0
 10
968.7517247846
 20
1927.6551101902
 30
0.0
 10
968.5934000137
 20
1928.4113711383
 30
0.0
 10
968.5934000137
 20
1929.1632087213
 30
0.0
  0
SPLINE
  5
323
100
AcDbEntity
  8
0
100
AcDbSpline
 62
7
  6
CONTINUOUS
 70
0
 71
3
 72
8
 73
4
 74
0
 42
0.0000001
 43
0.0000001
 44
0.0000000001
 40
0.0
 40
0.0
 40
0.0
 40
0.0
 40
1.0
 40
1.0
 40
1.0
 40
1.0
 10
726.8804877858
 20
2069.8087584825
 30
0.0
 10
726.9427117355
 20
2070.0583893549
 30
0.0
 10
727.0330205528
 20
2070.3042084554
 30
0.0
 10
727.1587689535
 20
2070.5286516154
 30
0.0
  0
SPLINE
  5
324
100
AcDbEntity
  8
0
100
AcDbSpline
 62
7
  6
CONTINUOUS
 70
0
 71
3
 72
8
 73
4
 74
0
 42
0.0000001
 43
0.0000001
 44
0.0000000001
 40
0.0
 40
0.0
 40
0.0
 40
0.0
 40
1.0
 40
1.0
 40
1.0
 40
1.0
 10
727.1587689535
 20
2070.5286516154
 30
0.0
 10
727.3330950326
 20
2070.8397990801
 30
0.0
 10
727.5922389191
 20
2071.1208435846
 30
0.0
 10
727.901068419
 20
2071.2992438836
 30
0.0
  0
SPLINE
  5
325
100
AcDbEntity
  8
0
100
AcDbSpline
 62
7
  6
CONTINUOUS
 70
0
 71
3
 72
8
 73
4
 74
0
 42
0.0000001
 43
0.0000001
 44
0.0000000001
 40
0.0
 40
0.0
 40
0.0
 40
0.0
 40
1.0
 40
1.0
 40
1.0
 40
1.0
 10
724.9892010113
 20
2090.3119449022
 30
0.0
 10
724.9890430966
 20
2089.8932162467
 30
0.0
 10
725.3589305833
 20
2089.5006929694
 30
0.0
 10
725.7215623129
 20
2089.2913321791
 30
0.0
  0
SPLINE
  5
326
100
AcDbEntity
  8
0
100
AcDbSpline
 62
7
  6
CONTINUOUS
 70
0
 71
3
 72
8
 73
4
 74
0
 42
0.0000001
 43
0.0000001
 44
0.0000000001
 40
0.0
 40
0.0
 40
0.0
 40
0.0
 40
1.0
 40
1.0
 40
1.0
 40
1.0
 10
669.4875015091
 20
385.2550701062
 30
0.0
 10
670.0546850632
 20
385.4380335687
 30
0.0
 10
670.7053768806
 20
385.3844515868
 30
0.0
 10
671.2747872524
 20
385.2085406968
 30
0.0
  0
SPLINE
  5
327
100
AcDbEntity
  8
0
100
AcDbSpline
 62
7
  6
CONTINUOUS
 70
0
 71
3
 72
8
 73
4
 74
0
 42
0.0000001
 43
0.0000001
 44
0.0000000001
 40
0.0
 40
0.0
 40
0.0
 40
0.0
 40
1.0
 40
1.0
 40
1.0
 40
1.0
 10
671.2747872524
 20
385.2085406968
 30
0.0
 10
672.024880678
 20
384.9768104569
 30
0.0
 10
672.7162546871
 20
384.5416357364
 30
0.0
 10
673.3186132407
 20
384.0381446996
 30
0.0
  0
SPLINE
  5
328
100
AcDbEntity
  8
0
100
AcDbSpline
 62
7
  6
CONTINUOUS
 70
0
 71
3
 72
9
 73
5
 74
0
 42
0.0000001
 43
0.0000001
 44
0.0000000001
 40
0.0
 40
0.0
 40
0.0
 40
0.0
 40
0.7659803344
 40
1.0
 40
1.0
 40
1.0
 40
1.0
 10
673.3186132407
 20
384.0381446996
 30
0.0
 10
674.9297703259
 20
382.6914332661
 30
0.0
 10
676.4882742444
 20
380.1521426291
 30
0.0
 10
676.9111241967
 20
377.42666574
 30
0.0
 10
676.9111241967
 20
376.785120361
 30
0.0
  0
SPLINE
  5
329
100
AcDbEntity
  8
0
100
AcDbSpline
 62
7
  6
CONTINUOUS
 70
0
 71
3
 72
9
 73
5
 74
0
 42
0.0000001
 43
0.0000001
 44
0.0000000001
 40
0.0
 40
0.0
 40
0.0
 40
0.0
 40
0.4973520506
 40
1.0
 40
1.0
 40
1.0
 40
1.0
 10
665.7876680687
 20
2096.8099927908
 30
0.0
 10
665.8695893949
 20
2096.8588210101
 30
0.0
 10
666.0439600017
 20
2096.9415520526
 30
0.0
 10
666.2308472792
 20
2096.9902134338
 30
0.0
 10
666.3260795357
 20
2097.0050742608
 30
0.0
  0
SPLINE
  5
32A
100
AcDbEntity
  8
0
100
AcDbSpline
 62
7
  6
CONTINUOUS
 70
0
 71
3
 72
8
 73
4
 74
0
 42
0.0000001
 43
0.0000001
 44
0.0000000001
 40
0.0
 40
0.0
 40
0.0
 40
0.0
 40
1.0
 40
1.0
 40
1.0
 40
1.0
 10
665.7876680687
 20
2096.8099927908
 30
0.0
 10
665.4082255871
 20
2096.5653886356
 30
0.0
 10
665.1314113146
 20
2096.1339005466
 30
0.0
 10
665.0148986312
 20
2095.6977439415
 30
0.0
  0
SPLINE
  5
32B
100
AcDbEntity
  8
0
100
AcDbSpline
 62
7
  6
CONTINUOUS
 70
0
 71
3
 72
8
 73
4
 74
0
 42
0.0000001
 43
0.0000001
 44
0.0000000001
 40
0.0
 40
0.0
 40
0.0
 40
0.0
 40
1.0
 40
1.0
 40
1.0
 40
1.0
 10
665.0148986312
 20
2095.6977439415
 30
0.0
 10
664.941463013
 20
2095.4228431411
 30
0.0
 10
664.9112490043
 20
2095.1349818525
 30
0.0
 10
664.9112277497
 20
2094.8504414519
 30
0.0
  0
SPLINE
  5
32C
100
AcDbEntity
  8
0
100
AcDbSpline
 62
7
  6
CONTINUOUS
 70
0
 71
3
 72
8
 73
4
 74
0
 42
0.0000001
 43
0.0000001
 44
0.0000000001
 40
0.0
 40
0.0
 40
0.0
 40
0.0
 40
1.0
 40
1.0
 40
1.0
 40
1.0
 10
669.2541003327
 20
384.7794272938
 30
0.0
 10
668.904825697
 20
384.16187929
 30
0.0
 10
668.7793535256
 20
383.4140938901
 30
0.0
 10
668.7793535256
 20
382.7046164006
 30
0.0
  0
SPLINE
  5
32D
100
AcDbEntity
  8
0
100
AcDbSpline
 62
7
  6
CONTINUOUS
 70
0
 71
3
 72
8
 73
4
 74
0
 42
0.0000001
 43
0.0000001
 44
0.0000000001
 40
0.0
 40
0.0
 40
0.0
 40
0.0
 40
1.0
 40
1.0
 40
1.0
 40
1.0
 10
669.4875015091
 20
1426.2956519464
 30
0.0
 10
670.0546850632
 20
1426.4786154089
 30
0.0
 10
670.7053768806
 20
1426.425033427
 30
0.0
 10
671.2747872524
 20
1426.249122537
 30
0.0
  0
SPLINE
  5
32E
100
AcDbEntity
  8
0
100
AcDbSpline
 62
7
  6
CONTINUOUS
 70
0
 71
3
 72
8
 73
4
 74
0
 42
0.0000001
 43
0.0000001
 44
0.0000000001
 40
0.0
 40
0.0
 40
0.0
 40
0.0
 40
1.0
 40
1.0
 40
1.0
 40
1.0
 10
671.2747872524
 20
1426.249122537
 30
0.0
 10
672.024880678
 20
1426.0173922971
 30
0.0
 10
672.7162546871
 20
1425.5822175766
 30
0.0
 10
673.3186132407
 20
1425.0787265398
 30
0.0
  0
SPLINE
  5
32F
100
AcDbEntity
  8
0
100
AcDbSpline
 62
7
  6
CONTINUOUS
 70
0
 71
3
 72
9
 73
5
 74
0
 42
0.0000001
 43
0.0000001
 44
0.0000000001
 40
0.0
 40
0.0
 40
0.0
 40
0.0
 40
0.7659803344
 40
1.0
 40
1.0
 40
1.0
 40
1.0
 10
673.3186132407
 20
1425.0787265398
 30
0.0
 10
674.9297703259
 20
1423.7320151063
 30
0.0
 10
676.4882742444
 20
1421.1927244693
 30
0.0
 10
676.9111241967
 20
1418.4672475802
 30
0.0
 10
676.9111241967
 20
1417.8257022012
 30
0.0
  0
SPLINE
  5
330
100
AcDbEntity
  8
0
100
AcDbSpline
 62
7
  6
CONTINUOUS
 70
0
 71
3
 72
8
 73
4
 74
0
 42
0.0000001
 43
0.0000001
 44
0.0000000001
 40
0.0
 40
0.0
 40
0.0
 40
0.0
 40
1.0
 40
1.0
 40
1.0
 40
1.0
 10
669.2541003327
 20
1425.820009134
 30
0.0
 10
668.904825697
 20
1425.2024611302
 30
0.0
 10
668.7793535256
 20
1424.4546757303
 30
0.0
 10
668.7793535256
 20
1423.7451982408
 30
0.0
  0
SPLINE
  5
331
100
AcDbEntity
  8
0
100
AcDbSpline
 62
7
  6
CONTINUOUS
 70
0
 71
3
 72
8
 73
4
 74
0
 42
0.0000001
 43
0.0000001
 44
0.0000000001
 40
0.0
 40
0.0
 40
0.0
 40
0.0
 40
1.0
 40
1.0
 40
1.0
 40
1.0
 10
669.4875015091
 20
997.6318829534
 30
0.0
 10
670.0546850632
 20
997.8148464159
 30
0.0
 10
670.7053768806
 20
997.7612644339
 30
0.0
 10
671.2747872524
 20
997.585353544
 30
0.0
  0
SPLINE
  5
332
100
AcDbEntity
  8
0
100
AcDbSpline
 62
7
  6
CONTINUOUS
 70
0
 71
3
 72
8
 73
4
 74
0
 42
0.0000001
 43
0.0000001
 44
0.0000000001
 40
0.0
 40
0.0
 40
0.0
 40
0.0
 40
1.0
 40
1.0
 40
1.0
 40
1.0
 10
671.2747872524
 20
997.585353544
 30
0.0
 10
672.024880678
 20
997.3536233041
 30
0.0
 10
672.7162546871
 20
996.9184485836
 30
0.0
 10
673.3186132407
 20
996.4149575468
 30
0.0
  0
SPLINE
  5
333
100
AcDbEntity
  8
0
100
AcDbSpline
 62
7
  6
CONTINUOUS
 70
0
 71
3
 72
9
 73
5
 74
0
 42
0.0000001
 43
0.0000001
 44
0.0000000001
 40
0.0
 40
0.0
 40
0.0
 40
0.0
 40
0.7659803344
 40
1.0
 40
1.0
 40
1.0
 40
1.0
 10
673.3186132407
 20
996.4149575468
 30
0.0
 10
674.9297703259
 20
995.0682461133
 30
0.0
 10
676.4882742444
 20
992.5289554762
 30
0.0
 10
676.9111241967
 20
989.8034785872
 30
0.0
 10
676.9111241967
 20
989.1619332082
 30
0.0
  0
SPLINE
  5
334
100
AcDbEntity
  8
0
100
AcDbSpline
 62
7
  6
CONTINUOUS
 70
0
 71
3
 72
8
 73
4
 74
0
 42
0.0000001
 43
0.0000001
 44
0.0000000001
 40
0.0
 40
0.0
 40
0.0
 40
0.0
 40
1.0
 40
1.0
 40
1.0
 40
1.0
 10
669.2541003327
 20
997.156240141
 30
0.0
 10
668.904825697
 20
996.5386921372
 30
0.0
 10
668.7793535256
 20
995.7909067373
 30
0.0
 10
668.7793535256
 20
995.0814292477
 30
0.0
  0
SPLINE
  5
335
100
AcDbEntity
  8
0
100
AcDbSpline
 62
7
  6
CONTINUOUS
 70
0
 71
3
 72
9
 73
5
 74
0
 42
0.0000001
 43
0.0000001
 44
0.0000000001
 40
0.0
 40
0.0
 40
0.0
 40
0.0
 40
0.5077497469
 40
1.0
 40
1.0
 40
1.0
 40
1.0
 10
869.8435891853
 20
1981.5464048739
 30
0.0
 10
869.794373234
 20
1981.5120795424
 30
0.0
 10
869.699286963
 20
1981.4417866014
 30
0.0
 10
869.6085251172
 20
1981.3659723208
 30
0.0
 10
869.5651006576
 20
1981.3272644837
 30
0.0
  0
SPLINE
  5
336
100
AcDbEntity
  8
0
100
AcDbSpline
 62
7
  6
CONTINUOUS
 70
0
 71
3
 72
8
 73
4
 74
0
 42
0.0000001
 43
0.0000001
 44
0.0000000001
 40
0.0
 40
0.0
 40
0.0
 40
0.0
 40
1.0
 40
1.0
 40
1.0
 40
1.0
 10
871.3605038692
 20
1982.1981528796
 30
0.0
 10
871.0594727616
 20
1982.1222099186
 30
0.0
 10
870.7469183013
 20
1982.055461416
 30
0.0
 10
870.4780493527
 20
1981.9002307827
 30
0.0
  0
SPLINE
  5
337
100
AcDbEntity
  8
0
100
AcDbSpline
 62
7
  6
CONTINUOUS
 70
0
 71
3
 72
9
 73
5
 74
0
 42
0.0000001
 43
0.0000001
 44
0.0000000001
 40
0.0
 40
0.0
 40
0.0
 40
0.0
 40
0.5157995104
 40
1.0
 40
1.0
 40
1.0
 40
1.0
 10
870.4780493527
 20
1981.9002307827
 30
0.0
 10
870.4266967629
 20
1981.8705825282
 30
0.0
 10
870.3309466111
 20
1981.8058315741
 30
0.0
 10
870.2509745327
 20
1981.7212126266
 30
0.0
 10
870.219035151
 20
1981.6756234781
 30
0.0
  0
SPLINE
  5
338
100
AcDbEntity
  8
0
100
AcDbSpline
 62
7
  6
CONTINUOUS
 70
0
 71
3
 72
8
 73
4
 74
0
 42
0.0000001
 43
0.0000001
 44
0.0000000001
 40
0.0
 40
0.0
 40
0.0
 40
0.0
 40
1.0
 40
1.0
 40
1.0
 40
1.0
 10
669.4875015091
 20
2038.6724647936
 30
0.0
 10
670.0546850632
 20
2038.8554282561
 30
0.0
 10
670.7053768806
 20
2038.8018462742
 30
0.0
 10
671.2747872524
 20
2038.6259353842
 30
0.0
  0
SPLINE
  5
339
100
AcDbEntity
  8
0
100
AcDbSpline
 62
7
  6
CONTINUOUS
 70
0
 71
3
 72
8
 73
4
 74
0
 42
0.0000001
 43
0.0000001
 44
0.0000000001
 40
0.0
 40
0.0
 40
0.0
 40
0.0
 40
1.0
 40
1.0
 40
1.0
 40
1.0
 10
671.2747872524
 20
2038.6259353842
 30
0.0
 10
672.024880678
 20
2038.3942051443
 30
0.0
 10
672.7162546871
 20
2037.9590304238
 30
0.0
 10
673.3186132407
 20
2037.455539387
 30
0.0
  0
SPLINE
  5
33A
100
AcDbEntity
  8
0
100
AcDbSpline
 62
7
  6
CONTINUOUS
 70
0
 71
3
 72
9
 73
5
 74
0
 42
0.0000001
 43
0.0000001
 44
0.0000000001
 40
0.0
 40
0.0
 40
0.0
 40
0.0
 40
0.7659803344
 40
1.0
 40
1.0
 40
1.0
 40
1.0
 10
673.3186132407
 20
2037.455539387
 30
0.0
 10
674.9297703259
 20
2036.1088279535
 30
0.0
 10
676.4882742444
 20
2033.5695373165
 30
0.0
 10
676.9111241967
 20
2030.8440604274
 30
0.0
 10
676.9111241967
 20
2030.2025150484
 30
0.0
  0
SPLINE
  5
33B
100
AcDbEntity
  8
0
100
AcDbSpline
 62
7
  6
CONTINUOUS
 70
0
 71
3
 72
9
 73
5
 74
0
 42
0.0000001
 43
0.0000001
 44
0.0000000001
 40
0.0
 40
0.0
 40
0.0
 40
0.0
 40
0.5123054968
 40
1.0
 40
1.0
 40
1.0
 40
1.0
 10
723.1890321898
 20
2066.2155373614
 30
0.0
 10
723.1134479551
 20
2066.1628216495
 30
0.0
 10
722.9701763734
 20
2066.0536219369
 30
0.0
 10
722.8378371461
 20
2065.9312802272
 30
0.0
 10
722.776741256
 20
2065.8683285453
 30
0.0
  0
SPLINE
  5
33C
100
AcDbEntity
  8
0
100
AcDbSpline
 62
7
  6
CONTINUOUS
 70
0
 71
3
 72
8
 73
4
 74
0
 42
0.0000001
 43
0.0000001
 44
0.0000000001
 40
0.0
 40
0.0
 40
0.0
 40
0.0
 40
1.0
 40
1.0
 40
1.0
 40
1.0
 10
724.7059468737
 20
2066.8672853672
 30
0.0
 10
724.4049157661
 20
2066.7913424062
 30
0.0
 10
724.0923613058
 20
2066.7245939035
 30
0.0
 10
723.8234923572
 20
2066.5693632702
 30
0.0
  0
SPLINE
  5
33D
100
AcDbEntity
  8
0
100
AcDbSpline
 62
7
  6
CONTINUOUS
 70
0
 71
3
 72
9
 73
5
 74
0
 42
0.0000001
 43
0.0000001
 44
0.0000000001
 40
0.0
 40
0.0
 40
0.0
 40
0.0
 40
0.5157995104
 40
1.0
 40
1.0
 40
1.0
 40
1.0
 10
723.8234923572
 20
2066.5693632702
 30
0.0
 10
723.7721397674
 20
2066.5397150157
 30
0.0
 10
723.6763896156
 20
2066.4749640617
 30
0.0
 10
723.5964175372
 20
2066.3903451142
 30
0.0
 10
723.5644781555
 20
2066.3447559656
 30
0.0
  0
SPLINE
  5
33E
100
AcDbEntity
  8
0
100
AcDbSpline
 62
7
  6
CONTINUOUS
 70
0
 71
3
 72
8
 73
4
 74
0
 42
0.0000001
 43
0.0000001
 44
0.0000000001
 40
0.0
 40
0.0
 40
0.0
 40
0.0
 40
1.0
 40
1.0
 40
1.0
 40
1.0
 10
669.2541003327
 20
2038.1968219812
 30
0.0
 10
668.904825697
 20
2037.5792739774
 30
0.0
 10
668.7793535256
 20
2036.8314885775
 30
0.0
 10
668.7793535256
 20
2036.122011088
 30
0.0
  0
SPLINE
  5
33F
100
AcDbEntity
  8
0
100
AcDbSpline
 62
7
  6
CONTINUOUS
 70
0
 71
3
 72
8
 73
4
 74
0
 42
0.0000001
 43
0.0000001
 44
0.0000000001
 40
0.0
 40
0.0
 40
0.0
 40
0.0
 40
1.0
 40
1.0
 40
1.0
 40
1.0
 10
911.3190275094
 20
245.6367320603
 30
0.0
 10
911.8862110635
 20
245.8196955228
 30
0.0
 10
912.5369028809
 20
245.7661135408
 30
0.0
 10
913.1063132527
 20
245.5902026508
 30
0.0
  0
SPLINE
  5
340
100
AcDbEntity
  8
0
100
AcDbSpline
 62
7
  6
CONTINUOUS
 70
0
 71
3
 72
8
 73
4
 74
0
 42
0.0000001
 43
0.0000001
 44
0.0000000001
 40
0.0
 40
0.0
 40
0.0
 40
0.0
 40
1.0
 40
1.0
 40
1.0
 40
1.0
 10
913.1063132527
 20
245.5902026508
 30
0.0
 10
913.8564066783
 20
245.3584724109
 30
0.0
 10
914.5477806874
 20
244.9232976904
 30
0.0
 10
915.150139241
 20
244.4198066537
 30
0.0
  0
SPLINE
  5
341
100
AcDbEntity
  8
0
100
AcDbSpline
 62
7
  6
CONTINUOUS
 70
0
 71
3
 72
9
 73
5
 74
0
 42
0.0000001
 43
0.0000001
 44
0.0000000001
 40
0.0
 40
0.0
 40
0.0
 40
0.0
 40
0.7659803344
 40
1.0
 40
1.0
 40
1.0
 40
1.0
 10
915.150139241
 20
244.4198066537
 30
0.0
 10
916.7612963261
 20
243.0730952202
 30
0.0
 10
918.3198002446
 20
240.5338045831
 30
0.0
 10
918.7426501969
 20
237.808327694
 30
0.0
 10
918.7426501969
 20
237.166782315
 30
0.0
  0
SPLINE
  5
342
100
AcDbEntity
  8
0
100
AcDbSpline
 62
7
  6
CONTINUOUS
 70
0
 71
3
 72
8
 73
4
 74
0
 42
0.0000001
 43
0.0000001
 44
0.0000000001
 40
0.0
 40
0.0
 40
0.0
 40
0.0
 40
1.0
 40
1.0
 40
1.0
 40
1.0
 10
911.085626333
 20
245.1610892479
 30
0.0
 10
910.7363516973
 20
244.5435412441
 30
0.0
 10
910.6108795258
 20
243.7957558442
 30
0.0
 10
910.6108795258
 20
243.0862783546
 30
0.0
  0
SPLINE
  5
343
100
AcDbEntity
  8
0
100
AcDbSpline
 62
7
  6
CONTINUOUS
 70
0
 71
3
 72
8
 73
4
 74
0
 42
0.0000001
 43
0.0000001
 44
0.0000000001
 40
0.0
 40
0.0
 40
0.0
 40
0.0
 40
1.0
 40
1.0
 40
1.0
 40
1.0
 10
911.3190275094
 20
1286.6773139005
 30
0.0
 10
911.8862110635
 20
1286.860277363
 30
0.0
 10
912.5369028809
 20
1286.806695381
 30
0.0
 10
913.1063132527
 20
1286.6307844911
 30
0.0
  0
SPLINE
  5
344
100
AcDbEntity
  8
0
100
AcDbSpline
 62
7
  6
CONTINUOUS
 70
0
 71
3
 72
8
 73
4
 74
0
 42
0.0000001
 43
0.0000001
 44
0.0000000001
 40
0.0
 40
0.0
 40
0.0
 40
0.0
 40
1.0
 40
1.0
 40
1.0
 40
1.0
 10
913.1063132527
 20
1286.6307844911
 30
0.0
 10
913.8564066783
 20
1286.3990542511
 30
0.0
 10
914.5477806874
 20
1285.9638795306
 30
0.0
 10
915.150139241
 20
1285.4603884939
 30
0.0
  0
SPLINE
  5
345
100
AcDbEntity
  8
0
100
AcDbSpline
 62
7
  6
CONTINUOUS
 70
0
 71
3
 72
9
 73
5
 74
0
 42
0.0000001
 43
0.0000001
 44
0.0000000001
 40
0.0
 40
0.0
 40
0.0
 40
0.0
 40
0.7659803344
 40
1.0
 40
1.0
 40
1.0
 40
1.0
 10
915.150139241
 20
1285.4603884939
 30
0.0
 10
916.7612963261
 20
1284.1136770604
 30
0.0
 10
918.3198002446
 20
1281.5743864233
 30
0.0
 10
918.7426501969
 20
1278.8489095342
 30
0.0
 10
918.7426501969
 20
1278.2073641553
 30
0.0
  0
SPLINE
  5
346
100
AcDbEntity
  8
0
100
AcDbSpline
 62
7
  6
CONTINUOUS
 70
0
 71
3
 72
8
 73
4
 74
0
 42
0.0000001
 43
0.0000001
 44
0.0000000001
 40
0.0
 40
0.0
 40
0.0
 40
0.0
 40
1.0
 40
1.0
 40
1.0
 40
1.0
 10
911.085626333
 20
1286.2016710881
 30
0.0
 10
910.7363516973
 20
1285.5841230843
 30
0.0
 10
910.6108795258
 20
1284.8363376844
 30
0.0
 10
910.6108795258
 20
1284.1268601948
 30
0.0
  0
SPLINE
  5
347
100
AcDbEntity
  8
0
100
AcDbSpline
 62
7
  6
CONTINUOUS
 70
0
 71
3
 72
8
 73
4
 74
0
 42
0.0000001
 43
0.0000001
 44
0.0000000001
 40
0.0
 40
0.0
 40
0.0
 40
0.0
 40
1.0
 40
1.0
 40
1.0
 40
1.0
 10
911.3190275094
 20
858.0135449074
 30
0.0
 10
911.8862110635
 20
858.1965083699
 30
0.0
 10
912.5369028809
 20
858.142926388
 30
0.0
 10
913.1063132527
 20
857.967015498
 30
0.0
  0
SPLINE
  5
348
100
AcDbEntity
  8
0
100
AcDbSpline
 62
7
  6
CONTINUOUS
 70
0
 71
3
 72
8
 73
4
 74
0
 42
0.0000001
 43
0.0000001
 44
0.0000000001
 40
0.0
 40
0.0
 40
0.0
 40
0.0
 40
1.0
 40
1.0
 40
1.0
 40
1.0
 10
913.1063132527
 20
857.967015498
 30
0.0
 10
913.8564066783
 20
857.7352852581
 30
0.0
 10
914.5477806874
 20
857.3001105376
 30
0.0
 10
915.150139241
 20
856.7966195008
 30
0.0
  0
SPLINE
  5
349
100
AcDbEntity
  8
0
100
AcDbSpline
 62
7
  6
CONTINUOUS
 70
0
 71
3
 72
9
 73
5
 74
0
 42
0.0000001
 43
0.0000001
 44
0.0000000001
 40
0.0
 40
0.0
 40
0.0
 40
0.0
 40
0.7659803344
 40
1.0
 40
1.0
 40
1.0
 40
1.0
 10
915.150139241
 20
856.7966195008
 30
0.0
 10
916.7612963261
 20
855.4499080673
 30
0.0
 10
918.3198002446
 20
852.9106174303
 30
0.0
 10
918.7426501969
 20
850.1851405412
 30
0.0
 10
918.7426501969
 20
849.5435951622
 30
0.0
  0
SPLINE
  5
34A
100
AcDbEntity
  8
0
100
AcDbSpline
 62
7
  6
CONTINUOUS
 70
0
 71
3
 72
8
 73
4
 74
0
 42
0.0000001
 43
0.0000001
 44
0.0000000001
 40
0.0
 40
0.0
 40
0.0
 40
0.0
 40
1.0
 40
1.0
 40
1.0
 40
1.0
 10
911.085626333
 20
857.537902095
 30
0.0
 10
910.7363516973
 20
856.9203540912
 30
0.0
 10
910.6108795258
 20
856.1725686914
 30
0.0
 10
910.6108795258
 20
855.4630912018
 30
0.0
  0
SPLINE
  5
34B
100
AcDbEntity
  8
0
100
AcDbSpline
 62
7
  6
CONTINUOUS
 70
0
 71
3
 72
8
 73
4
 74
0
 42
0.0000001
 43
0.0000001
 44
0.0000000001
 40
0.0
 40
0.0
 40
0.0
 40
0.0
 40
1.0
 40
1.0
 40
1.0
 40
1.0
 10
729.0957394814
 20
2066.3740985134
 30
0.0
 10
728.3470659038
 20
2066.8063356265
 30
0.0
 10
727.4535646896
 20
2067.0029299863
 30
0.0
 10
726.5900021978
 20
2067.0429408683
 30
0.0
  0
SPLINE
  5
34C
100
AcDbEntity
  8
0
100
AcDbSpline
 62
7
  6
CONTINUOUS
 70
0
 71
3
 72
8
 73
4
 74
0
 42
0.0000001
 43
0.0000001
 44
0.0000000001
 40
0.0
 40
0.0
 40
0.0
 40
0.0
 40
1.0
 40
1.0
 40
1.0
 40
1.0
 10
726.5900021978
 20
2067.0429408683
 30
0.0
 10
726.1233360786
 20
2067.0645626075
 30
0.0
 10
725.6518578875
 20
2067.0396771963
 30
0.0
 10
725.1906564643
 20
2066.9652593645
 30
0.0
  0
SPLINE
  5
34D
100
AcDbEntity
  8
0
100
AcDbSpline
 62
7
  6
CONTINUOUS
 70
0
 71
3
 72
8
 73
4
 74
0
 42
0.0000001
 43
0.0000001
 44
0.0000000001
 40
0.0
 40
0.0
 40
0.0
 40
0.0
 40
1.0
 40
1.0
 40
1.0
 40
1.0
 10
875.7502964769
 20
1981.7049660259
 30
0.0
 10
875.0016228993
 20
1982.1372031389
 30
0.0
 10
874.1081216851
 20
1982.3337974988
 30
0.0
 10
873.2445591933
 20
1982.3738083808
 30
0.0
  0
SPLINE
  5
34E
100
AcDbEntity
  8
0
100
AcDbSpline
 62
7
  6
CONTINUOUS
 70
0
 71
3
 72
8
 73
4
 74
0
 42
0.0000001
 43
0.0000001
 44
0.0000000001
 40
0.0
 40
0.0
 40
0.0
 40
0.0
 40
1.0
 40
1.0
 40
1.0
 40
1.0
 10
873.2445591933
 20
1982.3738083808
 30
0.0
 10
872.7778930741
 20
1982.39543012
 30
0.0
 10
872.306414883
 20
1982.3705447088
 30
0.0
 10
871.8452134598
 20
1982.296126877
 30
0.0
  0
SPLINE
  5
34F
100
AcDbEntity
  8
0
100
AcDbSpline
 62
7
  6
CONTINUOUS
 70
0
 71
3
 72
8
 73
4
 74
0
 42
0.0000001
 43
0.0000001
 44
0.0000000001
 40
0.0
 40
0.0
 40
0.0
 40
0.0
 40
1.0
 40
1.0
 40
1.0
 40
1.0
 10
932.1825306767
 20
1916.4246417437
 30
0.0
 10
932.1826885914
 20
1916.8433703991
 30
0.0
 10
931.8128011048
 20
1917.2358936764
 30
0.0
 10
931.4501693752
 20
1917.4452544668
 30
0.0
  0
SPLINE
  5
350
100
AcDbEntity
  8
0
100
AcDbSpline
 62
7
  6
CONTINUOUS
 70
0
 71
3
 72
8
 73
4
 74
0
 42
0.0000001
 43
0.0000001
 44
0.0000000001
 40
0.0
 40
0.0
 40
0.0
 40
0.0
 40
1.0
 40
1.0
 40
1.0
 40
1.0
 10
932.1825306518
 20
223.1888976757
 30
0.0
 10
932.1824229316
 20
222.9042149739
 30
0.0
 10
932.0116304858
 20
222.6172365031
 30
0.0
 10
931.8025355382
 20
222.4240434516
 30
0.0
  0
SPLINE
  5
351
100
AcDbEntity
  8
0
100
AcDbSpline
 62
7
  6
CONTINUOUS
 70
0
 71
3
 72
8
 73
4
 74
0
 42
0.0000001
 43
0.0000001
 44
0.0000000001
 40
0.0
 40
0.0
 40
0.0
 40
0.0
 40
1.0
 40
1.0
 40
1.0
 40
1.0
 10
911.3190275094
 20
1899.0541267477
 30
0.0
 10
911.8862110635
 20
1899.2370902101
 30
0.0
 10
912.5369028809
 20
1899.1835082282
 30
0.0
 10
913.1063132527
 20
1899.0075973382
 30
0.0
  0
SPLINE
  5
352
100
AcDbEntity
  8
0
100
AcDbSpline
 62
7
  6
CONTINUOUS
 70
0
 71
3
 72
8
 73
4
 74
0
 42
0.0000001
 43
0.0000001
 44
0.0000000001
 40
0.0
 40
0.0
 40
0.0
 40
0.0
 40
1.0
 40
1.0
 40
1.0
 40
1.0
 10
913.1063132527
 20
1899.0075973382
 30
0.0
 10
913.8564066783
 20
1898.7758670983
 30
0.0
 10
914.5477806874
 20
1898.3406923778
 30
0.0
 10
915.150139241
 20
1897.837201341
 30
0.0
  0
SPLINE
  5
353
100
AcDbEntity
  8
0
100
AcDbSpline
 62
7
  6
CONTINUOUS
 70
0
 71
3
 72
9
 73
5
 74
0
 42
0.0000001
 43
0.0000001
 44
0.0000000001
 40
0.0
 40
0.0
 40
0.0
 40
0.0
 40
0.7659803344
 40
1.0
 40
1.0
 40
1.0
 40
1.0
 10
915.150139241
 20
1897.837201341
 30
0.0
 10
916.7612963261
 20
1896.4904899076
 30
0.0
 10
918.3198002446
 20
1893.9511992705
 30
0.0
 10
918.7426501969
 20
1891.2257223814
 30
0.0
 10
918.7426501969
 20
1890.5841770024
 30
0.0
  0
SPLINE
  5
354
100
AcDbEntity
  8
0
100
AcDbSpline
 62
7
  6
CONTINUOUS
 70
0
 71
3
 72
8
 73
4
 74
0
 42
0.0000001
 43
0.0000001
 44
0.0000000001
 40
0.0
 40
0.0
 40
0.0
 40
0.0
 40
1.0
 40
1.0
 40
1.0
 40
1.0
 10
911.085626333
 20
1898.5784839353
 30
0.0
 10
910.7363516973
 20
1897.9609359315
 30
0.0
 10
910.6108795258
 20
1897.2131505316
 30
0.0
 10
910.6108795258
 20
1896.503673042
 30
0.0
  0
SPLINE
  5
355
100
AcDbEntity
  8
0
100
AcDbSpline
 62
7
  6
CONTINUOUS
 70
0
 71
3
 72
8
 73
4
 74
0
 42
0.0000001
 43
0.0000001
 44
0.0000000001
 40
0.0
 40
0.0
 40
0.0
 40
0.0
 40
1.0
 40
1.0
 40
1.0
 40
1.0
 10
731.3138339737
 20
2064.8917794024
 30
0.0
 10
731.0964395272
 20
2065.1634433466
 30
0.0
 10
730.8112847686
 20
2065.383650387
 30
0.0
 10
730.5099589317
 20
2065.5576170043
 30
0.0
  0
SPLINE
  5
356
100
AcDbEntity
  8
0
100
AcDbSpline
 62
7
  6
CONTINUOUS
 70
0
 71
3
 72
8
 73
4
 74
0
 42
0.0000001
 43
0.0000001
 44
0.0000000001
 40
0.0
 40
0.0
 40
0.0
 40
0.0
 40
1.0
 40
1.0
 40
1.0
 40
1.0
 10
877.9683909692
 20
1980.2226469149
 30
0.0
 10
877.7509965227
 20
1980.4943108591
 30
0.0
 10
877.4658417641
 20
1980.7145178995
 30
0.0
 10
877.1645159272
 20
1980.8884845168
 30
0.0
  0
SPLINE
  5
357
100
AcDbEntity
  8
0
100
AcDbSpline
 62
7
  6
CONTINUOUS
 70
0
 71
3
 72
9
 73
5
 74
0
 42
0.0000001
 43
0.0000001
 44
0.0000000001
 40
0.0
 40
0.0
 40
0.0
 40
0.0
 40
0.2338315643
 40
1.0
 40
1.0
 40
1.0
 40
1.0
 10
910.6108795258
 20
1896.503673042
 30
0.0
 10
910.6108795258
 20
1895.8662048174
 30
0.0
 10
911.0288973728
 20
1893.1554435399
 30
0.0
 10
912.5721448708
 20
1890.6300623319
 30
0.0
 10
914.1669690085
 20
1889.2812569678
 30
0.0
  0
SPLINE
  5
358
100
AcDbEntity
  8
0
100
AcDbSpline
 62
7
  6
CONTINUOUS
 70
0
 71
3
 72
9
 73
5
 74
0
 42
0.0000001
 43
0.0000001
 44
0.0000000001
 40
0.0
 40
0.0
 40
0.0
 40
0.0
 40
0.2896776676
 40
1.0
 40
1.0
 40
1.0
 40
1.0
 10
914.1669690085
 20
1889.2812569678
 30
0.0
 10
914.432142212
 20
1889.0569895826
 30
0.0
 10
915.3855792673
 20
1888.3458157954
 30
0.0
 10
916.6020888559
 20
1887.8659562721
 30
0.0
 10
917.4517221944
 20
1887.9238362306
 30
0.0
  0
SPLINE
  5
359
100
AcDbEntity
  8
0
100
AcDbSpline
 62
7
  6
CONTINUOUS
 70
0
 71
3
 72
9
 73
5
 74
0
 42
0.0000001
 43
0.0000001
 44
0.0000000001
 40
0.0
 40
0.0
 40
0.0
 40
0.0
 40
0.2338315643
 40
1.0
 40
1.0
 40
1.0
 40
1.0
 10
910.6108795258
 20
855.4630912018
 30
0.0
 10
910.6108795258
 20
854.8256229771
 30
0.0
 10
911.0288973728
 20
852.1148616997
 30
0.0
 10
912.5721448708
 20
849.5894804917
 30
0.0
 10
914.1669690085
 20
848.2406751276
 30
0.0
  0
SPLINE
  5
35A
100
AcDbEntity
  8
0
100
AcDbSpline
 62
7
  6
CONTINUOUS
 70
0
 71
3
 72
9
 73
5
 74
0
 42
0.0000001
 43
0.0000001
 44
0.0000000001
 40
0.0
 40
0.0
 40
0.0
 40
0.0
 40
0.2896776676
 40
1.0
 40
1.0
 40
1.0
 40
1.0
 10
914.1669690085
 20
848.2406751276
 30
0.0
 10
914.432142212
 20
848.0164077424
 30
0.0
 10
915.3855792673
 20
847.3052339552
 30
0.0
 10
916.6020888559
 20
846.8253744319
 30
0.0
 10
917.4517221944
 20
846.8832543904
 30
0.0
  0
SPLINE
  5
35B
100
AcDbEntity
  8
0
100
AcDbSpline
 62
7
  6
CONTINUOUS
 70
0
 71
3
 72
9
 73
5
 74
0
 42
0.0000001
 43
0.0000001
 44
0.0000000001
 40
0.0
 40
0.0
 40
0.0
 40
0.0
 40
0.2338315643
 40
1.0
 40
1.0
 40
1.0
 40
1.0
 10
910.6108795258
 20
1284.1268601948
 30
0.0
 10
910.6108795258
 20
1283.4893919702
 30
0.0
 10
911.0288973728
 20
1280.7786306927
 30
0.0
 10
912.5721448708
 20
1278.2532494847
 30
0.0
 10
914.1669690085
 20
1276.9044441206
 30
0.0
  0
SPLINE
  5
35C
100
AcDbEntity
  8
0
100
AcDbSpline
 62
7
  6
CONTINUOUS
 70
0
 71
3
 72
9
 73
5
 74
0
 42
0.0000001
 43
0.0000001
 44
0.0000000001
 40
0.0
 40
0.0
 40
0.0
 40
0.0
 40
0.2896776676
 40
1.0
 40
1.0
 40
1.0
 40
1.0
 10
914.1669690085
 20
1276.9044441206
 30
0.0
 10
914.432142212
 20
1276.6801767354
 30
0.0
 10
915.3855792673
 20
1275.9690029483
 30
0.0
 10
916.6020888559
 20
1275.4891434249
 30
0.0
 10
917.4517221944
 20
1275.5470233834
 30
0.0
  0
SPLINE
  5
35D
100
AcDbEntity
  8
0
100
AcDbSpline
 62
7
  6
CONTINUOUS
 70
0
 71
3
 72
9
 73
5
 74
0
 42
0.0000001
 43
0.0000001
 44
0.0000000001
 40
0.0
 40
0.0
 40
0.0
 40
0.0
 40
0.2338315643
 40
1.0
 40
1.0
 40
1.0
 40
1.0
 10
910.6108795258
 20
243.0862783546
 30
0.0
 10
910.6108795258
 20
242.44881013
 30
0.0
 10
911.0288973728
 20
239.7380488525
 30
0.0
 10
912.5721448708
 20
237.2126676445
 30
0.0
 10
914.1669690085
 20
235.8638622804
 30
0.0
  0
SPLINE
  5
35E
100
AcDbEntity
  8
0
100
AcDbSpline
 62
7
  6
CONTINUOUS
 70
0
 71
3
 72
9
 73
5
 74
0
 42
0.0000001
 43
0.0000001
 44
0.0000000001
 40
0.0
 40
0.0
 40
0.0
 40
0.0
 40
0.2896776676
 40
1.0
 40
1.0
 40
1.0
 40
1.0
 10
914.1669690085
 20
235.8638622804
 30
0.0
 10
914.432142212
 20
235.6395948952
 30
0.0
 10
915.3855792673
 20
234.928421108
 30
0.0
 10
916.6020888559
 20
234.4485615847
 30
0.0
 10
917.4517221944
 20
234.5064415432
 30
0.0
  0
SPLINE
  5
35F
100
AcDbEntity
  8
0
100
AcDbSpline
 62
7
  6
CONTINUOUS
 70
0
 71
3
 72
9
 73
5
 74
0
 42
0.0000001
 43
0.0000001
 44
0.0000000001
 40
0.0
 40
0.0
 40
0.0
 40
0.0
 40
0.2338315643
 40
1.0
 40
1.0
 40
1.0
 40
1.0
 10
668.7793535256
 20
2036.122011088
 30
0.0
 10
668.7793535256
 20
2035.4845428633
 30
0.0
 10
669.1973713726
 20
2032.7737815858
 30
0.0
 10
670.7406188705
 20
2030.2484003778
 30
0.0
 10
672.3354430082
 20
2028.8995950138
 30
0.0
  0
SPLINE
  5
360
100
AcDbEntity
  8
0
100
AcDbSpline
 62
7
  6
CONTINUOUS
 70
0
 71
3
 72
9
 73
5
 74
0
 42
0.0000001
 43
0.0000001
 44
0.0000000001
 40
0.0
 40
0.0
 40
0.0
 40
0.0
 40
0.2896776676
 40
1.0
 40
1.0
 40
1.0
 40
1.0
 10
672.3354430082
 20
2028.8995950138
 30
0.0
 10
672.6006162117
 20
2028.6753276285
 30
0.0
 10
673.5540532671
 20
2027.9641538414
 30
0.0
 10
674.7705628556
 20
2027.484294318
 30
0.0
 10
675.6201961941
 20
2027.5421742766
 30
0.0
  0
SPLINE
  5
361
100
AcDbEntity
  8
0
100
AcDbSpline
 62
7
  6
CONTINUOUS
 70
0
 71
3
 72
9
 73
5
 74
0
 42
0.0000001
 43
0.0000001
 44
0.0000000001
 40
0.0
 40
0.0
 40
0.0
 40
0.0
 40
0.2338315643
 40
1.0
 40
1.0
 40
1.0
 40
1.0
 10
668.7793535256
 20
995.0814292477
 30
0.0
 10
668.7793535256
 20
994.4439610231
 30
0.0
 10
669.1973713726
 20
991.7331997456
 30
0.0
 10
670.7406188705
 20
989.2078185376
 30
0.0
 10
672.3354430082
 20
987.8590131735
 30
0.0
  0
SPLINE
  5
362
100
AcDbEntity
  8
0
100
AcDbSpline
 62
7
  6
CONTINUOUS
 70
0
 71
3
 72
9
 73
5
 74
0
 42
0.0000001
 43
0.0000001
 44
0.0000000001
 40
0.0
 40
0.0
 40
0.0
 40
0.0
 40
0.2896776676
 40
1.0
 40
1.0
 40
1.0
 40
1.0
 10
672.3354430082
 20
987.8590131735
 30
0.0
 10
672.6006162117
 20
987.6347457883
 30
0.0
 10
673.5540532671
 20
986.9235720012
 30
0.0
 10
674.7705628556
 20
986.4437124778
 30
0.0
 10
675.6201961941
 20
986.5015924363
 30
0.0
  0
SPLINE
  5
363
100
AcDbEntity
  8
0
100
AcDbSpline
 62
7
  6
CONTINUOUS
 70
0
 71
3
 72
9
 73
5
 74
0
 42
0.0000001
 43
0.0000001
 44
0.0000000001
 40
0.0
 40
0.0
 40
0.0
 40
0.0
 40
0.2338315643
 40
1.0
 40
1.0
 40
1.0
 40
1.0
 10
668.7793535256
 20
1423.7451982408
 30
0.0
 10
668.7793535256
 20
1423.1077300161
 30
0.0
 10
669.1973713726
 20
1420.3969687386
 30
0.0
 10
670.7406188705
 20
1417.8715875306
 30
0.0
 10
672.3354430082
 20
1416.5227821666
 30
0.0
  0
SPLINE
  5
364
100
AcDbEntity
  8
0
100
AcDbSpline
 62
7
  6
CONTINUOUS
 70
0
 71
3
 72
9
 73
5
 74
0
 42
0.0000001
 43
0.0000001
 44
0.0000000001
 40
0.0
 40
0.0
 40
0.0
 40
0.0
 40
0.2896776676
 40
1.0
 40
1.0
 40
1.0
 40
1.0
 10
672.3354430082
 20
1416.5227821666
 30
0.0
 10
672.6006162117
 20
1416.2985147813
 30
0.0
 10
673.5540532671
 20
1415.5873409942
 30
0.0
 10
674.7705628556
 20
1415.1074814709
 30
0.0
 10
675.6201961941
 20
1415.1653614294
 30
0.0
  0
SPLINE
  5
365
100
AcDbEntity
  8
0
100
AcDbSpline
 62
7
  6
CONTINUOUS
 70
0
 71
3
 72
9
 73
5
 74
0
 42
0.0000001
 43
0.0000001
 44
0.0000000001
 40
0.0
 40
0.0
 40
0.0
 40
0.0
 40
0.2338315643
 40
1.0
 40
1.0
 40
1.0
 40
1.0
 10
668.7793535256
 20
382.7046164006
 30
0.0
 10
668.7793535256
 20
382.0671481759
 30
0.0
 10
669.1973713726
 20
379.3563868984
 30
0.0
 10
670.7406188705
 20
376.8310056904
 30
0.0
 10
672.3354430082
 20
375.4822003264
 30
0.0
  0
SPLINE
  5
366
100
AcDbEntity
  8
0
100
AcDbSpline
 62
7
  6
CONTINUOUS
 70
0
 71
3
 72
9
 73
5
 74
0
 42
0.0000001
 43
0.0000001
 44
0.0000000001
 40
0.0
 40
0.0
 40
0.0
 40
0.0
 40
0.2896776676
 40
1.0
 40
1.0
 40
1.0
 40
1.0
 10
672.3354430082
 20
375.4822003264
 30
0.0
 10
672.6006162117
 20
375.2579329411
 30
0.0
 10
673.5540532671
 20
374.546759154
 30
0.0
 10
674.7705628556
 20
374.0668996306
 30
0.0
 10
675.6201961941
 20
374.1247795892
 30
0.0
  0
SPLINE
  5
367
100
AcDbEntity
  8
0
100
AcDbSpline
 62
7
  6
CONTINUOUS
 70
0
 71
3
 72
8
 73
4
 74
0
 42
0.0000001
 43
0.0000001
 44
0.0000000001
 40
0.0
 40
0.0
 40
0.0
 40
0.0
 40
1.0
 40
1.0
 40
1.0
 40
1.0
 10
918.7426501969
 20
1890.5841770024
 30
0.0
 10
918.7426501969
 20
1889.8495559641
 30
0.0
 10
918.6077948342
 20
1889.0701136608
 30
0.0
 10
918.2281070578
 20
1888.4412215696
 30
0.0
  0
SPLINE
  5
368
100
AcDbEntity
  8
0
100
AcDbSpline
 62
7
  6
CONTINUOUS
 70
0
 71
3
 72
9
 73
5
 74
0
 42
0.0000001
 43
0.0000001
 44
0.0000000001
 40
0.0
 40
0.0
 40
0.0
 40
0.0
 40
0.505405488
 40
1.0
 40
1.0
 40
1.0
 40
1.0
 10
918.2281070578
 20
1888.4412215696
 30
0.0
 10
918.1950136988
 20
1888.3864077119
 30
0.0
 10
918.1257150411
 20
1888.2802064414
 30
0.0
 10
918.0487952524
 20
1888.1793731771
 30
0.0
 10
918.00891094
 20
1888.131046634
 30
0.0
  0
SPLINE
  5
369
100
AcDbEntity
  8
0
100
AcDbSpline
 62
7
  6
CONTINUOUS
 70
0
 71
3
 72
8
 73
4
 74
0
 42
0.0000001
 43
0.0000001
 44
0.0000000001
 40
0.0
 40
0.0
 40
0.0
 40
0.0
 40
1.0
 40
1.0
 40
1.0
 40
1.0
 10
918.00891094
 20
1888.131046634
 30
0.0
 10
917.8381023556
 20
1887.9240833461
 30
0.0
 10
917.6286919378
 20
1887.7429446311
 30
0.0
 10
917.3963295817
 20
1887.6087168005
 30
0.0
  0
SPLINE
  5
36A
100
AcDbEntity
  8
0
100
AcDbSpline
 62
7
  6
CONTINUOUS
 70
0
 71
3
 72
8
 73
4
 74
0
 42
0.0000001
 43
0.0000001
 44
0.0000000001
 40
0.0
 40
0.0
 40
0.0
 40
0.0
 40
1.0
 40
1.0
 40
1.0
 40
1.0
 10
918.7426501969
 20
849.5435951622
 30
0.0
 10
918.7426501969
 20
848.8089741239
 30
0.0
 10
918.6077948342
 20
848.0295318206
 30
0.0
 10
918.2281070578
 20
847.4006397294
 30
0.0
  0
SPLINE
  5
36B
100
AcDbEntity
  8
0
100
AcDbSpline
 62
7
  6
CONTINUOUS
 70
0
 71
3
 72
9
 73
5
 74
0
 42
0.0000001
 43
0.0000001
 44
0.0000000001
 40
0.0
 40
0.0
 40
0.0
 40
0.0
 40
0.505405488
 40
1.0
 40
1.0
 40
1.0
 40
1.0
 10
918.2281070578
 20
847.4006397294
 30
0.0
 10
918.1950136988
 20
847.3458258717
 30
0.0
 10
918.1257150411
 20
847.2396246012
 30
0.0
 10
918.0487952524
 20
847.1387913368
 30
0.0
 10
918.00891094
 20
847.0904647938
 30
0.0
  0
SPLINE
  5
36C
100
AcDbEntity
  8
0
100
AcDbSpline
 62
7
  6
CONTINUOUS
 70
0
 71
3
 72
8
 73
4
 74
0
 42
0.0000001
 43
0.0000001
 44
0.0000000001
 40
0.0
 40
0.0
 40
0.0
 40
0.0
 40
1.0
 40
1.0
 40
1.0
 40
1.0
 10
918.00891094
 20
847.0904647938
 30
0.0
 10
917.8381023556
 20
846.8835015058
 30
0.0
 10
917.6286919378
 20
846.7023627909
 30
0.0
 10
917.3963295817
 20
846.5681349603
 30
0.0
  0
SPLINE
  5
36D
100
AcDbEntity
  8
0
100
AcDbSpline
 62
7
  6
CONTINUOUS
 70
0
 71
3
 72
8
 73
4
 74
0
 42
0.0000001
 43
0.0000001
 44
0.0000000001
 40
0.0
 40
0.0
 40
0.0
 40
0.0
 40
1.0
 40
1.0
 40
1.0
 40
1.0
 10
918.7426501969
 20
1278.2073641553
 30
0.0
 10
918.7426501969
 20
1277.472743117
 30
0.0
 10
918.6077948342
 20
1276.6933008136
 30
0.0
 10
918.2281070578
 20
1276.0644087224
 30
0.0
  0
SPLINE
  5
36E
100
AcDbEntity
  8
0
100
AcDbSpline
 62
7
  6
CONTINUOUS
 70
0
 71
3
 72
9
 73
5
 74
0
 42
0.0000001
 43
0.0000001
 44
0.0000000001
 40
0.0
 40
0.0
 40
0.0
 40
0.0
 40
0.505405488
 40
1.0
 40
1.0
 40
1.0
 40
1.0
 10
918.2281070578
 20
1276.0644087224
 30
0.0
 10
918.1950136988
 20
1276.0095948647
 30
0.0
 10
918.1257150411
 20
1275.9033935943
 30
0.0
 10
918.0487952524
 20
1275.8025603299
 30
0.0
 10
918.00891094
 20
1275.7542337868
 30
0.0
  0
SPLINE
  5
36F
100
AcDbEntity
  8
0
100
AcDbSpline
 62
7
  6
CONTINUOUS
 70
0
 71
3
 72
8
 73
4
 74
0
 42
0.0000001
 43
0.0000001
 44
0.0000000001
 40
0.0
 40
0.0
 40
0.0
 40
0.0
 40
1.0
 40
1.0
 40
1.0
 40
1.0
 10
918.00891094
 20
1275.7542337868
 30
0.0
 10
917.8381023556
 20
1275.5472704989
 30
0.0
 10
917.6286919378
 20
1275.3661317839
 30
0.0
 10
917.3963295817
 20
1275.2319039533
 30
0.0
  0
SPLINE
  5
370
100
AcDbEntity
  8
0
100
AcDbSpline
 62
7
  6
CONTINUOUS
 70
0
 71
3
 72
8
 73
4
 74
0
 42
0.0000001
 43
0.0000001
 44
0.0000000001
 40
0.0
 40
0.0
 40
0.0
 40
0.0
 40
1.0
 40
1.0
 40
1.0
 40
1.0
 10
918.7426501969
 20
237.166782315
 30
0.0
 10
918.7426501969
 20
236.4321612767
 30
0.0
 10
918.6077948342
 20
235.6527189734
 30
0.0
 10
918.2281070578
 20
235.0238268822
 30
0.0
  0
SPLINE
  5
371
100
AcDbEntity
  8
0
100
AcDbSpline
 62
7
  6
CONTINUOUS
 70
0
 71
3
 72
9
 73
5
 74
0
 42
0.0000001
 43
0.0000001
 44
0.0000000001
 40
0.0
 40
0.0
 40
0.0
 40
0.0
 40
0.505405488
 40
1.0
 40
1.0
 40
1.0
 40
1.0
 10
918.2281070578
 20
235.0238268822
 30
0.0
 10
918.1950136988
 20
234.9690130245
 30
0.0
 10
918.1257150411
 20
234.862811754
 30
0.0
 10
918.0487952524
 20
234.7619784897
 30
0.0
 10
918.00891094
 20
234.7136519466
 30
0.0
  0
SPLINE
  5
372
100
AcDbEntity
  8
0
100
AcDbSpline
 62
7
  6
CONTINUOUS
 70
0
 71
3
 72
8
 73
4
 74
0
 42
0.0000001
 43
0.0000001
 44
0.0000000001
 40
0.0
 40
0.0
 40
0.0
 40
0.0
 40
1.0
 40
1.0
 40
1.0
 40
1.0
 10
918.00891094
 20
234.7136519466
 30
0.0
 10
917.8381023556
 20
234.5066886587
 30
0.0
 10
917.6286919378
 20
234.3255499437
 30
0.0
 10
917.3963295817
 20
234.1913221131
 30
0.0
  0
SPLINE
  5
373
100
AcDbEntity
  8
0
100
AcDbSpline
 62
7
  6
CONTINUOUS
 70
0
 71
3
 72
8
 73
4
 74
0
 42
0.0000001
 43
0.0000001
 44
0.0000000001
 40
0.0
 40
0.0
 40
0.0
 40
0.0
 40
1.0
 40
1.0
 40
1.0
 40
1.0
 10
676.9111241967
 20
2030.2025150484
 30
0.0
 10
676.9111241967
 20
2029.4678940101
 30
0.0
 10
676.776268834
 20
2028.6884517067
 30
0.0
 10
676.3965810576
 20
2028.0595596155
 30
0.0
  0
SPLINE
  5
374
100
AcDbEntity
  8
0
100
AcDbSpline
 62
7
  6
CONTINUOUS
 70
0
 71
3
 72
9
 73
5
 74
0
 42
0.0000001
 43
0.0000001
 44
0.0000000001
 40
0.0
 40
0.0
 40
0.0
 40
0.0
 40
0.505405488
 40
1.0
 40
1.0
 40
1.0
 40
1.0
 10
676.3965810576
 20
2028.0595596155
 30
0.0
 10
676.3634876986
 20
2028.0047457579
 30
0.0
 10
676.2941890408
 20
2027.8985444874
 30
0.0
 10
676.2172692521
 20
2027.797711223
 30
0.0
 10
676.1773849398
 20
2027.7493846799
 30
0.0
  0
SPLINE
  5
375
100
AcDbEntity
  8
0
100
AcDbSpline
 62
7
  6
CONTINUOUS
 70
0
 71
3
 72
8
 73
4
 74
0
 42
0.0000001
 43
0.0000001
 44
0.0000000001
 40
0.0
 40
0.0
 40
0.0
 40
0.0
 40
1.0
 40
1.0
 40
1.0
 40
1.0
 10
676.1773849398
 20
2027.7493846799
 30
0.0
 10
676.0065763553
 20
2027.542421392
 30
0.0
 10
675.7971659376
 20
2027.361282677
 30
0.0
 10
675.5648035814
 20
2027.2270548465
 30
0.0
  0
SPLINE
  5
376
100
AcDbEntity
  8
0
100
AcDbSpline
 62
7
  6
CONTINUOUS
 70
0
 71
3
 72
8
 73
4
 74
0
 42
0.0000001
 43
0.0000001
 44
0.0000000001
 40
0.0
 40
0.0
 40
0.0
 40
0.0
 40
1.0
 40
1.0
 40
1.0
 40
1.0
 10
676.9111241967
 20
989.1619332082
 30
0.0
 10
676.9111241967
 20
988.4273121699
 30
0.0
 10
676.776268834
 20
987.6478698665
 30
0.0
 10
676.3965810576
 20
987.0189777753
 30
0.0
  0
SPLINE
  5
377
100
AcDbEntity
  8
0
100
AcDbSpline
 62
7
  6
CONTINUOUS
 70
0
 71
3
 72
9
 73
5
 74
0
 42
0.0000001
 43
0.0000001
 44
0.0000000001
 40
0.0
 40
0.0
 40
0.0
 40
0.0
 40
0.505405488
 40
1.0
 40
1.0
 40
1.0
 40
1.0
 10
676.3965810576
 20
987.0189777753
 30
0.0
 10
676.3634876986
 20
986.9641639177
 30
0.0
 10
676.2941890408
 20
986.8579626472
 30
0.0
 10
676.2172692521
 20
986.7571293828
 30
0.0
 10
676.1773849398
 20
986.7088028397
 30
0.0
  0
SPLINE
  5
378
100
AcDbEntity
  8
0
100
AcDbSpline
 62
7
  6
CONTINUOUS
 70
0
 71
3
 72
8
 73
4
 74
0
 42
0.0000001
 43
0.0000001
 44
0.0000000001
 40
0.0
 40
0.0
 40
0.0
 40
0.0
 40
1.0
 40
1.0
 40
1.0
 40
1.0
 10
676.1773849398
 20
986.7088028397
 30
0.0
 10
676.0065763553
 20
986.5018395518
 30
0.0
 10
675.7971659376
 20
986.3207008368
 30
0.0
 10
675.5648035814
 20
986.1864730063
 30
0.0
  0
SPLINE
  5
379
100
AcDbEntity
  8
0
100
AcDbSpline
 62
7
  6
CONTINUOUS
 70
0
 71
3
 72
8
 73
4
 74
0
 42
0.0000001
 43
0.0000001
 44
0.0000000001
 40
0.0
 40
0.0
 40
0.0
 40
0.0
 40
1.0
 40
1.0
 40
1.0
 40
1.0
 10
676.9111241967
 20
1417.8257022012
 30
0.0
 10
676.9111241967
 20
1417.0910811629
 30
0.0
 10
676.776268834
 20
1416.3116388595
 30
0.0
 10
676.3965810576
 20
1415.6827467684
 30
0.0
  0
SPLINE
  5
37A
100
AcDbEntity
  8
0
100
AcDbSpline
 62
7
  6
CONTINUOUS
 70
0
 71
3
 72
9
 73
5
 74
0
 42
0.0000001
 43
0.0000001
 44
0.0000000001
 40
0.0
 40
0.0
 40
0.0
 40
0.0
 40
0.505405488
 40
1.0
 40
1.0
 40
1.0
 40
1.0
 10
676.3965810576
 20
1415.6827467684
 30
0.0
 10
676.3634876986
 20
1415.6279329107
 30
0.0
 10
676.2941890408
 20
1415.5217316402
 30
0.0
 10
676.2172692521
 20
1415.4208983758
 30
0.0
 10
676.1773849398
 20
1415.3725718327
 30
0.0
  0
SPLINE
  5
37B
100
AcDbEntity
  8
0
100
AcDbSpline
 62
7
  6
CONTINUOUS
 70
0
 71
3
 72
8
 73
4
 74
0
 42
0.0000001
 43
0.0000001
 44
0.0000000001
 40
0.0
 40
0.0
 40
0.0
 40
0.0
 40
1.0
 40
1.0
 40
1.0
 40
1.0
 10
676.1773849398
 20
1415.3725718327
 30
0.0
 10
676.0065763553
 20
1415.1656085448
 30
0.0
 10
675.7971659376
 20
1414.9844698299
 30
0.0
 10
675.5648035814
 20
1414.8502419993
 30
0.0
  0
SPLINE
  5
37C
100
AcDbEntity
  8
0
100
AcDbSpline
 62
7
  6
CONTINUOUS
 70
0
 71
3
 72
8
 73
4
 74
0
 42
0.0000001
 43
0.0000001
 44
0.0000000001
 40
0.0
 40
0.0
 40
0.0
 40
0.0
 40
1.0
 40
1.0
 40
1.0
 40
1.0
 10
676.9111241967
 20
376.785120361
 30
0.0
 10
676.9111241967
 20
376.0504993227
 30
0.0
 10
676.776268834
 20
375.2710570193
 30
0.0
 10
676.3965810576
 20
374.6421649281
 30
0.0
  0
SPLINE
  5
37D
100
AcDbEntity
  8
0
100
AcDbSpline
 62
7
  6
CONTINUOUS
 70
0
 71
3
 72
9
 73
5
 74
0
 42
0.0000001
 43
0.0000001
 44
0.0000000001
 40
0.0
 40
0.0
 40
0.0
 40
0.0
 40
0.505405488
 40
1.0
 40
1.0
 40
1.0
 40
1.0
 10
676.3965810576
 20
374.6421649281
 30
0.0
 10
676.3634876986
 20
374.5873510705
 30
0.0
 10
676.2941890408
 20
374.4811498
 30
0.0
 10
676.2172692521
 20
374.3803165356
 30
0.0
 10
676.1773849398
 20
374.3319899925
 30
0.0
  0
SPLINE
  5
37E
100
AcDbEntity
  8
0
100
AcDbSpline
 62
7
  6
CONTINUOUS
 70
0
 71
3
 72
8
 73
4
 74
0
 42
0.0000001
 43
0.0000001
 44
0.0000000001
 40
0.0
 40
0.0
 40
0.0
 40
0.0
 40
1.0
 40
1.0
 40
1.0
 40
1.0
 10
676.1773849398
 20
374.3319899925
 30
0.0
 10
676.0065763553
 20
374.1250267046
 30
0.0
 10
675.7971659376
 20
373.9438879896
 30
0.0
 10
675.5648035814
 20
373.8096601591
 30
0.0
  0
SPLINE
  5
37F
100
AcDbEntity
  8
0
100
AcDbSpline
 62
7
  6
CONTINUOUS
 70
0
 71
3
 72
8
 73
4
 74
0
 42
0.0000001
 43
0.0000001
 44
0.0000000001
 40
0.0
 40
0.0
 40
0.0
 40
0.0
 40
1.0
 40
1.0
 40
1.0
 40
1.0
 10
924.9055177299
 20
178.3096725085
 30
0.0
 10
924.5078591351
 20
178.1068456633
 30
0.0
 10
924.000555488
 20
178.0855446888
 30
0.0
 10
923.5704245752
 20
178.2049535871
 30
0.0
  0
SPLINE
  5
380
100
AcDbEntity
  8
0
100
AcDbSpline
 62
7
  6
CONTINUOUS
 70
0
 71
3
 72
8
 73
4
 74
0
 42
0.0000001
 43
0.0000001
 44
0.0000000001
 40
0.0
 40
0.0
 40
0.0
 40
0.0
 40
1.0
 40
1.0
 40
1.0
 40
1.0
 10
923.5704245752
 20
178.2049535871
 30
0.0
 10
923.3046619517
 20
178.2787321069
 30
0.0
 10
923.048733285
 20
178.3928359471
 30
0.0
 10
922.8096715122
 20
178.5303950645
 30
0.0
  0
SPLINE
  5
381
100
AcDbEntity
  8
0
100
AcDbSpline
 62
7
  6
CONTINUOUS
 70
0
 71
3
 72
8
 73
4
 74
0
 42
0.0000001
 43
0.0000001
 44
0.0000000001
 40
0.0
 40
0.0
 40
0.0
 40
0.0
 40
1.0
 40
1.0
 40
1.0
 40
1.0
 10
664.9112277497
 20
2094.8504414519
 30
0.0
 10
664.9111516333
 20
2093.8314529527
 30
0.0
 10
665.2153995624
 20
2092.7642846512
 30
0.0
 10
665.7893519976
 20
2091.9223130547
 30
0.0
  0
SPLINE
  5
382
100
AcDbEntity
  8
0
100
AcDbSpline
 62
7
  6
CONTINUOUS
 70
0
 71
3
 72
8
 73
4
 74
0
 42
0.0000001
 43
0.0000001
 44
0.0000000001
 40
0.0
 40
0.0
 40
0.0
 40
0.0
 40
1.0
 40
1.0
 40
1.0
 40
1.0
 10
675.5648035814
 20
2027.2270548465
 30
0.0
 10
674.925691498
 20
2026.8578615319
 30
0.0
 10
674.060233075
 20
2026.8683639458
 30
0.0
 10
673.355034714
 20
2027.0862245213
 30
0.0
  0
SPLINE
  5
383
100
AcDbEntity
  8
0
100
AcDbSpline
 62
7
  6
CONTINUOUS
 70
0
 71
3
 72
9
 73
5
 74
0
 42
0.0000001
 43
0.0000001
 44
0.0000000001
 40
0.0
 40
0.0
 40
0.0
 40
0.0
 40
0.2168295645
 40
1.0
 40
1.0
 40
1.0
 40
1.0
 10
673.355034714
 20
2027.0862245213
 30
0.0
 10
672.8084569664
 20
2027.2550816107
 30
0.0
 10
670.457727965
 20
2028.5352973319
 30
0.0
 10
668.862330921
 20
2030.9316606567
 30
0.0
 10
668.1934445769
 20
2032.8866559715
 30
0.0
  0
SPLINE
  5
384
100
AcDbEntity
  8
0
100
AcDbSpline
 62
7
  6
CONTINUOUS
 70
0
 71
3
 72
8
 73
4
 74
0
 42
0.0000001
 43
0.0000001
 44
0.0000000001
 40
0.0
 40
0.0
 40
0.0
 40
0.0
 40
1.0
 40
1.0
 40
1.0
 40
1.0
 10
668.1934445769
 20
2032.8866559715
 30
0.0
 10
667.9058088615
 20
2033.7273465925
 30
0.0
 10
667.7186977698
 20
2034.6211095314
 30
0.0
 10
667.7186977698
 20
2035.5096448571
 30
0.0
  0
SPLINE
  5
385
100
AcDbEntity
  8
0
100
AcDbSpline
 62
7
  6
CONTINUOUS
 70
0
 71
3
 72
8
 73
4
 74
0
 42
0.0000001
 43
0.0000001
 44
0.0000000001
 40
0.0
 40
0.0
 40
0.0
 40
0.0
 40
1.0
 40
1.0
 40
1.0
 40
1.0
 10
922.8096715122
 20
178.5303950645
 30
0.0
 10
921.9184854771
 20
179.0431945932
 30
0.0
 10
921.2502643597
 20
179.9039485014
 30
0.0
 10
920.6719959693
 20
180.7541141174
 30
0.0
  0
SPLINE
  5
386
100
AcDbEntity
  8
0
100
AcDbSpline
 62
7
  6
CONTINUOUS
 70
0
 71
3
 72
8
 73
4
 74
0
 42
0.0000001
 43
0.0000001
 44
0.0000000001
 40
0.0
 40
0.0
 40
0.0
 40
0.0
 40
1.0
 40
1.0
 40
1.0
 40
1.0
 10
675.5648035814
 20
373.8096601591
 30
0.0
 10
674.925691498
 20
373.4404668445
 30
0.0
 10
674.060233075
 20
373.4509692585
 30
0.0
 10
673.355034714
 20
373.6688298339
 30
0.0
  0
SPLINE
  5
387
100
AcDbEntity
  8
0
100
AcDbSpline
 62
7
  6
CONTINUOUS
 70
0
 71
3
 72
9
 73
5
 74
0
 42
0.0000001
 43
0.0000001
 44
0.0000000001
 40
0.0
 40
0.0
 40
0.0
 40
0.0
 40
0.2168295645
 40
1.0
 40
1.0
 40
1.0
 40
1.0
 10
673.355034714
 20
373.6688298339
 30
0.0
 10
672.8084569664
 20
373.8376869233
 30
0.0
 10
670.457727965
 20
375.1179026445
 30
0.0
 10
668.862330921
 20
377.5142659693
 30
0.0
 10
668.1934445769
 20
379.4692612841
 30
0.0
  0
SPLINE
  5
388
100
AcDbEntity
  8
0
100
AcDbSpline
 62
7
  6
CONTINUOUS
 70
0
 71
3
 72
8
 73
4
 74
0
 42
0.0000001
 43
0.0000001
 44
0.0000000001
 40
0.0
 40
0.0
 40
0.0
 40
0.0
 40
1.0
 40
1.0
 40
1.0
 40
1.0
 10
668.1934445769
 20
379.4692612841
 30
0.0
 10
667.9058088615
 20
380.3099519051
 30
0.0
 10
667.7186977698
 20
381.203714844
 30
0.0
 10
667.7186977698
 20
382.0922501697
 30
0.0
  0
SPLINE
  5
389
100
AcDbEntity
  8
0
100
AcDbSpline
 62
7
  6
CONTINUOUS
 70
0
 71
3
 72
8
 73
4
 74
0
 42
0.0000001
 43
0.0000001
 44
0.0000000001
 40
0.0
 40
0.0
 40
0.0
 40
0.0
 40
1.0
 40
1.0
 40
1.0
 40
1.0
 10
917.3963295817
 20
234.1913221131
 30
0.0
 10
916.7572174983
 20
233.8221287986
 30
0.0
 10
915.8917590752
 20
233.8326312125
 30
0.0
 10
915.1865607143
 20
234.050491788
 30
0.0
  0
SPLINE
  5
38A
100
AcDbEntity
  8
0
100
AcDbSpline
 62
7
  6
CONTINUOUS
 70
0
 71
3
 72
9
 73
5
 74
0
 42
0.0000001
 43
0.0000001
 44
0.0000000001
 40
0.0
 40
0.0
 40
0.0
 40
0.0
 40
0.2168295645
 40
1.0
 40
1.0
 40
1.0
 40
1.0
 10
915.1865607143
 20
234.050491788
 30
0.0
 10
914.6399829667
 20
234.2193488773
 30
0.0
 10
912.2892539653
 20
235.4995645986
 30
0.0
 10
910.6938569212
 20
237.8959279233
 30
0.0
 10
910.0249705772
 20
239.8509232381
 30
0.0
  0
SPLINE
  5
38B
100
AcDbEntity
  8
0
100
AcDbSpline
 62
7
  6
CONTINUOUS
 70
0
 71
3
 72
8
 73
4
 74
0
 42
0.0000001
 43
0.0000001
 44
0.0000000001
 40
0.0
 40
0.0
 40
0.0
 40
0.0
 40
1.0
 40
1.0
 40
1.0
 40
1.0
 10
910.0249705772
 20
239.8509232381
 30
0.0
 10
909.7373348618
 20
240.6916138592
 30
0.0
 10
909.55022377
 20
241.5853767981
 30
0.0
 10
909.55022377
 20
242.4739121238
 30
0.0
  0
SPLINE
  5
38C
100
AcDbEntity
  8
0
100
AcDbSpline
 62
7
  6
CONTINUOUS
 70
0
 71
3
 72
8
 73
4
 74
0
 42
0.0000001
 43
0.0000001
 44
0.0000000001
 40
0.0
 40
0.0
 40
0.0
 40
0.0
 40
1.0
 40
1.0
 40
1.0
 40
1.0
 10
909.55022377
 20
1895.8913068112
 30
0.0
 10
909.55022377
 20
1896.597096354
 30
0.0
 10
909.6743044434
 20
1897.3403318904
 30
0.0
 10
910.0192813754
 20
1897.9560670568
 30
0.0
  0
SPLINE
  5
38D
100
AcDbEntity
  8
0
100
AcDbSpline
 62
7
  6
CONTINUOUS
 70
0
 71
3
 72
8
 73
4
 74
0
 42
0.0000001
 43
0.0000001
 44
0.0000000001
 40
0.0
 40
0.0
 40
0.0
 40
0.0
 40
1.0
 40
1.0
 40
1.0
 40
1.0
 10
910.0192813754
 20
1897.9560670568
 30
0.0
 10
910.2253031068
 20
1898.3237867892
 30
0.0
 10
910.5315640655
 20
1898.6559302952
 30
0.0
 10
910.8965443853
 20
1898.8667670131
 30
0.0
  0
SPLINE
  5
38E
100
AcDbEntity
  8
0
100
AcDbSpline
 62
7
  6
CONTINUOUS
 70
0
 71
3
 72
8
 73
4
 74
0
 42
0.0000001
 43
0.0000001
 44
0.0000000001
 40
0.0
 40
0.0
 40
0.0
 40
0.0
 40
1.0
 40
1.0
 40
1.0
 40
1.0
 10
909.55022377
 20
854.850724971
 30
0.0
 10
909.55022377
 20
855.5565145138
 30
0.0
 10
909.6743044434
 20
856.2997500502
 30
0.0
 10
910.0192813754
 20
856.9154852166
 30
0.0
  0
SPLINE
  5
38F
100
AcDbEntity
  8
0
100
AcDbSpline
 62
7
  6
CONTINUOUS
 70
0
 71
3
 72
8
 73
4
 74
0
 42
0.0000001
 43
0.0000001
 44
0.0000000001
 40
0.0
 40
0.0
 40
0.0
 40
0.0
 40
1.0
 40
1.0
 40
1.0
 40
1.0
 10
910.0192813754
 20
856.9154852166
 30
0.0
 10
910.2253031069
 20
857.283204949
 30
0.0
 10
910.5315640655
 20
857.615348455
 30
0.0
 10
910.8965443853
 20
857.8261851729
 30
0.0
  0
SPLINE
  5
390
100
AcDbEntity
  8
0
100
AcDbSpline
 62
7
  6
CONTINUOUS
 70
0
 71
3
 72
8
 73
4
 74
0
 42
0.0000001
 43
0.0000001
 44
0.0000000001
 40
0.0
 40
0.0
 40
0.0
 40
0.0
 40
1.0
 40
1.0
 40
1.0
 40
1.0
 10
909.55022377
 20
1283.514493964
 30
0.0
 10
909.55022377
 20
1284.2202835069
 30
0.0
 10
909.6743044434
 20
1284.9635190432
 30
0.0
 10
910.0192813754
 20
1285.5792542096
 30
0.0
  0
SPLINE
  5
391
100
AcDbEntity
  8
0
100
AcDbSpline
 62
7
  6
CONTINUOUS
 70
0
 71
3
 72
8
 73
4
 74
0
 42
0.0000001
 43
0.0000001
 44
0.0000000001
 40
0.0
 40
0.0
 40
0.0
 40
0.0
 40
1.0
 40
1.0
 40
1.0
 40
1.0
 10
910.0192813754
 20
1285.5792542096
 30
0.0
 10
910.2253031068
 20
1285.946973942
 30
0.0
 10
910.5315640655
 20
1286.2791174481
 30
0.0
 10
910.8965443853
 20
1286.4899541659
 30
0.0
  0
SPLINE
  5
392
100
AcDbEntity
  8
0
100
AcDbSpline
 62
7
  6
CONTINUOUS
 70
0
 71
3
 72
8
 73
4
 74
0
 42
0.0000001
 43
0.0000001
 44
0.0000000001
 40
0.0
 40
0.0
 40
0.0
 40
0.0
 40
1.0
 40
1.0
 40
1.0
 40
1.0
 10
909.55022377
 20
242.4739121238
 30
0.0
 10
909.55022377
 20
243.1797016666
 30
0.0
 10
909.6743044434
 20
243.922937203
 30
0.0
 10
910.0192813754
 20
244.5386723694
 30
0.0
  0
SPLINE
  5
393
100
AcDbEntity
  8
0
100
AcDbSpline
 62
7
  6
CONTINUOUS
 70
0
 71
3
 72
8
 73
4
 74
0
 42
0.0000001
 43
0.0000001
 44
0.0000000001
 40
0.0
 40
0.0
 40
0.0
 40
0.0
 40
1.0
 40
1.0
 40
1.0
 40
1.0
 10
910.0192813754
 20
244.5386723694
 30
0.0
 10
910.2253031069
 20
244.9063921018
 30
0.0
 10
910.5315640655
 20
245.2385356078
 30
0.0
 10
910.8965443853
 20
245.4493723257
 30
0.0
  0
SPLINE
  5
394
100
AcDbEntity
  8
0
100
AcDbSpline
 62
7
  6
CONTINUOUS
 70
0
 71
3
 72
8
 73
4
 74
0
 42
0.0000001
 43
0.0000001
 44
0.0000000001
 40
0.0
 40
0.0
 40
0.0
 40
0.0
 40
1.0
 40
1.0
 40
1.0
 40
1.0
 10
667.7186977698
 20
2035.5096448571
 30
0.0
 10
667.7186977698
 20
2036.2154344
 30
0.0
 10
667.8427784431
 20
2036.9586699363
 30
0.0
 10
668.1877553751
 20
2037.5744051028
 30
0.0
  0
SPLINE
  5
395
100
AcDbEntity
  8
0
100
AcDbSpline
 62
7
  6
CONTINUOUS
 70
0
 71
3
 72
8
 73
4
 74
0
 42
0.0000001
 43
0.0000001
 44
0.0000000001
 40
0.0
 40
0.0
 40
0.0
 40
0.0
 40
1.0
 40
1.0
 40
1.0
 40
1.0
 10
668.1877553751
 20
2037.5744051028
 30
0.0
 10
668.3937771066
 20
2037.9421248352
 30
0.0
 10
668.7000380652
 20
2038.2742683412
 30
0.0
 10
669.065018385
 20
2038.4851050591
 30
0.0
  0
SPLINE
  5
396
100
AcDbEntity
  8
0
100
AcDbSpline
 62
7
  6
CONTINUOUS
 70
0
 71
3
 72
8
 73
4
 74
0
 42
0.0000001
 43
0.0000001
 44
0.0000000001
 40
0.0
 40
0.0
 40
0.0
 40
0.0
 40
1.0
 40
1.0
 40
1.0
 40
1.0
 10
917.3963295817
 20
1887.6087168005
 30
0.0
 10
916.7572174983
 20
1887.239523486
 30
0.0
 10
915.8917590752
 20
1887.2500258999
 30
0.0
 10
915.1865607143
 20
1887.4678864754
 30
0.0
  0
SPLINE
  5
397
100
AcDbEntity
  8
0
100
AcDbSpline
 62
7
  6
CONTINUOUS
 70
0
 71
3
 72
9
 73
5
 74
0
 42
0.0000001
 43
0.0000001
 44
0.0000000001
 40
0.0
 40
0.0
 40
0.0
 40
0.0
 40
0.2168295645
 40
1.0
 40
1.0
 40
1.0
 40
1.0
 10
915.1865607143
 20
1887.4678864754
 30
0.0
 10
914.6399829667
 20
1887.6367435647
 30
0.0
 10
912.2892539653
 20
1888.916959286
 30
0.0
 10
910.6938569212
 20
1891.3133226107
 30
0.0
 10
910.0249705772
 20
1893.2683179255
 30
0.0
  0
SPLINE
  5
398
100
AcDbEntity
  8
0
100
AcDbSpline
 62
7
  6
CONTINUOUS
 70
0
 71
3
 72
8
 73
4
 74
0
 42
0.0000001
 43
0.0000001
 44
0.0000000001
 40
0.0
 40
0.0
 40
0.0
 40
0.0
 40
1.0
 40
1.0
 40
1.0
 40
1.0
 10
910.0249705772
 20
1893.2683179255
 30
0.0
 10
909.7373348618
 20
1894.1090085466
 30
0.0
 10
909.55022377
 20
1895.0027714855
 30
0.0
 10
909.55022377
 20
1895.8913068112
 30
0.0
  0
SPLINE
  5
399
100
AcDbEntity
  8
0
100
AcDbSpline
 62
7
  6
CONTINUOUS
 70
0
 71
3
 72
8
 73
4
 74
0
 42
0.0000001
 43
0.0000001
 44
0.0000000001
 40
0.0
 40
0.0
 40
0.0
 40
0.0
 40
1.0
 40
1.0
 40
1.0
 40
1.0
 10
667.7186977698
 20
994.4690630169
 30
0.0
 10
667.7186977698
 20
995.1748525598
 30
0.0
 10
667.8427784431
 20
995.9180880961
 30
0.0
 10
668.1877553751
 20
996.5338232625
 30
0.0
  0
SPLINE
  5
39A
100
AcDbEntity
  8
0
100
AcDbSpline
 62
7
  6
CONTINUOUS
 70
0
 71
3
 72
8
 73
4
 74
0
 42
0.0000001
 43
0.0000001
 44
0.0000000001
 40
0.0
 40
0.0
 40
0.0
 40
0.0
 40
1.0
 40
1.0
 40
1.0
 40
1.0
 10
668.1877553751
 20
996.5338232625
 30
0.0
 10
668.3937771066
 20
996.9015429949
 30
0.0
 10
668.7000380652
 20
997.233686501
 30
0.0
 10
669.065018385
 20
997.4445232188
 30
0.0
  0
SPLINE
  5
39B
100
AcDbEntity
  8
0
100
AcDbSpline
 62
7
  6
CONTINUOUS
 70
0
 71
3
 72
8
 73
4
 74
0
 42
0.0000001
 43
0.0000001
 44
0.0000000001
 40
0.0
 40
0.0
 40
0.0
 40
0.0
 40
1.0
 40
1.0
 40
1.0
 40
1.0
 10
667.7186977698
 20
1423.13283201
 30
0.0
 10
667.7186977698
 20
1423.8386215528
 30
0.0
 10
667.8427784431
 20
1424.5818570892
 30
0.0
 10
668.1877553751
 20
1425.1975922556
 30
0.0
  0
SPLINE
  5
39C
100
AcDbEntity
  8
0
100
AcDbSpline
 62
7
  6
CONTINUOUS
 70
0
 71
3
 72
8
 73
4
 74
0
 42
0.0000001
 43
0.0000001
 44
0.0000000001
 40
0.0
 40
0.0
 40
0.0
 40
0.0
 40
1.0
 40
1.0
 40
1.0
 40
1.0
 10
668.1877553751
 20
1425.1975922556
 30
0.0
 10
668.3937771066
 20
1425.565311988
 30
0.0
 10
668.7000380652
 20
1425.897455494
 30
0.0
 10
669.065018385
 20
1426.1082922119
 30
0.0
  0
SPLINE
  5
39D
100
AcDbEntity
  8
0
100
AcDbSpline
 62
7
  6
CONTINUOUS
 70
0
 71
3
 72
8
 73
4
 74
0
 42
0.0000001
 43
0.0000001
 44
0.0000000001
 40
0.0
 40
0.0
 40
0.0
 40
0.0
 40
1.0
 40
1.0
 40
1.0
 40
1.0
 10
667.7186977698
 20
382.0922501697
 30
0.0
 10
667.7186977698
 20
382.7980397126
 30
0.0
 10
667.8427784431
 20
383.5412752489
 30
0.0
 10
668.1877553751
 20
384.1570104154
 30
0.0
  0
SPLINE
  5
39E
100
AcDbEntity
  8
0
100
AcDbSpline
 62
7
  6
CONTINUOUS
 70
0
 71
3
 72
8
 73
4
 74
0
 42
0.0000001
 43
0.0000001
 44
0.0000000001
 40
0.0
 40
0.0
 40
0.0
 40
0.0
 40
1.0
 40
1.0
 40
1.0
 40
1.0
 10
668.1877553751
 20
384.1570104154
 30
0.0
 10
668.3937771066
 20
384.5247301478
 30
0.0
 10
668.7000380652
 20
384.8568736538
 30
0.0
 10
669.065018385
 20
385.0677103717
 30
0.0
  0
SPLINE
  5
39F
100
AcDbEntity
  8
0
100
AcDbSpline
 62
7
  6
CONTINUOUS
 70
0
 71
3
 72
9
 73
5
 74
0
 42
0.0000001
 43
0.0000001
 44
0.0000000001
 40
0.0
 40
0.0
 40
0.0
 40
0.0
 40
0.4411767711
 40
1.0
 40
1.0
 40
1.0
 40
1.0
 10
920.6719959693
 20
1944.7690749208
 30
0.0
 10
921.3570503813
 20
1944.9867153672
 30
0.0
 10
922.6790597412
 20
1946.0088482069
 30
0.0
 10
924.1401565036
 20
1946.7184804853
 30
0.0
 10
924.9055177299
 20
1947.2116169046
 30
0.0
  0
SPLINE
  5
3A0
100
AcDbEntity
  8
0
100
AcDbSpline
 62
7
  6
CONTINUOUS
 70
0
 71
3
 72
9
 73
5
 74
0
 42
0.0000001
 43
0.0000001
 44
0.0000000001
 40
0.0
 40
0.0
 40
0.0
 40
0.0
 40
0.4619920696
 40
1.0
 40
1.0
 40
1.0
 40
1.0
 10
925.3323713726
 20
1947.4711049592
 30
0.0
 10
925.2665464191
 20
1947.4312936366
 30
0.0
 10
925.1247555336
 20
1947.3439883809
 30
0.0
 10
924.9824706684
 20
1947.2574837763
 30
0.0
 10
924.9055177299
 20
1947.2116169046
 30
0.0
  0
SPLINE
  5
3A1
100
AcDbEntity
  8
0
100
AcDbSpline
 62
7
  6
CONTINUOUS
 70
0
 71
3
 72
8
 73
4
 74
0
 42
0.0000001
 43
0.0000001
 44
0.0000000001
 40
0.0
 40
0.0
 40
0.0
 40
0.0
 40
1.0
 40
1.0
 40
1.0
 40
1.0
 10
675.5648035814
 20
986.1864730063
 30
0.0
 10
674.925691498
 20
985.8172796917
 30
0.0
 10
674.060233075
 20
985.8277821056
 30
0.0
 10
673.355034714
 20
986.0456426811
 30
0.0
  0
SPLINE
  5
3A2
100
AcDbEntity
  8
0
100
AcDbSpline
 62
7
  6
CONTINUOUS
 70
0
 71
3
 72
9
 73
5
 74
0
 42
0.0000001
 43
0.0000001
 44
0.0000000001
 40
0.0
 40
0.0
 40
0.0
 40
0.0
 40
0.2168295645
 40
1.0
 40
1.0
 40
1.0
 40
1.0
 10
673.355034714
 20
986.0456426811
 30
0.0
 10
672.8084569664
 20
986.2144997705
 30
0.0
 10
670.457727965
 20
987.4947154917
 30
0.0
 10
668.862330921
 20
989.8910788165
 30
0.0
 10
668.1934445769
 20
991.8460741313
 30
0.0
  0
SPLINE
  5
3A3
100
AcDbEntity
  8
0
100
AcDbSpline
 62
7
  6
CONTINUOUS
 70
0
 71
3
 72
8
 73
4
 74
0
 42
0.0000001
 43
0.0000001
 44
0.0000000001
 40
0.0
 40
0.0
 40
0.0
 40
0.0
 40
1.0
 40
1.0
 40
1.0
 40
1.0
 10
668.1934445769
 20
991.8460741313
 30
0.0
 10
667.9058088615
 20
992.6867647523
 30
0.0
 10
667.7186977698
 20
993.5805276912
 30
0.0
 10
667.7186977698
 20
994.4690630169
 30
0.0
  0
SPLINE
  5
3A4
100
AcDbEntity
  8
0
100
AcDbSpline
 62
7
  6
CONTINUOUS
 70
0
 71
3
 72
8
 73
4
 74
0
 42
0.0000001
 43
0.0000001
 44
0.0000000001
 40
0.0
 40
0.0
 40
0.0
 40
0.0
 40
1.0
 40
1.0
 40
1.0
 40
1.0
 10
917.3963295817
 20
1275.2319039533
 30
0.0
 10
916.7572174983
 20
1274.8627106388
 30
0.0
 10
915.8917590752
 20
1274.8732130527
 30
0.0
 10
915.1865607143
 20
1275.0910736282
 30
0.0
  0
SPLINE
  5
3A5
100
AcDbEntity
  8
0
100
AcDbSpline
 62
7
  6
CONTINUOUS
 70
0
 71
3
 72
9
 73
5
 74
0
 42
0.0000001
 43
0.0000001
 44
0.0000000001
 40
0.0
 40
0.0
 40
0.0
 40
0.0
 40
0.2168295645
 40
1.0
 40
1.0
 40
1.0
 40
1.0
 10
915.1865607143
 20
1275.0910736282
 30
0.0
 10
914.6399829667
 20
1275.2599307176
 30
0.0
 10
912.2892539653
 20
1276.5401464388
 30
0.0
 10
910.6938569212
 20
1278.9365097635
 30
0.0
 10
910.0249705772
 20
1280.8915050784
 30
0.0
  0
SPLINE
  5
3A6
100
AcDbEntity
  8
0
100
AcDbSpline
 62
7
  6
CONTINUOUS
 70
0
 71
3
 72
8
 73
4
 74
0
 42
0.0000001
 43
0.0000001
 44
0.0000000001
 40
0.0
 40
0.0
 40
0.0
 40
0.0
 40
1.0
 40
1.0
 40
1.0
 40
1.0
 10
910.0249705772
 20
1280.8915050784
 30
0.0
 10
909.7373348618
 20
1281.7321956994
 30
0.0
 10
909.55022377
 20
1282.6259586383
 30
0.0
 10
909.55022377
 20
1283.514493964
 30
0.0
  0
SPLINE
  5
3A7
100
AcDbEntity
  8
0
100
AcDbSpline
 62
7
  6
CONTINUOUS
 70
0
 71
3
 72
8
 73
4
 74
0
 42
0.0000001
 43
0.0000001
 44
0.0000000001
 40
0.0
 40
0.0
 40
0.0
 40
0.0
 40
1.0
 40
1.0
 40
1.0
 40
1.0
 10
931.8025355382
 20
1915.6597875381
 30
0.0
 10
932.0116304844
 20
1915.8529805884
 30
0.0
 10
932.1824233146
 20
1916.1399590436
 30
0.0
 10
932.1825306767
 20
1916.4246417437
 30
0.0
  0
SPLINE
  5
3A8
100
AcDbEntity
  8
0
100
AcDbSpline
 62
7
  6
CONTINUOUS
 70
0
 71
3
 72
8
 73
4
 74
0
 42
0.0000001
 43
0.0000001
 44
0.0000000001
 40
0.0
 40
0.0
 40
0.0
 40
0.0
 40
1.0
 40
1.0
 40
1.0
 40
1.0
 10
675.5648035814
 20
1414.8502419993
 30
0.0
 10
674.925691498
 20
1414.4810486847
 30
0.0
 10
674.060233075
 20
1414.4915510987
 30
0.0
 10
673.355034714
 20
1414.7094116742
 30
0.0
  0
SPLINE
  5
3A9
100
AcDbEntity
  8
0
100
AcDbSpline
 62
7
  6
CONTINUOUS
 70
0
 71
3
 72
9
 73
5
 74
0
 42
0.0000001
 43
0.0000001
 44
0.0000000001
 40
0.0
 40
0.0
 40
0.0
 40
0.0
 40
0.2168295645
 40
1.0
 40
1.0
 40
1.0
 40
1.0
 10
673.355034714
 20
1414.7094116742
 30
0.0
 10
672.8084569664
 20
1414.8782687635
 30
0.0
 10
670.457727965
 20
1416.1584844848
 30
0.0
 10
668.862330921
 20
1418.5548478095
 30
0.0
 10
668.1934445769
 20
1420.5098431243
 30
0.0
  0
SPLINE
  5
3AA
100
AcDbEntity
  8
0
100
AcDbSpline
 62
7
  6
CONTINUOUS
 70
0
 71
3
 72
8
 73
4
 74
0
 42
0.0000001
 43
0.0000001
 44
0.0000000001
 40
0.0
 40
0.0
 40
0.0
 40
0.0
 40
1.0
 40
1.0
 40
1.0
 40
1.0
 10
668.1934445769
 20
1420.5098431243
 30
0.0
 10
667.9058088615
 20
1421.3505337453
 30
0.0
 10
667.7186977698
 20
1422.2442966843
 30
0.0
 10
667.7186977698
 20
1423.13283201
 30
0.0
  0
SPLINE
  5
3AB
100
AcDbEntity
  8
0
100
AcDbSpline
 62
7
  6
CONTINUOUS
 70
0
 71
3
 72
8
 73
4
 74
0
 42
0.0000001
 43
0.0000001
 44
0.0000000001
 40
0.0
 40
0.0
 40
0.0
 40
0.0
 40
1.0
 40
1.0
 40
1.0
 40
1.0
 10
917.3963295817
 20
846.5681349603
 30
0.0
 10
916.7572174983
 20
846.1989416457
 30
0.0
 10
915.8917590752
 20
846.2094440597
 30
0.0
 10
915.1865607143
 20
846.4273046352
 30
0.0
  0
SPLINE
  5
3AC
100
AcDbEntity
  8
0
100
AcDbSpline
 62
7
  6
CONTINUOUS
 70
0
 71
3
 72
9
 73
5
 74
0
 42
0.0000001
 43
0.0000001
 44
0.0000000001
 40
0.0
 40
0.0
 40
0.0
 40
0.0
 40
0.2168295645
 40
1.0
 40
1.0
 40
1.0
 40
1.0
 10
915.1865607143
 20
846.4273046352
 30
0.0
 10
914.6399829667
 20
846.5961617245
 30
0.0
 10
912.2892539653
 20
847.8763774458
 30
0.0
 10
910.6938569212
 20
850.2727407705
 30
0.0
 10
910.0249705772
 20
852.2277360853
 30
0.0
  0
SPLINE
  5
3AD
100
AcDbEntity
  8
0
100
AcDbSpline
 62
7
  6
CONTINUOUS
 70
0
 71
3
 72
8
 73
4
 74
0
 42
0.0000001
 43
0.0000001
 44
0.0000000001
 40
0.0
 40
0.0
 40
0.0
 40
0.0
 40
1.0
 40
1.0
 40
1.0
 40
1.0
 10
910.0249705772
 20
852.2277360853
 30
0.0
 10
909.7373348618
 20
853.0684267063
 30
0.0
 10
909.55022377
 20
853.9621896453
 30
0.0
 10
909.55022377
 20
854.850724971
 30
0.0
  0
SPLINE
  5
3AE
100
AcDbEntity
  8
0
100
AcDbSpline
 62
7
  6
CONTINUOUS
 70
0
 71
3
 72
9
 73
5
 74
0
 42
0.0000001
 43
0.0000001
 44
0.0000000001
 40
0.0
 40
0.0
 40
0.0
 40
0.0
 40
0.7189466134
 40
1.0
 40
1.0
 40
1.0
 40
1.0
 10
665.7893519976
 20
327.9073522513
 30
0.0
 10
665.5604098127
 20
327.8345242526
 30
0.0
 10
665.3787548061
 20
327.5913796596
 30
0.0
 10
664.9100609991
 20
327.5187171528
 30
0.0
 10
664.9112272698
 20
327.4248062555
 30
0.0
  0
ELLIPSE
  5
3AF
100
AcDbEntity
  8
0
100
AcDbEllipse
 62
7
  6
CONTINUOUS
 10
930.9044075555
 20
247.1332545994
 30
0.0
 11
3.9897363519
 21
-0.659194334
 31
0.0
 40
0.4344138212
 41
0.7342878988
 42
0.857054404
  0
ELLIPSE
  5
3B0
100
AcDbEntity
  8
0
100
AcDbEllipse
 62
7
  6
CONTINUOUS
 10
929.4901881052
 20
2014.3579877821
 30
0.0
 11
3.9374589769
 21
1.02581769
 31
0.0
 40
0.6868360053
 41
6.8915217137
 42
10.0331143673
  0
ELLIPSE
  5
3B1
100
AcDbEntity
  8
0
100
AcDbEllipse
 62
7
  6
CONTINUOUS
 10
930.9044075555
 20
2013.5415062731
 30
0.0
 11
3.9374589769
 21
1.02581769
 31
0.0
 40
0.6868360053
 41
3.7499290601
 42
6.8915217137
  0
ELLIPSE
  5
3B2
100
AcDbEntity
  8
0
100
AcDbEllipse
 62
7
  6
CONTINUOUS
 10
784.24985056
 20
2098.2106387606
 30
0.0
 11
3.9374589769
 21
1.02581769
 31
0.0
 40
0.6868360053
 41
3.7499290601
 42
6.8915217137
  0
ELLIPSE
  5
3B3
100
AcDbEntity
  8
0
100
AcDbEllipse
 62
7
  6
CONTINUOUS
 10
782.8356311097
 20
2099.0271202696
 30
0.0
 11
3.9374589769
 21
1.02581769
 31
0.0
 40
0.6868360053
 41
6.8915217137
 42
10.0331143673
  0
ELLIPSE
  5
3B4
100
AcDbEntity
  8
0
100
AcDbEllipse
 62
7
  6
CONTINUOUS
 10
727.6815435829
 20
2065.5511064509
 30
0.0
 11
3.9897363519
 21
-0.659194334
 31
0.0
 40
0.4344138212
 41
3.9986470576
 42
7.1402397112
  0
ELLIPSE
  5
3B5
100
AcDbEntity
  8
0
100
AcDbEllipse
 62
7
  6
CONTINUOUS
 10
872.9218811281
 20
1981.6984554724
 30
0.0
 11
3.9897363519
 21
-0.659194334
 31
0.0
 40
0.4344138212
 41
7.1402397112
 42
10.2818323648
  0
ELLIPSE
  5
3B6
100
AcDbEntity
  8
0
100
AcDbEllipse
 62
7
  6
CONTINUOUS
 10
874.3361005784
 20
1980.8819739633
 30
0.0
 11
3.9897363519
 21
-0.659194334
 31
0.0
 40
0.4344138212
 41
3.9986470576
 42
7.1402397112
  0
ELLIPSE
  5
3B7
100
AcDbEntity
  8
0
100
AcDbEllipse
 62
7
  6
CONTINUOUS
 10
726.2673241326
 20
2066.3675879599
 30
0.0
 11
3.9897363519
 21
-0.659194334
 31
0.0
 40
0.4344138212
 41
7.1402397112
 42
10.2818323648
  0
ENDSEC
  0
SECTION
  2
OBJECTS
  0
DICTIONARY
  5
C
100
AcDbDictionary
280
0
281
1
  3
ACAD_GROUP
350
D
  3
ACAD_MLINESTYLE
350
17
  3
ACAD_LAYOUT
350
1A
  3
ACAD_PLOTSETTINGS
350
19
  3
ACAD_PLOTSTYLENAME
350
E
  0
DICTIONARY
  5
D
102
{ACAD_REACTORS
330
C
102
}
100
AcDbDictionary
280
0
281
1
  0
ACDBDICTIONARYWDFLT
  5
E
102
{ACAD_REACTORS
330
C
102
}
100
AcDbDictionary
281
1
  3
Normal
350
F
100
AcDbDictionaryWithDefault
340
F
  0
DICTIONARY
  5
17
102
{ACAD_REACTORS
330
C
102
}
100
AcDbDictionary
280
0
281
1
  3
Standard
350
18
  0
DICTIONARY
  5
19
102
{ACAD_REACTORS
330
C
102
}
100
AcDbDictionary
281
1
  0
DICTIONARY
  5
1A
102
{ACAD_REACTORS
330
C
102
}
100
AcDbDictionary
281
1
  3
Model
350
3B8
  3
Layout1
350
3B9
  0
ACDBPLACEHOLDER
  5
F
102
{ACAD_REACTORS
330
E
102
}
  0
MLINESTYLE
  5
18
102
{ACAD_REACTORS
330
17
102
}
100
AcDbMlineStyle
  2
STANDARD
 70
0
  3

 62
256
 51
90.0
 52
90.0
 71
2
 49
0.5
 62
256
  6
BYLAYER
 49
-0.5
 62
256
  6
BYLAYER
  0
LAYOUT
  5
3B8
102
{ACAD_REACTORS
330
1A
102
}
100
AcDbPlotSettings
  1

  2
none_device
  4

  6

 40
0.0
 41
0.0
 42
0.0
 43
0.0
 44
210.0
 45
297.0
 46
0.0
 47
0.0
 48
0.0
 49
0.0
140
0.0
141
0.0
142
1.0
143
1.0
 70
1024
 72
1
 73
0
 74
0
  7

 75
0
147
1.0
148
0.0
149
0.0
100
AcDbLayout
  1
Model
 70
0
 71
0
 10
0.0
 20
0.0
 11
210.0
 21
297.0
 12
0.0
 22
0.0
 32
0.0
 14
0.0
 24
0.0
 34
0.0
 15
0.0
 25
0.0
 35
0.0
146
0.0
 13
0.0
 23
0.0
 33
0.0
 16
1.0
 26
0.0
 36
0.0
 17
0.0
 27
1.0
 37
0.0
 76
0
330
210
345
0
346
0
  0
LAYOUT
  5
3B9
102
{ACAD_REACTORS
330
1A
102
}
100
AcDbPlotSettings
  1

  2
none_device
  4

  6

 40
0.0
 41
0.0
 42
0.0
 43
0.0
 44
210.0
 45
297.0
 46
0.0
 47
0.0
 48
0.0
 49
0.0
140
0.0
141
0.0
142
1.0
143
1.0
 70
0
 72
1
 73
0
 74
0
  7

 75
0
147
1.0
148
0.0
149
0.0
100
AcDbLayout
  1
Layout1
 70
0
 71
1
 10
0.0
 20
0.0
 11
210.0
 21
297.0
 12
0.0
 22
0.0
 32
0.0
 14
0.0
 24
0.0
 34
0.0
 15
0.0
 25
0.0
 35
0.0
146
0.0
 13
0.0
 23
0.0
 33
0.0
 16
1.0
 26
0.0
 36
0.0
 17
0.0
 27
1.0
 37
0.0
 76
0
330
211
345
0
346
0
  0
ENDSEC
  0
EOF
