999
DXF file: C:\Users\sesa63760\Dev\_Creo\CAD\MCADID0005085_3D-CAD\drw0001_3.dxf
999
Pro/ENGINEER 2019471 by Parametric Technology Corporation
  0
SECTION
  2
HEADER
  9
$ACADVER
  1
AC1024
  9
$DWGCODEPAGE
  3
ANSI_1252
  9
$EXTMAX
 10
88.744546921
 20
125.5101449311
 30
0.0
  9
$EXTMIN
 10
0.0
 20
0.0
 30
0.0
  9
$LIMMIN
 10
0.0
 20
0.0
  9
$LIMMAX
 10
88.744546921
 20
125.5101449311
  9
$VIEWCTR
 10
44.3722734605
 20
62.7550724656
  9
$VIEWSIZE
 40
125.5101449311
  9
$CLAYER
  8
0
  9
$LTSCALE
 40
8.18140204
  9
$CELTYPE
  6
BYLAYER
  9
$DIMSCALE
 40
1.0
  9
$DIMASZ
 40
1.0564827014
  9
$DIMEXO
 40
1.0
  9
$DIMDLI
 40
5.6526050458
  9
$DIMEXE
 40
1.0
  9
$DIMCEN
 40
1.3387748793
  9
$DIMLFAC
 40
1.0
  9
$DIMBLK
  1
_FILLED
  9
$DIMALT
 70
0
  9
$DIMALTF
 40
0.0393700787
  9
$DIMTXT
 40
1.479075782
  9
$DIMTOL
 70
1
  9
$DIMLIM
 70
0
  9
$DIMTFAC
 40
1.0
  9
$DIMTP
 40
0.01
  9
$DIMTM
 40
0.01
  9
$DIMGAP
 40
0.625
  9
$DIMDSEP
 70
46
  9
$AUNITS
 70
0
  9
$PDMODE
 70
3
  9
$PDSIZE
 40
0.3125
  9
$HANDSEED
  5
303
  9
$TILEMODE
 70
1
  9
$MEASUREMENT
 70
1
  9
$INSUNITS
 70
4
  0
ENDSEC
  0
SECTION
  2
CLASSES
  0
CLASS
  1
ACDBDICTIONARYWDFLT
  2
AcDbDictionaryWithDefault
  3
AutoCAD 2000
 90
0
 91
1
280
0
281
0
  0
CLASS
  1
ACDBPLACEHOLDER
  2
AcDbPlaceHolder
  3
AutoCAD 2000
 90
0
 91
1
280
0
281
0
  0
CLASS
  1
LAYOUT
  2
AcDbLayout
  3
AutoCAD 2000
 90
0
 91
0
280
0
281
0
  0
ENDSEC
  0
SECTION
  2
TABLES
  0
TABLE
  2
VPORT
  5
8
100
AcDbSymbolTable
 70
2
  0
VPORT
  5
1F4
100
AcDbSymbolTableRecord
100
AcDbViewportTableRecord
  2
*ACTIVE
 70
0
 10
0.0
 20
0.0
 11
1.0
 21
1.0
 12
44.3722734605
 22
62.7550724656
 13
0.0
 23
0.0
 14
1.0
 24
1.0
 15
0.0
 25
0.0
 16
0.0
 26
0.0
 36
1.0
 17
0.0
 27
0.0
 37
0.0
 40
125.5101449311
 41
0.7070707071
 42
50.0
 43
0.0
 44
0.0
 50
0.0
 51
0.0
 71
0
 72
100
 73
1
 74
1
 75
0
 76
0
 77
0
 78
0
  0
ENDTAB
  0
TABLE
  2
LTYPE
  5
5
100
AcDbSymbolTable
 70
6
  0
LTYPE
  5
14
100
AcDbSymbolTableRecord
100
AcDbLinetypeTableRecord
  2
BYBLOCK
 70
0
  3

 72
65
 73
0
 40
0.0
  0
LTYPE
  5
15
100
AcDbSymbolTableRecord
100
AcDbLinetypeTableRecord
  2
BYLAYER
 70
0
  3

 72
65
 73
0
 40
0.0
  0
LTYPE
  5
16
100
AcDbSymbolTableRecord
100
AcDbLinetypeTableRecord
  2
CONTINUOUS
 70
64
  3
Solid line
 72
65
 73
0
 40
0.0
  0
LTYPE
  5
1F5
100
AcDbSymbolTableRecord
100
AcDbLinetypeTableRecord
  2
CENTER
 70
64
  3
____ _ ____ _ ____ _ ____ _ ____ _ ____ _ ____
 72
65
 73
4
 40
0.6
 49
0.375
 74
0
 49
-0.075
 74
0
 49
0.075
 74
0
 49
-0.075
 74
0
  0
LTYPE
  5
1F6
100
AcDbSymbolTableRecord
100
AcDbLinetypeTableRecord
  2
HIDDEN
 70
64
  3
- - - - - - - - - - - - - - - - - - - -
 72
65
 73
2
 40
0.2
 49
0.1
 74
0
 49
-0.1
 74
0
  0
LTYPE
  5
1F7
100
AcDbSymbolTableRecord
100
AcDbLinetypeTableRecord
  2
PHANTOM
 70
64
  3
_____ _ _ _____ _ _ _____ _ _ _____
 72
65
 73
6
 40
0.8
 49
0.45
 74
0
 49
-0.05
 74
0
 49
0.1
 74
0
 49
-0.05
 74
0
 49
0.1
 74
0
 49
-0.05
 74
0
  0
LTYPE
  5
1F8
100
AcDbSymbolTableRecord
100
AcDbLinetypeTableRecord
  2
DOT
 70
64
  3
. . . . . . . . . . . . . . . . . . . .
 72
65
 73
2
 40
0.2
 49
0.1
 74
0
 49
-0.1
 74
0
  0
LTYPE
  5
1F9
100
AcDbSymbolTableRecord
100
AcDbLinetypeTableRecord
  2
DASHED
 70
64
  3
- - - - - - - - - - - - - - - - - - - -
 72
65
 73
2
 40
0.2
 49
0.1
 74
0
 49
-0.1
 74
0
  0
ENDTAB
  0
TABLE
  2
LAYER
  5
2
100
AcDbSymbolTable
 70
36
  0
LAYER
  5
10
100
AcDbSymbolTableRecord
100
AcDbLayerTableRecord
  2
0
 70
0
 62
7
  6
CONTINUOUS
370
-3
390
F
  0
LAYER
  5
1FA
100
AcDbSymbolTableRecord
100
AcDbLayerTableRecord
  2
DEFAULT_1
 70
0
 62
7
  6
CENTER
370
-3
390
F
  0
LAYER
  5
1FB
100
AcDbSymbolTableRecord
100
AcDbLayerTableRecord
  2
DEFAULT_2
 70
0
 62
7
  6
HIDDEN
370
-3
390
F
  0
LAYER
  5
1FC
100
AcDbSymbolTableRecord
100
AcDbLayerTableRecord
  2
DEFAULT_3
 70
0
 62
7
  6
PHANTOM
370
-3
390
F
  0
LAYER
  5
1FD
100
AcDbSymbolTableRecord
100
AcDbLayerTableRecord
  2
00_COMPONENTS
 70
0
 62
7
  6
CONTINUOUS
370
-3
390
F
  0
LAYER
  5
1FE
100
AcDbSymbolTableRecord
100
AcDbLayerTableRecord
  2
01_1_DEFAULT_DATUMS
 70
0
 62
7
  6
CONTINUOUS
370
-3
390
F
  0
LAYER
  5
1FF
100
AcDbSymbolTableRecord
100
AcDbLayerTableRecord
  2
01_PLANES
 70
0
 62
7
  6
CONTINUOUS
370
-3
390
F
  0
LAYER
  5
200
100
AcDbSymbolTableRecord
100
AcDbLayerTableRecord
  2
02_COORD_SYS
 70
0
 62
7
  6
CONTINUOUS
370
-3
390
F
  0
LAYER
  5
201
100
AcDbSymbolTableRecord
100
AcDbLayerTableRecord
  2
03_AXES
 70
0
 62
7
  6
CONTINUOUS
370
-3
390
F
  0
LAYER
  5
202
100
AcDbSymbolTableRecord
100
AcDbLayerTableRecord
  2
04_POINTS
 70
0
 62
7
  6
CONTINUOUS
370
-3
390
F
  0
LAYER
  5
203
100
AcDbSymbolTableRecord
100
AcDbLayerTableRecord
  2
05_CURVES
 70
0
 62
7
  6
CONTINUOUS
370
-3
390
F
  0
LAYER
  5
204
100
AcDbSymbolTableRecord
100
AcDbLayerTableRecord
  2
06_SURFS
 70
0
 62
7
  6
CONTINUOUS
370
-3
390
F
  0
LAYER
  5
205
100
AcDbSymbolTableRecord
100
AcDbLayerTableRecord
  2
07_COSMETICS
 70
0
 62
7
  6
CONTINUOUS
370
-3
390
F
  0
LAYER
  5
206
100
AcDbSymbolTableRecord
100
AcDbLayerTableRecord
  2
10_NOTES
 70
0
 62
7
  6
CONTINUOUS
370
-3
390
F
  0
LAYER
  5
207
100
AcDbSymbolTableRecord
100
AcDbLayerTableRecord
  2
11_NOTES_PUB
 70
0
 62
7
  6
CONTINUOUS
370
-3
390
F
  0
LAYER
  5
208
100
AcDbSymbolTableRecord
100
AcDbLayerTableRecord
  2
13_REF_GTOL
 70
0
 62
7
  6
CONTINUOUS
370
-3
390
F
  0
LAYER
  5
209
100
AcDbSymbolTableRecord
100
AcDbLayerTableRecord
  2
16_MISC
 70
0
 62
7
  6
CONTINUOUS
370
-3
390
F
  0
LAYER
  5
20A
100
AcDbSymbolTableRecord
100
AcDbLayerTableRecord
  2
17_NO_PRINT
 70
0
 62
7
  6
CONTINUOUS
370
-3
390
F
  0
LAYER
  5
20B
100
AcDbSymbolTableRecord
100
AcDbLayerTableRecord
  2
18_DATUM_CAMS_JOINTS
 70
0
 62
7
  6
CONTINUOUS
370
-3
390
F
  0
LAYER
  5
20C
100
AcDbSymbolTableRecord
100
AcDbLayerTableRecord
  2
19_DATUM_FUNCTIONAL
 70
0
 62
7
  6
CONTINUOUS
370
-3
390
F
  0
LAYER
  5
20D
100
AcDbSymbolTableRecord
100
AcDbLayerTableRecord
  2
20_DATUM_KINEMATIC_SCHEME
 70
0
 62
7
  6
CONTINUOUS
370
-3
390
F
  0
ENDTAB
  0
TABLE
  2
STYLE
  5
3
100
AcDbSymbolTable
 70
1
  0
STYLE
  5
11
100
AcDbSymbolTableRecord
100
AcDbTextStyleTableRecord
  2
STANDARD
 70
0
 40
0.0
 41
1.0
 50
0.0
 71
0
 42
0.2
  3
ARIAL.TTF
  4

  0
STYLE
  5
20E
100
AcDbSymbolTableRecord
100
AcDbTextStyleTableRecord
  2
TEXTSTYLE_1
 70
0
 40
0.0
 41
0.8
 50
0.0
 71
0
 42
0.2
  3
gdt
  4

  0
ENDTAB
  0
TABLE
  2
VIEW
  5
6
100
AcDbSymbolTable
 70
0
  0
ENDTAB
  0
TABLE
  2
UCS
  5
7
100
AcDbSymbolTable
 70
0
  0
ENDTAB
  0
TABLE
  2
APPID
  5
9
100
AcDbSymbolTable
 70
1
  0
APPID
  5
20F
100
AcDbSymbolTableRecord
100
AcDbRegAppTableRecord
  2
ACAD
 70
0
  0
ENDTAB
  0
TABLE
  2
BLOCK_RECORD
  5
1
100
AcDbSymbolTable
 70
0
  0
BLOCK_RECORD
  5
210
100
AcDbSymbolTableRecord
100
AcDbBlockTableRecord
  2
*Model_Space
  0
BLOCK_RECORD
  5
211
100
AcDbSymbolTableRecord
100
AcDbBlockTableRecord
  2
*Paper_Space
  0
BLOCK_RECORD
  5
212
100
AcDbSymbolTableRecord
100
AcDbBlockTableRecord
  2
_FILLED
  0
ENDTAB
  0
TABLE
  2
DIMSTYLE
  5
A
100
AcDbSymbolTable
 70
1
100
AcDbDimStyleTable
 71
0
  0
DIMSTYLE
105
213
100
AcDbSymbolTableRecord
100
AcDbDimStyleTableRecord
  2
STANDARD
 70
0
  3

  4

 40
1.0
 41
1.0564827014
 42
1.0
 43
0.38
 44
1.0
 45
0.0
 46
0.0
 47
0.01
 48
0.01
140
1.479075782
141
0.09
142
0.0
143
25.4
144
1.0
145
0.0
146
1.0
147
0.625
 71
1
 72
0
 73
0
 74
0
 75
0
 76
0
 77
1
 78
8
 79
2
170
0
171
1
172
0
173
0
174
0
175
0
176
0
177
0
178
0
270
2
179
2
271
2
272
2
273
2
274
2
275
0
280
0
281
0
282
0
283
1
284
8
285
0
286
0
287
3
288
0
340
11
278
46
341
212
342
212
343
212
344
212
  0
ENDTAB
  0
ENDSEC
  0
SECTION
  2
BLOCKS
  0
BLOCK
  5
20
100
AcDbEntity
  8
0
100
AcDbBlockBegin
  2
*Model_Space
 70
0
 10
0.0
 20
0.0
 30
0.0
  3
*Model_Space
  1

  0
ENDBLK
  5
21
100
AcDbEntity
  8
0
100
AcDbBlockEnd
  0
BLOCK
  5
1C
100
AcDbEntity
  8
0
100
AcDbBlockBegin
  2
*Paper_Space
 70
0
 10
0.0
 20
0.0
 30
0.0
  3
*Paper_Space
  1

  0
ENDBLK
  5
1D
100
AcDbEntity
  8
0
100
AcDbBlockEnd
  0
BLOCK
  5
214
100
AcDbEntity
  8
0
100
AcDbBlockBegin
  2
_FILLED
 70
64
 10
0.0
 20
0.0
  3
_FILLED
  1

  0
SOLID
  5
215
100
AcDbEntity
  8
0
  6
BYBLOCK
 62
0
100
AcDbTrace
 10
0.0
 20
0.0
 11
-1.0
 21
0.25
 12
-1.0
 22
-0.25
 13
-1.0
 23
-0.25
  0
ENDBLK
  5
216
100
AcDbEntity
  8
0
  6
BYBLOCK
 62
0
100
AcDbBlockEnd
  0
ENDSEC
  0
SECTION
  2
ENTITIES
  0
LINE
  5
217
100
AcDbEntity
  8
0
100
AcDbLine
 62
7
  6
BYLAYER
 10
14.950713865
 20
12.7211590218
 11
15.0357768307
 21
12.6987200694
  0
LINE
  5
218
100
AcDbEntity
  8
0
100
AcDbLine
 62
7
  6
BYLAYER
 10
15.0357768307
 20
12.6987200694
 11
29.7166959313
 21
12.7098198993
  0
LINE
  5
219
100
AcDbEntity
  8
0
100
AcDbLine
 62
7
  6
BYLAYER
 10
62.6012598197
 20
10.0623188424
 11
52.6917561554
 21
10.0623188424
  0
LINE
  5
21A
100
AcDbEntity
  8
0
100
AcDbLine
 62
7
  6
BYLAYER
 10
38.5108577849
 20
10.0623188424
 11
28.6010858171
 21
10.0623188424
  0
LINE
  5
21B
100
AcDbEntity
  8
0
100
AcDbLine
 62
7
  6
BYLAYER
 10
23.5311459599
 20
10.7877445626
 11
30.6012590128
 21
10.7877445626
  0
LINE
  5
21C
100
AcDbEntity
  8
0
100
AcDbLine
 62
7
  6
BYLAYER
 10
60.5982038139
 20
10.7877445626
 11
67.6713692883
 21
10.7877445626
  0
LINE
  5
21D
100
AcDbEntity
  8
0
100
AcDbLine
 62
7
  6
BYLAYER
 10
61.4847864812
 20
11.4641829559
 11
60.5994860685
 21
11.4641829559
  0
LINE
  5
21E
100
AcDbEntity
  8
0
100
AcDbLine
 62
7
  6
BYLAYER
 10
30.6012590149
 20
11.4641829559
 11
29.7171567541
 21
11.4641829559
  0
LINE
  5
21F
100
AcDbEntity
  8
0
100
AcDbLine
 62
7
  6
BYLAYER
 10
30.6012590149
 20
11.5123188424
 11
60.5994860685
 21
11.5123188424
  0
LINE
  5
220
100
AcDbEntity
  8
0
100
AcDbLine
 62
7
  6
BYLAYER
 10
16.2814967027
 20
19.8123188424
 11
19.2512590179
 21
19.8123188424
  0
LINE
  5
221
100
AcDbEntity
  8
0
100
AcDbLine
 62
7
  6
BYLAYER
 10
20.7512590179
 20
19.8123188424
 11
23.7210213332
 21
19.8123188424
  0
LINE
  5
222
100
AcDbEntity
  8
0
100
AcDbLine
 62
7
  6
BYLAYER
 10
67.4814967027
 20
19.8123188424
 11
70.4512590179
 21
19.8123188424
  0
LINE
  5
223
100
AcDbEntity
  8
0
100
AcDbLine
 62
7
  6
BYLAYER
 10
71.9512590179
 20
19.8123188424
 11
74.9210213332
 21
19.8123188424
  0
LINE
  5
224
100
AcDbEntity
  8
0
100
AcDbLine
 62
7
  6
BYLAYER
 10
74.9210213332
 20
21.3123188424
 11
71.9512590179
 21
21.3123188424
  0
LINE
  5
225
100
AcDbEntity
  8
0
100
AcDbLine
 62
7
  6
BYLAYER
 10
70.4512590179
 20
21.3123188424
 11
67.4814967027
 21
21.3123188424
  0
LINE
  5
226
100
AcDbEntity
  8
0
100
AcDbLine
 62
7
  6
BYLAYER
 10
23.7210213332
 20
21.3123188424
 11
20.7512590179
 21
21.3123188424
  0
LINE
  5
227
100
AcDbEntity
  8
0
100
AcDbLine
 62
7
  6
BYLAYER
 10
19.2512590179
 20
21.3123188424
 11
16.2814967027
 21
21.3123188424
  0
LINE
  5
228
100
AcDbEntity
  8
0
100
AcDbLine
 62
7
  6
BYLAYER
 10
24.551113634
 20
22.9313459802
 11
15.4457245838
 21
32.0367344301
  0
LINE
  5
229
100
AcDbEntity
  8
0
100
AcDbLine
 62
7
  6
BYLAYER
 10
16.4799381462
 20
33.2652625675
 11
25.682484316
 21
24.0627163977
  0
LINE
  5
22A
100
AcDbEntity
  8
0
100
AcDbLine
 62
7
  6
BYLAYER
 10
26.5310124535
 20
25.4112445351
 11
16.640598318
 21
35.3016586706
  0
LINE
  5
22B
100
AcDbEntity
  8
0
100
AcDbLine
 62
7
  6
BYLAYER
 10
11.6012590179
 20
109.053309432
 11
11.6012590179
 21
17.0700883628
  0
LINE
  5
22C
100
AcDbEntity
  8
0
100
AcDbLine
 62
7
  6
BYLAYER
 10
12.2310920715
 20
111.3492429395
 11
12.2310920715
 21
14.7745830611
  0
LINE
  5
22D
100
AcDbEntity
  8
0
100
AcDbLine
 62
7
  6
BYLAYER
 10
16.6405993743
 20
82.4229790142
 11
25.2152867938
 21
90.9976681429
  0
LINE
  5
22E
100
AcDbEntity
  8
0
100
AcDbLine
 62
7
  6
BYLAYER
 10
12.9075885023
 20
36.362318698
 11
12.9075885023
 21
81.3623188424
  0
LINE
  5
22F
100
AcDbEntity
  8
0
100
AcDbLine
 62
7
  6
BYLAYER
 10
13.9812584898
 20
35.572268336
 11
13.9812585289
 21
85.3623182136
  0
LINE
  5
230
100
AcDbEntity
  8
0
100
AcDbLine
 62
7
  6
BYLAYER
 10
14.1421735208
 20
13.020141052
 11
14.1421735208
 21
34.313993063
  0
LINE
  5
231
100
AcDbEntity
  8
0
100
AcDbLine
 62
7
  6
BYLAYER
 10
14.1421735208
 20
86.6205937976
 11
14.1421735208
 21
113.1042631393
  0
LINE
  5
232
100
AcDbEntity
  8
0
100
AcDbLine
 62
7
  6
BYLAYER
 10
15.6012584898
 20
35.3865829111
 11
15.6012584898
 21
85.7623188424
  0
LINE
  5
233
100
AcDbEntity
  8
0
100
AcDbLine
 62
7
  6
BYLAYER
 10
19.2512590179
 20
109.2820811576
 11
19.2512590179
 21
106.3123188424
  0
LINE
  5
234
100
AcDbEntity
  8
0
100
AcDbLine
 62
7
  6
BYLAYER
 10
19.2512590179
 20
104.8123188424
 11
19.2512590179
 21
101.8425565272
  0
LINE
  5
235
100
AcDbEntity
  8
0
100
AcDbLine
 62
7
  6
BYLAYER
 10
19.2512590179
 20
24.2820811576
 11
19.2512590179
 21
21.3123188424
  0
LINE
  5
236
100
AcDbEntity
  8
0
100
AcDbLine
 62
7
  6
BYLAYER
 10
19.2512590179
 20
19.8123188424
 11
19.2512590179
 21
16.8425565272
  0
LINE
  5
237
100
AcDbEntity
  8
0
100
AcDbLine
 62
7
  6
BYLAYER
 10
20.7512590179
 20
16.8425565272
 11
20.7512590179
 21
19.8123188424
  0
LINE
  5
238
100
AcDbEntity
  8
0
100
AcDbLine
 62
7
  6
BYLAYER
 10
20.7512590179
 20
21.3123188424
 11
20.7512590179
 21
24.2820811576
  0
LINE
  5
239
100
AcDbEntity
  8
0
100
AcDbLine
 62
7
  6
BYLAYER
 10
20.7512590179
 20
101.8425565272
 11
20.7512590179
 21
104.8123188424
  0
LINE
  5
23A
100
AcDbEntity
  8
0
100
AcDbLine
 62
7
  6
BYLAYER
 10
20.7512590179
 20
106.3123188424
 11
20.7512590179
 21
109.2820811576
  0
LINE
  5
23B
100
AcDbEntity
  8
0
100
AcDbLine
 62
7
  6
BYLAYER
 10
72.0523708824
 20
35.7623188424
 11
72.2212595461
 21
35.7623188424
  0
LINE
  5
23C
100
AcDbEntity
  8
0
100
AcDbLine
 62
7
  6
BYLAYER
 10
12.9075885023
 20
36.362318698
 11
13.9812584904
 21
36.3623186275
  0
LINE
  5
23D
100
AcDbEntity
  8
0
100
AcDbLine
 62
7
  6
BYLAYER
 10
15.6012584898
 20
36.3623185212
 11
16.2012577379
 21
36.3623184818
  0
LINE
  5
23E
100
AcDbEntity
  8
0
100
AcDbLine
 62
7
  6
BYLAYER
 10
72.6012595461
 20
37.3623188424
 11
72.0523707891
 21
37.362319659
  0
LINE
  5
23F
100
AcDbEntity
  8
0
100
AcDbLine
 62
7
  6
BYLAYER
 10
24.807660407
 20
95.3676637816
 11
26.2472937205
 21
107.0925381579
  0
LINE
  5
240
100
AcDbEntity
  8
0
100
AcDbLine
 62
7
  6
BYLAYER
 10
27.8353672788
 20
106.8975452813
 11
26.3957339661
 21
95.1726709115
  0
LINE
  5
241
100
AcDbEntity
  8
0
100
AcDbLine
 62
7
  6
BYLAYER
 10
27.641521799
 20
95.9721842515
 11
29.7177322531
 21
112.8815600383
  0
LINE
  5
242
100
AcDbEntity
  8
0
100
AcDbLine
 62
7
  6
BYLAYER
 10
72.0523708824
 20
39.0623188424
 11
73.5012595461
 21
39.0623188424
  0
LINE
  5
243
100
AcDbEntity
  8
0
100
AcDbLine
 62
7
  6
BYLAYER
 10
75.0012595461
 20
40.5623188424
 11
75.6012595461
 21
40.5623188373
  0
LINE
  5
244
100
AcDbEntity
  8
0
100
AcDbLine
 62
7
  6
BYLAYER
 10
77.2172578974
 20
40.5623188235
 11
78.2949296445
 21
40.5623188143
  0
LINE
  5
245
100
AcDbEntity
  8
0
100
AcDbLine
 62
7
  6
BYLAYER
 10
26.3243611292
 20
18.4044365404
 11
26.1781178737
 21
19.5954938042
  0
LINE
  5
246
100
AcDbEntity
  8
0
100
AcDbLine
 62
7
  6
BYLAYER
 10
27.7661918985
 20
19.790482949
 11
27.9124351529
 21
18.5994294188
  0
LINE
  5
247
100
AcDbEntity
  8
0
100
AcDbLine
 62
7
  6
BYLAYER
 10
29.716123859
 20
14.2561720419
 11
28.9572470678
 21
20.4367266702
  0
LINE
  5
248
100
AcDbEntity
  8
0
100
AcDbLine
 62
7
  6
BYLAYER
 10
30.6178300302
 20
115.7373223808
 11
30.604314222
 21
115.3368931222
  0
LINE
  5
249
100
AcDbEntity
  8
0
100
AcDbLine
 62
7
  6
BYLAYER
 10
29.716123859
 20
14.2561720419
 11
29.7171567541
 21
11.4641829559
  0
LINE
  5
24A
100
AcDbEntity
  8
0
100
AcDbLine
 62
7
  6
BYLAYER
 10
29.7177322531
 20
114.6606513598
 11
29.7177322531
 21
112.8815600383
  0
LINE
  5
24B
100
AcDbEntity
  8
0
100
AcDbLine
 62
7
  6
BYLAYER
 10
30.6012590149
 20
11.5123188424
 11
30.601258991
 21
10.4076092666
  0
LINE
  5
24C
100
AcDbEntity
  8
0
100
AcDbLine
 62
7
  6
BYLAYER
 10
30.6178300302
 20
115.7373223808
 11
30.6178300302
 21
114.6123188424
  0
LINE
  5
24D
100
AcDbEntity
  8
0
100
AcDbLine
 62
7
  6
BYLAYER
 10
30.604314222
 20
115.3368931222
 11
30.6030319674
 21
114.6123188424
  0
LINE
  5
24E
100
AcDbEntity
  8
0
100
AcDbLine
 62
7
  6
BYLAYER
 10
60.5846880057
 20
10.3891437358
 11
60.5846880057
 21
11.5123188424
  0
LINE
  5
24F
100
AcDbEntity
  8
0
100
AcDbLine
 62
7
  6
BYLAYER
 10
60.6012590209
 20
114.6123188424
 11
60.6012590449
 21
115.7187721463
  0
LINE
  5
250
100
AcDbEntity
  8
0
100
AcDbLine
 62
7
  6
BYLAYER
 10
61.4847864812
 20
11.4641829559
 11
61.4847864812
 21
14.2430776465
  0
LINE
  5
251
100
AcDbEntity
  8
0
100
AcDbLine
 62
7
  6
BYLAYER
 10
61.4863941768
 20
112.8684656429
 11
61.4863941768
 21
114.6606513598
  0
LINE
  5
252
100
AcDbEntity
  8
0
100
AcDbLine
 62
7
  6
BYLAYER
 10
60.5982038139
 20
10.7877445626
 11
60.5994860685
 21
11.5123188424
  0
LINE
  5
253
100
AcDbEntity
  8
0
100
AcDbLine
 62
7
  6
BYLAYER
 10
60.5846880057
 20
10.3891437358
 11
60.5982038139
 21
10.7877445626
  0
LINE
  5
254
100
AcDbEntity
  8
0
100
AcDbLine
 62
7
  6
BYLAYER
 10
16.2012595461
 20
81.3623188424
 11
15.6012584898
 21
81.3623188424
  0
LINE
  5
255
100
AcDbEntity
  8
0
100
AcDbLine
 62
7
  6
BYLAYER
 10
13.9812585257
 20
81.3623188424
 11
12.9075885023
 21
81.3623188424
  0
LINE
  5
256
100
AcDbEntity
  8
0
100
AcDbLine
 62
7
  6
BYLAYER
 10
70.4512590179
 20
109.2820811576
 11
70.4512590179
 21
106.3123188424
  0
LINE
  5
257
100
AcDbEntity
  8
0
100
AcDbLine
 62
7
  6
BYLAYER
 10
70.4512590179
 20
104.8123188424
 11
70.4512590179
 21
101.8425565272
  0
LINE
  5
258
100
AcDbEntity
  8
0
100
AcDbLine
 62
7
  6
BYLAYER
 10
70.4512590179
 20
24.2820811576
 11
70.4512590179
 21
21.3123188424
  0
LINE
  5
259
100
AcDbEntity
  8
0
100
AcDbLine
 62
7
  6
BYLAYER
 10
70.4512590179
 20
19.8123188424
 11
70.4512590179
 21
16.8425565272
  0
LINE
  5
25A
100
AcDbEntity
  8
0
100
AcDbLine
 62
7
  6
BYLAYER
 10
63.6157285935
 20
31.5982082614
 11
61.4847864812
 21
14.2430776465
  0
LINE
  5
25B
100
AcDbEntity
  8
0
100
AcDbLine
 62
7
  6
BYLAYER
 10
63.3671507571
 20
19.2270924035
 11
64.8067840697
 21
30.9519667733
  0
LINE
  5
25C
100
AcDbEntity
  8
0
100
AcDbLine
 62
7
  6
BYLAYER
 10
66.3948576288
 20
30.7569739032
 11
64.9552243154
 21
19.0320995269
  0
LINE
  5
25D
100
AcDbEntity
  8
0
100
AcDbLine
 62
7
  6
BYLAYER
 10
18.6012584898
 20
88.7623188424
 11
19.1501472468
 21
88.7623180258
  0
LINE
  5
25E
100
AcDbEntity
  8
0
100
AcDbLine
 62
7
  6
BYLAYER
 10
61.4863941768
 20
112.8684656429
 11
62.2452709681
 21
106.6879110145
  0
LINE
  5
25F
100
AcDbEntity
  8
0
100
AcDbLine
 62
7
  6
BYLAYER
 10
63.4363261374
 20
106.3341547358
 11
63.2900828829
 21
107.525208266
  0
LINE
  5
260
100
AcDbEntity
  8
0
100
AcDbLine
 62
7
  6
BYLAYER
 10
64.8781569067
 20
107.7202011444
 11
65.0244001622
 21
106.5291438806
  0
LINE
  5
261
100
AcDbEntity
  8
0
100
AcDbLine
 62
7
  6
BYLAYER
 10
71.9512590179
 20
16.8425565272
 11
71.9512590179
 21
19.8123188424
  0
LINE
  5
262
100
AcDbEntity
  8
0
100
AcDbLine
 62
7
  6
BYLAYER
 10
71.9512590179
 20
21.3123188424
 11
71.9512590179
 21
24.2820811576
  0
LINE
  5
263
100
AcDbEntity
  8
0
100
AcDbLine
 62
7
  6
BYLAYER
 10
71.9512590179
 20
101.8425565272
 11
71.9512590179
 21
104.8123188424
  0
LINE
  5
264
100
AcDbEntity
  8
0
100
AcDbLine
 62
7
  6
BYLAYER
 10
71.9512590179
 20
106.3123188424
 11
71.9512590179
 21
109.2820811576
  0
LINE
  5
265
100
AcDbEntity
  8
0
100
AcDbLine
 62
7
  6
BYLAYER
 10
19.1501471535
 20
90.3623188424
 11
18.9812584898
 21
90.3623188424
  0
LINE
  5
266
100
AcDbEntity
  8
0
100
AcDbLine
 62
7
  6
BYLAYER
 10
78.2949296445
 20
90.762319203
 11
77.2168497073
 21
90.762319203
  0
LINE
  5
267
100
AcDbEntity
  8
0
100
AcDbLine
 62
7
  6
BYLAYER
 10
75.6011614174
 20
90.762319203
 11
75.0012602979
 21
90.762319203
  0
LINE
  5
268
100
AcDbEntity
  8
0
100
AcDbLine
 62
7
  6
BYLAYER
 10
75.6012595461
 20
90.7380547737
 11
75.6012595461
 21
40.3623188424
  0
LINE
  5
269
100
AcDbEntity
  8
0
100
AcDbLine
 62
7
  6
BYLAYER
 10
76.9721114556
 20
113.145962114
 11
76.9721114556
 21
92.1110245811
  0
LINE
  5
26A
100
AcDbEntity
  8
0
100
AcDbLine
 62
7
  6
BYLAYER
 10
76.9721114556
 20
39.2036638905
 11
76.9721114556
 21
12.983378843
  0
LINE
  5
26B
100
AcDbEntity
  8
0
100
AcDbLine
 62
7
  6
BYLAYER
 10
77.221259507
 20
40.7623194712
 11
77.2212595461
 21
90.5523693488
  0
LINE
  5
26C
100
AcDbEntity
  8
0
100
AcDbLine
 62
7
  6
BYLAYER
 10
78.2949296445
 20
90.762319203
 11
78.2949296445
 21
40.5623188143
  0
LINE
  5
26D
100
AcDbEntity
  8
0
100
AcDbLine
 62
7
  6
BYLAYER
 10
78.9714259653
 20
14.7928253109
 11
78.9714259653
 21
111.3500544606
  0
LINE
  5
26E
100
AcDbEntity
  8
0
100
AcDbLine
 62
7
  6
BYLAYER
 10
79.6012590179
 20
109.0545412334
 11
79.6012590179
 21
17.0704053093
  0
LINE
  5
26F
100
AcDbEntity
  8
0
100
AcDbLine
 62
7
  6
BYLAYER
 10
16.2814967027
 20
104.8123188424
 11
19.2512590179
 21
104.8123188424
  0
LINE
  5
270
100
AcDbEntity
  8
0
100
AcDbLine
 62
7
  6
BYLAYER
 10
20.7512590179
 20
104.8123188424
 11
23.7210213332
 21
104.8123188424
  0
LINE
  5
271
100
AcDbEntity
  8
0
100
AcDbLine
 62
7
  6
BYLAYER
 10
67.4814967027
 20
104.8123188424
 11
70.4512590179
 21
104.8123188424
  0
LINE
  5
272
100
AcDbEntity
  8
0
100
AcDbLine
 62
7
  6
BYLAYER
 10
71.9512590179
 20
104.8123188424
 11
74.9210213332
 21
104.8123188424
  0
LINE
  5
273
100
AcDbEntity
  8
0
100
AcDbLine
 62
7
  6
BYLAYER
 10
64.6715055824
 20
101.7133931497
 11
74.5619197179
 21
91.8229790142
  0
LINE
  5
274
100
AcDbEntity
  8
0
100
AcDbLine
 62
7
  6
BYLAYER
 10
74.7225798897
 20
92.8593751173
 11
65.5200337198
 21
102.0619212871
  0
LINE
  5
275
100
AcDbEntity
  8
0
100
AcDbLine
 62
7
  6
BYLAYER
 10
74.9210213332
 20
106.3123188424
 11
71.9512590179
 21
106.3123188424
  0
LINE
  5
276
100
AcDbEntity
  8
0
100
AcDbLine
 62
7
  6
BYLAYER
 10
70.4512590179
 20
106.3123188424
 11
67.4814967027
 21
106.3123188424
  0
LINE
  5
277
100
AcDbEntity
  8
0
100
AcDbLine
 62
7
  6
BYLAYER
 10
23.7210213332
 20
106.3123188424
 11
20.7512590179
 21
106.3123188424
  0
LINE
  5
278
100
AcDbEntity
  8
0
100
AcDbLine
 62
7
  6
BYLAYER
 10
19.2512590179
 20
106.3123188424
 11
16.2814967027
 21
106.3123188424
  0
LINE
  5
279
100
AcDbEntity
  8
0
100
AcDbLine
 62
7
  6
BYLAYER
 10
66.6514044019
 20
103.1932917046
 11
75.756793452
 21
94.0879032547
  0
LINE
  5
27A
100
AcDbEntity
  8
0
100
AcDbLine
 62
7
  6
BYLAYER
 10
76.3159953404
 20
113.3859901297
 11
61.4863941768
 21
113.3983924916
  0
LINE
  5
27B
100
AcDbEntity
  8
0
100
AcDbLine
 62
7
  6
BYLAYER
 10
29.7177322531
 20
113.4249614086
 11
15.0786586683
 21
113.4372044275
  0
LINE
  5
27C
100
AcDbEntity
  8
0
100
AcDbLine
 62
7
  6
BYLAYER
 10
60.6012590209
 20
114.6123188424
 11
30.6030319674
 21
114.6123188424
  0
LINE
  5
27D
100
AcDbEntity
  8
0
100
AcDbLine
 62
7
  6
BYLAYER
 10
29.7177322531
 20
114.6606513598
 11
30.6030319674
 21
114.6606513598
  0
LINE
  5
27E
100
AcDbEntity
  8
0
100
AcDbLine
 62
7
  6
BYLAYER
 10
60.6012590209
 20
114.6606513598
 11
61.4863941768
 21
114.6606513598
  0
LINE
  5
27F
100
AcDbEntity
  8
0
100
AcDbLine
 62
7
  6
BYLAYER
 10
67.6713629528
 20
115.3368931222
 11
60.6012590231
 21
115.3368931222
  0
LINE
  5
280
100
AcDbEntity
  8
0
100
AcDbLine
 62
7
  6
BYLAYER
 10
30.604314222
 20
115.3368931222
 11
23.5311358981
 21
115.3368931222
  0
LINE
  5
281
100
AcDbEntity
  8
0
100
AcDbLine
 62
7
  6
BYLAYER
 10
62.6012589852
 20
116.0623188424
 11
52.9231472776
 21
116.0623188424
  0
LINE
  5
282
100
AcDbEntity
  8
0
100
AcDbLine
 62
7
  6
BYLAYER
 10
38.2792748539
 20
116.0623188424
 11
28.6010856685
 21
116.0623188424
  0
LINE
  5
283
100
AcDbEntity
  8
0
100
AcDbLine
 62
7
  6
BYLAYER
 10
65.6847581845
 20
115.6913455395
 11
64.1467134874
 21
115.942174952
  0
ARC
  5
284
100
AcDbEntity
  8
0
100
AcDbCircle
 62
7
  6
BYLAYER
 10
28.6010860956
 20
20.0600320197
 40
9.9977131788
100
AcDbArc
 50
261.1085207809
 51
269.9999980827
  0
ARC
  5
285
100
AcDbEntity
  8
0
100
AcDbCircle
 62
7
  6
BYLAYER
 10
20.520604744
 20
19.4008368456
 40
8.5000000841
100
AcDbArc
 50
7.000002686
 51
44.9999999052
  0
ARC
  5
286
100
AcDbEntity
  8
0
100
AcDbCircle
 62
7
  6
BYLAYER
 10
20.5206034184
 20
18.9008359444
 40
7.3000016586
100
AcDbArc
 50
7.0000047097
 51
44.999997534
  0
ARC
  5
287
100
AcDbEntity
  8
0
100
AcDbCircle
 62
7
  6
BYLAYER
 10
20.5205994364
 20
18.9008346606
 40
5.7000058065
100
AcDbArc
 50
7.0000321906
 51
44.9999795438
  0
CIRCLE
  5
288
100
AcDbEntity
  8
0
100
AcDbCircle
 62
7
  6
BYLAYER
 10
20.0029612477
 20
20.5623188395
 40
4.7018943702
  0
ARC
  5
289
100
AcDbEntity
  8
0
100
AcDbCircle
 62
7
  6
BYLAYER
 10
16.0993128516
 20
17.0700909316
 40
4.4980538445
100
AcDbArc
 50
180.000032409
 51
255.2053988778
  0
CIRCLE
  5
28A
100
AcDbEntity
  8
0
100
AcDbCircle
 62
7
  6
BYLAYER
 10
20.0012590179
 20
20.5623188424
 40
4.2444348419
  0
CIRCLE
  5
28B
100
AcDbEntity
  8
0
100
AcDbCircle
 62
7
  6
BYLAYER
 10
20.0012590179
 20
20.5623188424
 40
4.1000000037
  0
CIRCLE
  5
28C
100
AcDbEntity
  8
0
100
AcDbCircle
 62
7
  6
BYLAYER
 10
20.0012590179
 20
20.5623188424
 40
3.818164934
  0
ARC
  5
28D
100
AcDbEntity
  8
0
100
AcDbCircle
 62
7
  6
BYLAYER
 10
20.0012590179
 20
20.5623188424
 40
3.7946189504
100
AcDbArc
 50
101.3994719441
 51
168.6005280559
  0
ARC
  5
28E
100
AcDbEntity
  8
0
100
AcDbCircle
 62
7
  6
BYLAYER
 10
20.0012590179
 20
20.5623188424
 40
3.7946189504
100
AcDbArc
 50
191.3994719441
 51
258.6005280559
  0
ARC
  5
28F
100
AcDbEntity
  8
0
100
AcDbCircle
 62
7
  6
BYLAYER
 10
20.0012590179
 20
20.5623188424
 40
3.7946189504
100
AcDbArc
 50
281.3994719441
 51
348.6005280559
  0
ARC
  5
290
100
AcDbEntity
  8
0
100
AcDbCircle
 62
7
  6
BYLAYER
 10
20.0012590179
 20
20.5623188424
 40
3.7946189504
100
AcDbArc
 50
11.3994719441
 51
78.6005280559
  0
ARC
  5
291
100
AcDbEntity
  8
0
100
AcDbCircle
 62
7
  6
BYLAYER
 10
20.0012590179
 20
20.5623188424
 40
3.7867300444
100
AcDbArc
 50
348.5764601903
 51
11.4235398097
  0
ARC
  5
292
100
AcDbEntity
  8
0
100
AcDbCircle
 62
7
  6
BYLAYER
 10
20.0012590179
 20
20.5623188424
 40
3.7867300444
100
AcDbArc
 50
78.5764601903
 51
101.4235398097
  0
ARC
  5
293
100
AcDbEntity
  8
0
100
AcDbCircle
 62
7
  6
BYLAYER
 10
20.0012590179
 20
20.5623188424
 40
3.7867300444
100
AcDbArc
 50
168.5764601903
 51
191.4235398097
  0
ARC
  5
294
100
AcDbEntity
  8
0
100
AcDbCircle
 62
7
  6
BYLAYER
 10
20.0012590179
 20
20.5623188424
 40
3.7867300444
100
AcDbArc
 50
258.5764601903
 51
281.4235398097
  0
ARC
  5
295
100
AcDbEntity
  8
0
100
AcDbCircle
 62
7
  6
BYLAYER
 10
20.0012590179
 20
20.5623188424
 40
3.5
100
AcDbArc
 50
192.3736251162
 51
257.6263748838
  0
ARC
  5
296
100
AcDbEntity
  8
0
100
AcDbCircle
 62
7
  6
BYLAYER
 10
20.0012590179
 20
20.5623188424
 40
3.5
100
AcDbArc
 50
102.3736251162
 51
167.6263748838
  0
ARC
  5
297
100
AcDbEntity
  8
0
100
AcDbCircle
 62
7
  6
BYLAYER
 10
20.0012590179
 20
20.5623188424
 40
3.5
100
AcDbArc
 50
282.3736251162
 51
347.6263748838
  0
ARC
  5
298
100
AcDbEntity
  8
0
100
AcDbCircle
 62
7
  6
BYLAYER
 10
20.0012590179
 20
20.5623188424
 40
3.5
100
AcDbArc
 50
12.3736251162
 51
77.6263748838
  0
ARC
  5
299
100
AcDbEntity
  8
0
100
AcDbCircle
 62
7
  6
BYLAYER
 10
27.1183982027
 20
18.5019324777
 40
0.8000002074
100
AcDbArc
 50
187.000031557
 51
7.0001039829
  0
ARC
  5
29A
100
AcDbEntity
  8
0
100
AcDbCircle
 62
7
  6
BYLAYER
 10
18.9812584898
 20
35.572268336
 40
5.0
100
AcDbArc
 50
180.0
 51
225.0
  0
CIRCLE
  5
29B
100
AcDbEntity
  8
0
100
AcDbCircle
 62
7
  6
BYLAYER
 10
25.2012590179
 20
48.0123188424
 40
3.25
  0
ARC
  5
29C
100
AcDbEntity
  8
0
100
AcDbCircle
 62
7
  6
BYLAYER
 10
18.6012584898
 20
35.3865829111
 40
3.0
100
AcDbArc
 50
180.0
 51
225.0
  0
ARC
  5
29D
100
AcDbEntity
  8
0
100
AcDbCircle
 62
7
  6
BYLAYER
 10
17.7012626765
 20
36.3623216399
 40
1.5000049386
100
AcDbArc
 50
180.0001206301
 51
224.9999624773
  0
ARC
  5
29E
100
AcDbEntity
  8
0
100
AcDbCircle
 62
7
  6
BYLAYER
 10
45.5953061307
 20
-2.6487099983
 40
120.0331405426
100
AcDbArc
 50
78.7405592593
 51
80.3652991469
  0
ARC
  5
29F
100
AcDbEntity
  8
0
100
AcDbCircle
 62
7
  6
BYLAYER
 10
45.6008455164
 20
-2.6177750341
 40
120.0017194057
100
AcDbArc
 50
75.2014681335
 51
78.7402692793
  0
ARC
  5
2A0
100
AcDbEntity
  8
0
100
AcDbCircle
 62
7
  6
BYLAYER
 10
45.5997236122
 20
-2.6075681038
 40
119.9913267598
100
AcDbArc
 50
98.8903405887
 51
101.2597675435
  0
ARC
  5
2A1
100
AcDbEntity
  8
0
100
AcDbCircle
 62
7
  6
BYLAYER
 10
19.204894186
 20
97.0080694956
 40
8.4999849247
100
AcDbArc
 50
314.9999583184
 51
353.0000158759
  0
ARC
  5
2A2
100
AcDbEntity
  8
0
100
AcDbCircle
 62
7
  6
BYLAYER
 10
19.1501456808
 20
96.0623197097
 40
7.3000016839
100
AcDbArc
 50
270.0000122912
 51
352.9999811313
  0
ARC
  5
2A3
100
AcDbEntity
  8
0
100
AcDbCircle
 62
7
  6
BYLAYER
 10
19.1501470298
 20
96.0623191687
 40
5.7000003263
100
AcDbArc
 50
270.0000012427
 51
352.9999990896
  0
ARC
  5
2A4
100
AcDbEntity
  8
0
100
AcDbCircle
 62
7
  6
BYLAYER
 10
18.9812587208
 20
85.3623186504
 40
5.000000192
100
AcDbArc
 50
90.0000026478
 51
180.0
  0
CIRCLE
  5
2A5
100
AcDbEntity
  8
0
100
AcDbCircle
 62
7
  6
BYLAYER
 10
25.2012590179
 20
78.0123188424
 40
3.25
  0
ARC
  5
2A6
100
AcDbEntity
  8
0
100
AcDbCircle
 62
7
  6
BYLAYER
 10
18.6012584898
 20
85.7623188424
 40
3.0
100
AcDbArc
 50
90.0
 51
180.0
  0
ARC
  5
2A7
100
AcDbEntity
  8
0
100
AcDbCircle
 62
7
  6
BYLAYER
 10
17.7012595461
 20
81.3623188424
 40
1.5
100
AcDbArc
 50
135.0
 51
180.0
  0
ARC
  5
2A8
100
AcDbEntity
  8
0
100
AcDbCircle
 62
7
  6
BYLAYER
 10
28.601086095
 20
106.0646056705
 40
9.9977131734
100
AcDbArc
 50
90.0000018445
 51
98.8914792203
  0
CIRCLE
  5
2A9
100
AcDbEntity
  8
0
100
AcDbCircle
 62
7
  6
BYLAYER
 10
20.0029612477
 20
105.5623188395
 40
4.7018943702
  0
ARC
  5
2AA
100
AcDbEntity
  8
0
100
AcDbCircle
 62
7
  6
BYLAYER
 10
16.1009511638
 20
109.0532854232
 40
4.4996922462
100
AcDbArc
 50
104.811179353
 51
179.9996972008
  0
CIRCLE
  5
2AB
100
AcDbEntity
  8
0
100
AcDbCircle
 62
7
  6
BYLAYER
 10
20.0012590179
 20
105.5623188424
 40
4.2444348419
  0
CIRCLE
  5
2AC
100
AcDbEntity
  8
0
100
AcDbCircle
 62
7
  6
BYLAYER
 10
20.0012590179
 20
105.5623188424
 40
4.1000000037
  0
CIRCLE
  5
2AD
100
AcDbEntity
  8
0
100
AcDbCircle
 62
7
  6
BYLAYER
 10
20.0012590179
 20
105.5623188424
 40
3.818164934
  0
ARC
  5
2AE
100
AcDbEntity
  8
0
100
AcDbCircle
 62
7
  6
BYLAYER
 10
20.0012590179
 20
105.5623188424
 40
3.7946189504
100
AcDbArc
 50
11.3994719441
 51
78.6005280559
  0
ARC
  5
2AF
100
AcDbEntity
  8
0
100
AcDbCircle
 62
7
  6
BYLAYER
 10
20.0012590179
 20
105.5623188424
 40
3.7946189504
100
AcDbArc
 50
101.3994719441
 51
168.6005280559
  0
ARC
  5
2B0
100
AcDbEntity
  8
0
100
AcDbCircle
 62
7
  6
BYLAYER
 10
20.0012590179
 20
105.5623188424
 40
3.7946189504
100
AcDbArc
 50
191.3994719441
 51
258.6005280559
  0
ARC
  5
2B1
100
AcDbEntity
  8
0
100
AcDbCircle
 62
7
  6
BYLAYER
 10
20.0012590179
 20
105.5623188424
 40
3.7946189504
100
AcDbArc
 50
281.3994719441
 51
348.6005280559
  0
ARC
  5
2B2
100
AcDbEntity
  8
0
100
AcDbCircle
 62
7
  6
BYLAYER
 10
20.0012590179
 20
105.5623188424
 40
3.7867300444
100
AcDbArc
 50
168.5764601903
 51
191.4235398097
  0
ARC
  5
2B3
100
AcDbEntity
  8
0
100
AcDbCircle
 62
7
  6
BYLAYER
 10
20.0012590179
 20
105.5623188424
 40
3.7867300444
100
AcDbArc
 50
258.5764601903
 51
281.4235398097
  0
ARC
  5
2B4
100
AcDbEntity
  8
0
100
AcDbCircle
 62
7
  6
BYLAYER
 10
20.0012590179
 20
105.5623188424
 40
3.7867300444
100
AcDbArc
 50
348.5764601903
 51
11.4235398097
  0
ARC
  5
2B5
100
AcDbEntity
  8
0
100
AcDbCircle
 62
7
  6
BYLAYER
 10
20.0012590179
 20
105.5623188424
 40
3.7867300444
100
AcDbArc
 50
78.5764601903
 51
101.4235398097
  0
ARC
  5
2B6
100
AcDbEntity
  8
0
100
AcDbCircle
 62
7
  6
BYLAYER
 10
20.0012590179
 20
105.5623188424
 40
3.5
100
AcDbArc
 50
12.3736251162
 51
77.6263748838
  0
ARC
  5
2B7
100
AcDbEntity
  8
0
100
AcDbCircle
 62
7
  6
BYLAYER
 10
20.0012590179
 20
105.5623188424
 40
3.5
100
AcDbArc
 50
102.3736251162
 51
167.6263748838
  0
ARC
  5
2B8
100
AcDbEntity
  8
0
100
AcDbCircle
 62
7
  6
BYLAYER
 10
20.0012590179
 20
105.5623188424
 40
3.5
100
AcDbArc
 50
192.3736251162
 51
257.6263748838
  0
ARC
  5
2B9
100
AcDbEntity
  8
0
100
AcDbCircle
 62
7
  6
BYLAYER
 10
20.0012590179
 20
105.5623188424
 40
3.5
100
AcDbArc
 50
282.3736251162
 51
347.6263748838
  0
ARC
  5
2BA
100
AcDbEntity
  8
0
100
AcDbCircle
 62
7
  6
BYLAYER
 10
27.0407678172
 20
106.9904590845
 40
0.8000132995
100
AcDbArc
 50
353.330598484
 51
172.6692620358
  0
ARC
  5
2BB
100
AcDbEntity
  8
0
100
AcDbCircle
 62
7
  6
BYLAYER
 10
45.5992419658
 20
128.7516829667
 40
120.011122686
100
AcDbArc
 50
279.6345794043
 51
281.2596175986
  0
ARC
  5
2BC
100
AcDbEntity
  8
0
100
AcDbCircle
 62
7
  6
BYLAYER
 10
45.6012000438
 20
128.7404634346
 40
119.9997137472
100
AcDbArc
 50
255.24451411
 51
258.7403085846
  0
ARC
  5
2BD
100
AcDbEntity
  8
0
100
AcDbCircle
 62
7
  6
BYLAYER
 10
45.5949586239
 20
128.7024695731
 40
119.9612113977
100
AcDbArc
 50
260.3654032057
 51
261.1097129968
  0
ARC
  5
2BE
100
AcDbEntity
  8
0
100
AcDbCircle
 62
7
  6
BYLAYER
 10
45.6012642053
 20
-2.6161282965
 40
120.0000229985
100
AcDbArc
 50
101.2596909094
 51
104.7985640526
  0
CIRCLE
  5
2BF
100
AcDbEntity
  8
0
100
AcDbCircle
 62
7
  6
BYLAYER
 10
45.6012590179
 20
48.0123188424
 40
3.25
  0
ARC
  5
2C0
100
AcDbEntity
  8
0
100
AcDbCircle
 62
7
  6
BYLAYER
 10
62.5837012333
 20
20.2881721768
 40
10.2258684092
100
AcDbArc
 50
270.098381218
 51
278.7920584431
  0
ARC
  5
2C1
100
AcDbEntity
  8
0
100
AcDbCircle
 62
7
  6
BYLAYER
 10
71.2057983549
 20
20.5623188427
 40
4.7302924174
100
AcDbArc
 50
90.0540028422
 51
269.9459932554
  0
ARC
  5
2C2
100
AcDbEntity
  8
0
100
AcDbCircle
 62
7
  6
BYLAYER
 10
75.0661030492
 20
17.0986637707
 40
4.5352439936
100
AcDbArc
 50
285.1555965051
 51
359.6429958004
  0
CIRCLE
  5
2C3
100
AcDbEntity
  8
0
100
AcDbCircle
 62
7
  6
BYLAYER
 10
71.2012590179
 20
20.5623188424
 40
4.2444348419
  0
CIRCLE
  5
2C4
100
AcDbEntity
  8
0
100
AcDbCircle
 62
7
  6
BYLAYER
 10
71.2012590179
 20
20.5623188424
 40
4.1000000037
  0
CIRCLE
  5
2C5
100
AcDbEntity
  8
0
100
AcDbCircle
 62
7
  6
BYLAYER
 10
71.2012590179
 20
20.5623188424
 40
3.818164934
  0
ARC
  5
2C6
100
AcDbEntity
  8
0
100
AcDbCircle
 62
7
  6
BYLAYER
 10
71.2012590179
 20
20.5623188424
 40
3.7946189504
100
AcDbArc
 50
191.3994719441
 51
258.6005280559
  0
ARC
  5
2C7
100
AcDbEntity
  8
0
100
AcDbCircle
 62
7
  6
BYLAYER
 10
71.2012590179
 20
20.5623188424
 40
3.7946189504
100
AcDbArc
 50
281.3994719441
 51
348.6005280559
  0
ARC
  5
2C8
100
AcDbEntity
  8
0
100
AcDbCircle
 62
7
  6
BYLAYER
 10
71.2012590179
 20
20.5623188424
 40
3.7946189504
100
AcDbArc
 50
101.3994719441
 51
168.6005280559
  0
ARC
  5
2C9
100
AcDbEntity
  8
0
100
AcDbCircle
 62
7
  6
BYLAYER
 10
71.2012590179
 20
20.5623188424
 40
3.7946189504
100
AcDbArc
 50
11.3994719441
 51
78.6005280559
  0
ARC
  5
2CA
100
AcDbEntity
  8
0
100
AcDbCircle
 62
7
  6
BYLAYER
 10
71.2012590179
 20
20.5623188424
 40
3.7867300444
100
AcDbArc
 50
78.5764601903
 51
101.4235398097
  0
ARC
  5
2CB
100
AcDbEntity
  8
0
100
AcDbCircle
 62
7
  6
BYLAYER
 10
71.2012590179
 20
20.5623188424
 40
3.7867300444
100
AcDbArc
 50
348.5764601903
 51
11.4235398097
  0
ARC
  5
2CC
100
AcDbEntity
  8
0
100
AcDbCircle
 62
7
  6
BYLAYER
 10
71.2012590179
 20
20.5623188424
 40
3.7867300444
100
AcDbArc
 50
258.5764601903
 51
281.4235398097
  0
ARC
  5
2CD
100
AcDbEntity
  8
0
100
AcDbCircle
 62
7
  6
BYLAYER
 10
71.2012590179
 20
20.5623188424
 40
3.7867300444
100
AcDbArc
 50
168.5764601903
 51
191.4235398097
  0
ARC
  5
2CE
100
AcDbEntity
  8
0
100
AcDbCircle
 62
7
  6
BYLAYER
 10
71.2012590179
 20
20.5623188424
 40
3.5
100
AcDbArc
 50
12.3736251162
 51
77.6263748838
  0
ARC
  5
2CF
100
AcDbEntity
  8
0
100
AcDbCircle
 62
7
  6
BYLAYER
 10
71.2012590179
 20
20.5623188424
 40
3.5
100
AcDbArc
 50
192.3736251162
 51
257.6263748838
  0
ARC
  5
2D0
100
AcDbEntity
  8
0
100
AcDbCircle
 62
7
  6
BYLAYER
 10
71.2012590179
 20
20.5623188424
 40
3.5
100
AcDbArc
 50
282.3736251162
 51
347.6263748838
  0
ARC
  5
2D1
100
AcDbEntity
  8
0
100
AcDbCircle
 62
7
  6
BYLAYER
 10
71.2012590179
 20
20.5623188424
 40
3.5
100
AcDbArc
 50
102.3736251162
 51
167.6263748838
  0
ARC
  5
2D2
100
AcDbEntity
  8
0
100
AcDbCircle
 62
7
  6
BYLAYER
 10
64.1617502187
 20
19.1341786002
 40
0.8000132995
100
AcDbArc
 50
173.3305984841
 51
352.6692620359
  0
ARC
  5
2D3
100
AcDbEntity
  8
0
100
AcDbCircle
 62
7
  6
BYLAYER
 10
72.0523708824
 20
30.5623188424
 40
8.5
100
AcDbArc
 50
90.0
 51
173.0
  0
ARC
  5
2D4
100
AcDbEntity
  8
0
100
AcDbCircle
 62
7
  6
BYLAYER
 10
72.0523723551
 20
30.062317975
 40
7.3000016839
100
AcDbArc
 50
90.0000122912
 51
172.9999811313
  0
ARC
  5
2D5
100
AcDbEntity
  8
0
100
AcDbCircle
 62
7
  6
BYLAYER
 10
72.0523710061
 20
30.0623185161
 40
5.7000003263
100
AcDbArc
 50
90.0000012427
 51
172.9999990896
  0
ARC
  5
2D6
100
AcDbEntity
  8
0
100
AcDbCircle
 62
7
  6
BYLAYER
 10
72.221259315
 20
40.7623190344
 40
5.000000192
100
AcDbArc
 50
270.0000026478
 51
360.0
  0
ARC
  5
2D7
100
AcDbEntity
  8
0
100
AcDbCircle
 62
7
  6
BYLAYER
 10
72.6012595461
 20
40.3623188424
 40
3.0
100
AcDbArc
 50
270.0
 51
360.0
  0
ARC
  5
2D8
100
AcDbEntity
  8
0
100
AcDbCircle
 62
7
  6
BYLAYER
 10
73.5012595461
 20
40.5623188424
 40
1.5
100
AcDbArc
 50
270.0000000885
 51
360.0
  0
CIRCLE
  5
2D9
100
AcDbEntity
  8
0
100
AcDbCircle
 62
7
  6
BYLAYER
 10
45.6012590179
 20
78.0123188424
 40
3.25
  0
ARC
  5
2DA
100
AcDbEntity
  8
0
100
AcDbCircle
 62
7
  6
BYLAYER
 10
45.6023184385
 20
128.7464892836
 40
120.0058419858
100
AcDbArc
 50
258.7403466445
 51
260.3654563512
  0
ARC
  5
2DB
100
AcDbEntity
  8
0
100
AcDbCircle
 62
7
  6
BYLAYER
 10
45.601258995
 20
128.7407436574
 40
120.000000096
100
AcDbArc
 50
281.2596929176
 51
284.7985445432
  0
ARC
  5
2DC
100
AcDbEntity
  8
0
100
AcDbCircle
 62
7
  6
BYLAYER
 10
45.6046366799
 20
128.7200323607
 40
119.9790156254
100
AcDbArc
 50
278.8903699966
 51
279.6345691573
  0
ARC
  5
2DD
100
AcDbEntity
  8
0
100
AcDbCircle
 62
7
  6
BYLAYER
 10
72.2212595461
 20
90.5523693488
 40
5.0
100
AcDbArc
 50
0.0
 51
45.0
  0
ARC
  5
2DE
100
AcDbEntity
  8
0
100
AcDbCircle
 62
7
  6
BYLAYER
 10
72.6012595461
 20
90.7380547737
 40
3.0
100
AcDbArc
 50
0.463421517
 51
45.0
  0
ARC
  5
2DF
100
AcDbEntity
  8
0
100
AcDbCircle
 62
7
  6
BYLAYER
 10
73.5012553594
 20
90.7623160449
 40
1.5000049386
100
AcDbArc
 50
0.0001206301
 51
44.9999624773
  0
ARC
  5
2E0
100
AcDbEntity
  8
0
100
AcDbCircle
 62
7
  6
BYLAYER
 10
62.5785588017
 20
105.7703748813
 40
10.2919689951
100
AcDbArc
 50
81.2358872067
 51
89.8736271198
  0
ARC
  5
2E1
100
AcDbEntity
  8
0
100
AcDbCircle
 62
7
  6
BYLAYER
 10
70.6819132919
 20
107.7238008392
 40
8.5000000841
100
AcDbArc
 50
187.000002686
 51
224.9999999052
  0
ARC
  5
2E2
100
AcDbEntity
  8
0
100
AcDbCircle
 62
7
  6
BYLAYER
 10
70.6819146174
 20
107.2238017404
 40
7.3000016586
100
AcDbArc
 50
187.0000047097
 51
224.9999975339
  0
ARC
  5
2E3
100
AcDbEntity
  8
0
100
AcDbCircle
 62
7
  6
BYLAYER
 10
70.6819185994
 20
107.2238030242
 40
5.7000058065
100
AcDbArc
 50
187.0000321906
 51
224.9999795438
  0
ARC
  5
2E4
100
AcDbEntity
  8
0
100
AcDbCircle
 62
7
  6
BYLAYER
 10
71.2057983549
 20
105.5623188427
 40
4.7302924174
100
AcDbArc
 50
90.0540028422
 51
269.9459932555
  0
ARC
  5
2E5
100
AcDbEntity
  8
0
100
AcDbCircle
 62
7
  6
BYLAYER
 10
75.1032041851
 20
109.0545463816
 40
4.4980548109
100
AcDbArc
 50
359.999933797
 51
75.2054071247
  0
CIRCLE
  5
2E6
100
AcDbEntity
  8
0
100
AcDbCircle
 62
7
  6
BYLAYER
 10
71.2012590179
 20
105.5623188424
 40
4.2444348419
  0
CIRCLE
  5
2E7
100
AcDbEntity
  8
0
100
AcDbCircle
 62
7
  6
BYLAYER
 10
71.2012590179
 20
105.5623188424
 40
4.1000000037
  0
CIRCLE
  5
2E8
100
AcDbEntity
  8
0
100
AcDbCircle
 62
7
  6
BYLAYER
 10
71.2012590179
 20
105.5623188424
 40
3.818164934
  0
ARC
  5
2E9
100
AcDbEntity
  8
0
100
AcDbCircle
 62
7
  6
BYLAYER
 10
71.2012590179
 20
105.5623188424
 40
3.7946189504
100
AcDbArc
 50
101.3994719441
 51
168.6005280559
  0
ARC
  5
2EA
100
AcDbEntity
  8
0
100
AcDbCircle
 62
7
  6
BYLAYER
 10
71.2012590179
 20
105.5623188424
 40
3.7946189504
100
AcDbArc
 50
191.3994719441
 51
258.6005280559
  0
ARC
  5
2EB
100
AcDbEntity
  8
0
100
AcDbCircle
 62
7
  6
BYLAYER
 10
71.2012590179
 20
105.5623188424
 40
3.7946189504
100
AcDbArc
 50
281.3994719441
 51
348.6005280559
  0
ARC
  5
2EC
100
AcDbEntity
  8
0
100
AcDbCircle
 62
7
  6
BYLAYER
 10
71.2012590179
 20
105.5623188424
 40
3.7946189504
100
AcDbArc
 50
11.3994719441
 51
78.6005280559
  0
ARC
  5
2ED
100
AcDbEntity
  8
0
100
AcDbCircle
 62
7
  6
BYLAYER
 10
71.2012590179
 20
105.5623188424
 40
3.7867300444
100
AcDbArc
 50
168.5764601903
 51
191.4235398097
  0
ARC
  5
2EE
100
AcDbEntity
  8
0
100
AcDbCircle
 62
7
  6
BYLAYER
 10
71.2012590179
 20
105.5623188424
 40
3.7867300444
100
AcDbArc
 50
258.5764601903
 51
281.4235398097
  0
ARC
  5
2EF
100
AcDbEntity
  8
0
100
AcDbCircle
 62
7
  6
BYLAYER
 10
71.2012590179
 20
105.5623188424
 40
3.7867300444
100
AcDbArc
 50
348.5764601903
 51
11.4235398097
  0
ARC
  5
2F0
100
AcDbEntity
  8
0
100
AcDbCircle
 62
7
  6
BYLAYER
 10
71.2012590179
 20
105.5623188424
 40
3.7867300444
100
AcDbArc
 50
78.5764601903
 51
101.4235398097
  0
ARC
  5
2F1
100
AcDbEntity
  8
0
100
AcDbCircle
 62
7
  6
BYLAYER
 10
71.2012590179
 20
105.5623188424
 40
3.5
100
AcDbArc
 50
192.3736251162
 51
257.6263748838
  0
ARC
  5
2F2
100
AcDbEntity
  8
0
100
AcDbCircle
 62
7
  6
BYLAYER
 10
71.2012590179
 20
105.5623188424
 40
3.5
100
AcDbArc
 50
282.3736251162
 51
347.6263748838
  0
ARC
  5
2F3
100
AcDbEntity
  8
0
100
AcDbCircle
 62
7
  6
BYLAYER
 10
71.2012590179
 20
105.5623188424
 40
3.5
100
AcDbArc
 50
12.3736251162
 51
77.6263748838
  0
ARC
  5
2F4
100
AcDbEntity
  8
0
100
AcDbCircle
 62
7
  6
BYLAYER
 10
71.2012590179
 20
105.5623188424
 40
3.5
100
AcDbArc
 50
102.3736251162
 51
167.6263748838
  0
ARC
  5
2F5
100
AcDbEntity
  8
0
100
AcDbCircle
 62
7
  6
BYLAYER
 10
64.0841198332
 20
107.6227052071
 40
0.8000002074
100
AcDbArc
 50
7.0000315569
 51
187.0001039831
  0
SPLINE
  5
2F6
100
AcDbEntity
  8
0
100
AcDbSpline
 62
7
  6
BYLAYER
 70
0
 71
3
 72
15
 73
11
 74
0
 42
0.0000001
 43
0.0000001
 44
0.0000000001
 40
0.0
 40
0.0
 40
0.0
 40
0.0
 40
0.1249909322
 40
0.2500023423
 40
0.3749999161
 40
0.500000067
 40
0.6250002313
 40
0.7499977519
 40
0.8750091507
 40
1.0
 40
1.0
 40
1.0
 40
1.0
 10
75.9391516242
 20
20.5623189802
 30
0.0
 10
75.9381898276
 20
20.8716770598
 30
0.0
 10
75.8778761563
 20
21.492094432
 30
0.0
 10
75.6062312776
 20
22.3857238889
 30
0.0
 10
75.1651622998
 20
23.2092229918
 30
0.0
 10
74.5721654804
 20
23.930987774
 30
0.0
 10
73.8494642928
 20
24.5228428529
 30
0.0
 10
73.0252683628
 20
24.9626084145
 30
0.0
 10
72.1312121144
 20
25.2328409205
 30
0.0
 10
71.5106989247
 20
25.2921762108
 30
0.0
 10
71.2013398987
 20
25.2926373759
 30
0.0
  0
SPLINE
  5
2F7
100
AcDbEntity
  8
0
100
AcDbSpline
 62
7
  6
BYLAYER
 70
0
 71
3
 72
15
 73
11
 74
0
 42
0.0000001
 43
0.0000001
 44
0.0000000001
 40
0.0
 40
0.0
 40
0.0
 40
0.0
 40
0.1249908105
 40
0.2500022385
 40
0.3749997491
 40
0.4999999515
 40
0.625000142
 40
0.7499976933
 40
0.8750091225
 40
1.0
 40
1.0
 40
1.0
 40
1.0
 10
71.2013395766
 20
15.8320003096
 30
0.0
 10
71.5106985441
 20
15.8324565566
 30
0.0
 10
72.1312120151
 20
15.8917974989
 30
0.0
 10
73.0252676018
 20
16.1620295432
 30
0.0
 10
73.8494644344
 20
16.6017944597
 30
0.0
 10
74.5721652977
 20
17.1936502757
 30
0.0
 10
75.1651628621
 20
17.915414696
 30
0.0
 10
75.6062309723
 20
18.7389147962
 30
0.0
 10
75.8778753659
 20
19.6325433587
 30
0.0
 10
75.9381955788
 20
20.2529609877
 30
0.0
 10
75.9391516242
 20
20.5623189802
 30
0.0
  0
SPLINE
  5
2F8
100
AcDbEntity
  8
0
100
AcDbSpline
 62
7
  6
BYLAYER
 70
0
 71
3
 72
15
 73
11
 74
0
 42
0.0000001
 43
0.0000001
 44
0.0000000001
 40
0.0
 40
0.0
 40
0.0
 40
0.0
 40
0.1249908105
 40
0.2500022385
 40
0.3749997491
 40
0.4999999515
 40
0.625000142
 40
0.7499976933
 40
0.8750091225
 40
1.0
 40
1.0
 40
1.0
 40
1.0
 10
71.2013395766
 20
100.8320003096
 30
0.0
 10
71.5106985441
 20
100.8324565566
 30
0.0
 10
72.1312120151
 20
100.8917974989
 30
0.0
 10
73.0252676018
 20
101.1620295432
 30
0.0
 10
73.8494644344
 20
101.6017944597
 30
0.0
 10
74.5721652977
 20
102.1936502757
 30
0.0
 10
75.1651628621
 20
102.915414696
 30
0.0
 10
75.6062309723
 20
103.7389147962
 30
0.0
 10
75.8778753659
 20
104.6325433587
 30
0.0
 10
75.9381955788
 20
105.2529609877
 30
0.0
 10
75.9391516242
 20
105.5623189802
 30
0.0
  0
SPLINE
  5
2F9
100
AcDbEntity
  8
0
100
AcDbSpline
 62
7
  6
BYLAYER
 70
0
 71
3
 72
15
 73
11
 74
0
 42
0.0000001
 43
0.0000001
 44
0.0000000001
 40
0.0
 40
0.0
 40
0.0
 40
0.0
 40
0.1249909322
 40
0.2500023423
 40
0.3749999161
 40
0.500000067
 40
0.6250002313
 40
0.7499977519
 40
0.8750091507
 40
1.0
 40
1.0
 40
1.0
 40
1.0
 10
75.9391516242
 20
105.5623189802
 30
0.0
 10
75.9381898276
 20
105.8716770598
 30
0.0
 10
75.8778761563
 20
106.492094432
 30
0.0
 10
75.6062312776
 20
107.3857238889
 30
0.0
 10
75.1651622998
 20
108.2092229918
 30
0.0
 10
74.5721654804
 20
108.930987774
 30
0.0
 10
73.8494642928
 20
109.5228428529
 30
0.0
 10
73.0252683628
 20
109.9626084145
 30
0.0
 10
72.1312121144
 20
110.2328409205
 30
0.0
 10
71.5106989247
 20
110.2921762108
 30
0.0
 10
71.2013398987
 20
110.2926373759
 30
0.0
  0
ELLIPSE
  5
2FA
100
AcDbEntity
  8
0
100
AcDbEllipse
 62
7
  6
BYLAYER
 10
45.6013069701
 20
9.8040405398
 30
0.0
 11
15.0000479791
 21
0.0
 31
0.0
 40
0.0195392528
 41
1.0784496955
 42
2.0631429581
  0
ELLIPSE
  5
2FB
100
AcDbEntity
  8
0
100
AcDbEllipse
 62
7
  6
BYLAYER
 10
45.6012110657
 20
116.3165700017
 30
0.0
 11
15.0000479791
 21
0.0
 31
0.0
 40
0.019420899
 41
-2.0807393495
 42
-1.0608533041
  0
ELLIPSE
  5
2FC
100
AcDbEntity
  8
0
100
AcDbEllipse
 62
7
  6
BYLAYER
 10
45.6013069701
 20
10.4076097786
 30
0.0
 11
15.0000479791
 21
0.0
 31
0.0
 40
0.0261219267
 41
-1.0784496955
 42
-0.0471451343
  0
ELLIPSE
  5
2FD
100
AcDbEntity
  8
0
100
AcDbEllipse
 62
7
  6
BYLAYER
 10
45.6013069701
 20
10.4076097786
 30
0.0
 11
15.0000479791
 21
0.0
 31
0.0
 40
0.0261219267
 41
-3.141591347
 42
-2.0631429581
  0
ELLIPSE
  5
2FE
100
AcDbEntity
  8
0
100
AcDbEllipse
 62
7
  6
BYLAYER
 10
45.6012110657
 20
115.7187716319
 30
0.0
 11
15.0000479791
 21
0.0
 31
0.0
 40
0.0262417512
 41
2.0807393495
 42
3.0944475193
  0
ELLIPSE
  5
2FF
100
AcDbEntity
  8
0
100
AcDbEllipse
 62
7
  6
BYLAYER
 10
45.6012110657
 20
115.7187716319
 30
0.0
 11
15.0000479791
 21
0.0
 31
0.0
 40
0.0262417512
 41
0.0000013066
 42
1.0608533041
  0
ELLIPSE
  5
300
100
AcDbEntity
  8
0
100
AcDbEllipse
 62
7
  6
BYLAYER
 10
-63762.1463607026
 20
12.7870715468
 30
0.0
 11
63839.5030602057
 21
0.0
 31
0.0
 40
0.0000313288
 41
-0.0222994363
 42
-0.0053606543
  0
ENDSEC
  0
SECTION
  2
OBJECTS
  0
DICTIONARY
  5
C
100
AcDbDictionary
280
0
281
1
  3
ACAD_GROUP
350
D
  3
ACAD_MLINESTYLE
350
17
  3
ACAD_LAYOUT
350
1A
  3
ACAD_PLOTSETTINGS
350
19
  3
ACAD_PLOTSTYLENAME
350
E
  0
DICTIONARY
  5
D
102
{ACAD_REACTORS
330
C
102
}
100
AcDbDictionary
280
0
281
1
  0
ACDBDICTIONARYWDFLT
  5
E
102
{ACAD_REACTORS
330
C
102
}
100
AcDbDictionary
281
1
  3
Normal
350
F
100
AcDbDictionaryWithDefault
340
F
  0
DICTIONARY
  5
17
102
{ACAD_REACTORS
330
C
102
}
100
AcDbDictionary
280
0
281
1
  3
Standard
350
18
  0
DICTIONARY
  5
19
102
{ACAD_REACTORS
330
C
102
}
100
AcDbDictionary
281
1
  0
DICTIONARY
  5
1A
102
{ACAD_REACTORS
330
C
102
}
100
AcDbDictionary
281
1
  3
Model
350
301
  3
Layout1
350
302
  0
ACDBPLACEHOLDER
  5
F
102
{ACAD_REACTORS
330
E
102
}
  0
MLINESTYLE
  5
18
102
{ACAD_REACTORS
330
17
102
}
100
AcDbMlineStyle
  2
STANDARD
 70
0
  3

 62
256
 51
90.0
 52
90.0
 71
2
 49
0.5
 62
256
  6
BYLAYER
 49
-0.5
 62
256
  6
BYLAYER
  0
LAYOUT
  5
301
102
{ACAD_REACTORS
330
1A
102
}
100
AcDbPlotSettings
  1

  2
none_device
  4

  6

 40
0.0
 41
0.0
 42
0.0
 43
0.0
 44
210.0
 45
297.0
 46
0.0
 47
0.0
 48
0.0
 49
0.0
140
0.0
141
0.0
142
1.0
143
1.0
 70
1024
 72
1
 73
0
 74
0
  7

 75
0
147
1.0
148
0.0
149
0.0
100
AcDbLayout
  1
Model
 70
0
 71
0
 10
0.0
 20
0.0
 11
210.0
 21
297.0
 12
0.0
 22
0.0
 32
0.0
 14
0.0
 24
0.0
 34
0.0
 15
0.0
 25
0.0
 35
0.0
146
0.0
 13
0.0
 23
0.0
 33
0.0
 16
1.0
 26
0.0
 36
0.0
 17
0.0
 27
1.0
 37
0.0
 76
0
330
210
345
0
346
0
  0
LAYOUT
  5
302
102
{ACAD_REACTORS
330
1A
102
}
100
AcDbPlotSettings
  1

  2
none_device
  4

  6

 40
0.0
 41
0.0
 42
0.0
 43
0.0
 44
210.0
 45
297.0
 46
0.0
 47
0.0
 48
0.0
 49
0.0
140
0.0
141
0.0
142
1.0
143
1.0
 70
0
 72
1
 73
0
 74
0
  7

 75
0
147
1.0
148
0.0
149
0.0
100
AcDbLayout
  1
Layout1
 70
0
 71
1
 10
0.0
 20
0.0
 11
210.0
 21
297.0
 12
0.0
 22
0.0
 32
0.0
 14
0.0
 24
0.0
 34
0.0
 15
0.0
 25
0.0
 35
0.0
146
0.0
 13
0.0
 23
0.0
 33
0.0
 16
1.0
 26
0.0
 36
0.0
 17
0.0
 27
1.0
 37
0.0
 76
0
330
211
345
0
346
0
  0
ENDSEC
  0
EOF
