999
DXF file: C:\Users\sesa63760\Dev\_Creo\CAD\MCADID0004239_3D-CAD\drw0001_2.dxf
999
Pro/ENGINEER 2019471 by Parametric Technology Corporation
  0
SECTION
  2
HEADER
  9
$ACADVER
  1
AC1024
  9
$DWGCODEPAGE
  3
ANSI_1252
  9
$EXTMAX
 10
322.9254112886
 20
456.7087959653
 30
0.0
  9
$EXTMIN
 10
0.0
 20
0.0
 30
0.0
  9
$LIMMIN
 10
0.0
 20
0.0
  9
$LIMMAX
 10
322.9254112886
 20
456.7087959653
  9
$VIEWCTR
 10
161.4627056443
 20
228.3543979827
  9
$VIEWSIZE
 40
456.7087959653
  9
$CLAYER
  8
0
  9
$LTSCALE
 40
29.7706474407
  9
$CELTYPE
  6
BYLAYER
  9
$DIMSCALE
 40
1.0
  9
$DIMASZ
 40
3.8443501344
  9
$DIMEXO
 40
1.0
  9
$DIMDLI
 40
20.568810959
  9
$DIMEXE
 40
1.0
  9
$DIMCEN
 40
4.8715604903
  9
$DIMLFAC
 40
1.0
  9
$DIMBLK
  1
_FILLED
  9
$DIMALT
 70
0
  9
$DIMALTF
 40
0.0393700787
  9
$DIMTXT
 40
5.3820901881
  9
$DIMTOL
 70
1
  9
$DIMLIM
 70
0
  9
$DIMTFAC
 40
1.0
  9
$DIMTP
 40
0.01
  9
$DIMTM
 40
0.01
  9
$DIMGAP
 40
0.625
  9
$DIMDSEP
 70
46
  9
$AUNITS
 70
0
  9
$PDMODE
 70
3
  9
$PDSIZE
 40
0.3125
  9
$HANDSEED
  5
436
  9
$TILEMODE
 70
1
  9
$MEASUREMENT
 70
1
  9
$INSUNITS
 70
4
  0
ENDSEC
  0
SECTION
  2
CLASSES
  0
CLASS
  1
ACDBDICTIONARYWDFLT
  2
AcDbDictionaryWithDefault
  3
AutoCAD 2000
 90
0
 91
1
280
0
281
0
  0
CLASS
  1
ACDBPLACEHOLDER
  2
AcDbPlaceHolder
  3
AutoCAD 2000
 90
0
 91
1
280
0
281
0
  0
CLASS
  1
LAYOUT
  2
AcDbLayout
  3
AutoCAD 2000
 90
0
 91
0
280
0
281
0
  0
ENDSEC
  0
SECTION
  2
TABLES
  0
TABLE
  2
VPORT
  5
8
100
AcDbSymbolTable
 70
2
  0
VPORT
  5
1F4
100
AcDbSymbolTableRecord
100
AcDbViewportTableRecord
  2
*ACTIVE
 70
0
 10
0.0
 20
0.0
 11
1.0
 21
1.0
 12
161.4627056443
 22
228.3543979827
 13
0.0
 23
0.0
 14
1.0
 24
1.0
 15
0.0
 25
0.0
 16
0.0
 26
0.0
 36
1.0
 17
0.0
 27
0.0
 37
0.0
 40
456.7087959653
 41
0.7070707071
 42
50.0
 43
0.0
 44
0.0
 50
0.0
 51
0.0
 71
0
 72
100
 73
1
 74
1
 75
0
 76
0
 77
0
 78
0
  0
ENDTAB
  0
TABLE
  2
LTYPE
  5
5
100
AcDbSymbolTable
 70
6
  0
LTYPE
  5
14
100
AcDbSymbolTableRecord
100
AcDbLinetypeTableRecord
  2
BYBLOCK
 70
0
  3

 72
65
 73
0
 40
0.0
  0
LTYPE
  5
15
100
AcDbSymbolTableRecord
100
AcDbLinetypeTableRecord
  2
BYLAYER
 70
0
  3

 72
65
 73
0
 40
0.0
  0
LTYPE
  5
16
100
AcDbSymbolTableRecord
100
AcDbLinetypeTableRecord
  2
CONTINUOUS
 70
64
  3
Solid line
 72
65
 73
0
 40
0.0
  0
LTYPE
  5
1F5
100
AcDbSymbolTableRecord
100
AcDbLinetypeTableRecord
  2
CENTER
 70
64
  3
____ _ ____ _ ____ _ ____ _ ____ _ ____ _ ____
 72
65
 73
4
 40
0.6
 49
0.375
 74
0
 49
-0.075
 74
0
 49
0.075
 74
0
 49
-0.075
 74
0
  0
LTYPE
  5
1F6
100
AcDbSymbolTableRecord
100
AcDbLinetypeTableRecord
  2
HIDDEN
 70
64
  3
- - - - - - - - - - - - - - - - - - - -
 72
65
 73
2
 40
0.2
 49
0.1
 74
0
 49
-0.1
 74
0
  0
LTYPE
  5
1F7
100
AcDbSymbolTableRecord
100
AcDbLinetypeTableRecord
  2
PHANTOM
 70
64
  3
_____ _ _ _____ _ _ _____ _ _ _____
 72
65
 73
6
 40
0.8
 49
0.45
 74
0
 49
-0.05
 74
0
 49
0.1
 74
0
 49
-0.05
 74
0
 49
0.1
 74
0
 49
-0.05
 74
0
  0
LTYPE
  5
1F8
100
AcDbSymbolTableRecord
100
AcDbLinetypeTableRecord
  2
DOT
 70
64
  3
. . . . . . . . . . . . . . . . . . . .
 72
65
 73
2
 40
0.2
 49
0.1
 74
0
 49
-0.1
 74
0
  0
LTYPE
  5
1F9
100
AcDbSymbolTableRecord
100
AcDbLinetypeTableRecord
  2
DASHED
 70
64
  3
- - - - - - - - - - - - - - - - - - - -
 72
65
 73
2
 40
0.2
 49
0.1
 74
0
 49
-0.1
 74
0
  0
ENDTAB
  0
TABLE
  2
LAYER
  5
2
100
AcDbSymbolTable
 70
36
  0
LAYER
  5
10
100
AcDbSymbolTableRecord
100
AcDbLayerTableRecord
  2
0
 70
0
 62
7
  6
CONTINUOUS
370
-3
390
F
  0
LAYER
  5
1FA
100
AcDbSymbolTableRecord
100
AcDbLayerTableRecord
  2
DEFAULT_1
 70
0
 62
7
  6
CENTER
370
-3
390
F
  0
LAYER
  5
1FB
100
AcDbSymbolTableRecord
100
AcDbLayerTableRecord
  2
DEFAULT_2
 70
0
 62
7
  6
HIDDEN
370
-3
390
F
  0
LAYER
  5
1FC
100
AcDbSymbolTableRecord
100
AcDbLayerTableRecord
  2
DEFAULT_3
 70
0
 62
7
  6
PHANTOM
370
-3
390
F
  0
LAYER
  5
1FD
100
AcDbSymbolTableRecord
100
AcDbLayerTableRecord
  2
00_COMPONENTS
 70
0
 62
7
  6
CONTINUOUS
370
-3
390
F
  0
LAYER
  5
1FE
100
AcDbSymbolTableRecord
100
AcDbLayerTableRecord
  2
01_1_DEFAULT_DATUMS
 70
0
 62
7
  6
CONTINUOUS
370
-3
390
F
  0
LAYER
  5
1FF
100
AcDbSymbolTableRecord
100
AcDbLayerTableRecord
  2
01_PLANES
 70
0
 62
7
  6
CONTINUOUS
370
-3
390
F
  0
LAYER
  5
200
100
AcDbSymbolTableRecord
100
AcDbLayerTableRecord
  2
02_COORD_SYS
 70
0
 62
7
  6
CONTINUOUS
370
-3
390
F
  0
LAYER
  5
201
100
AcDbSymbolTableRecord
100
AcDbLayerTableRecord
  2
03_AXES
 70
0
 62
7
  6
CONTINUOUS
370
-3
390
F
  0
LAYER
  5
202
100
AcDbSymbolTableRecord
100
AcDbLayerTableRecord
  2
04_POINTS
 70
0
 62
7
  6
CONTINUOUS
370
-3
390
F
  0
LAYER
  5
203
100
AcDbSymbolTableRecord
100
AcDbLayerTableRecord
  2
05_CURVES
 70
0
 62
7
  6
CONTINUOUS
370
-3
390
F
  0
LAYER
  5
204
100
AcDbSymbolTableRecord
100
AcDbLayerTableRecord
  2
06_SURFS
 70
0
 62
7
  6
CONTINUOUS
370
-3
390
F
  0
LAYER
  5
205
100
AcDbSymbolTableRecord
100
AcDbLayerTableRecord
  2
07_COSMETICS
 70
0
 62
7
  6
CONTINUOUS
370
-3
390
F
  0
LAYER
  5
206
100
AcDbSymbolTableRecord
100
AcDbLayerTableRecord
  2
10_NOTES
 70
0
 62
7
  6
CONTINUOUS
370
-3
390
F
  0
LAYER
  5
207
100
AcDbSymbolTableRecord
100
AcDbLayerTableRecord
  2
11_NOTES_PUB
 70
0
 62
7
  6
CONTINUOUS
370
-3
390
F
  0
LAYER
  5
208
100
AcDbSymbolTableRecord
100
AcDbLayerTableRecord
  2
13_REF_GTOL
 70
0
 62
7
  6
CONTINUOUS
370
-3
390
F
  0
LAYER
  5
209
100
AcDbSymbolTableRecord
100
AcDbLayerTableRecord
  2
16_MISC
 70
0
 62
7
  6
CONTINUOUS
370
-3
390
F
  0
LAYER
  5
20A
100
AcDbSymbolTableRecord
100
AcDbLayerTableRecord
  2
17_NO_PRINT
 70
0
 62
7
  6
CONTINUOUS
370
-3
390
F
  0
LAYER
  5
20B
100
AcDbSymbolTableRecord
100
AcDbLayerTableRecord
  2
18_DATUM_CAMS_JOINTS
 70
0
 62
7
  6
CONTINUOUS
370
-3
390
F
  0
LAYER
  5
20C
100
AcDbSymbolTableRecord
100
AcDbLayerTableRecord
  2
19_DATUM_FUNCTIONAL
 70
0
 62
7
  6
CONTINUOUS
370
-3
390
F
  0
LAYER
  5
20D
100
AcDbSymbolTableRecord
100
AcDbLayerTableRecord
  2
20_DATUM_KINEMATIC_SCHEME
 70
0
 62
7
  6
CONTINUOUS
370
-3
390
F
  0
LAYER
  5
20E
100
AcDbSymbolTableRecord
100
AcDbLayerTableRecord
  2
3
 70
0
 62
7
  6
CONTINUOUS
370
-3
390
F
  0
LAYER
  5
20F
100
AcDbSymbolTableRecord
100
AcDbLayerTableRecord
  2
4
 70
0
 62
7
  6
CONTINUOUS
370
-3
390
F
  0
ENDTAB
  0
TABLE
  2
STYLE
  5
3
100
AcDbSymbolTable
 70
1
  0
STYLE
  5
11
100
AcDbSymbolTableRecord
100
AcDbTextStyleTableRecord
  2
STANDARD
 70
0
 40
0.0
 41
1.0
 50
0.0
 71
0
 42
0.2
  3
ARIAL.TTF
  4

  0
STYLE
  5
210
100
AcDbSymbolTableRecord
100
AcDbTextStyleTableRecord
  2
TEXTSTYLE_1
 70
0
 40
0.0
 41
0.8
 50
0.0
 71
0
 42
0.2
  3
gdt
  4

  0
ENDTAB
  0
TABLE
  2
VIEW
  5
6
100
AcDbSymbolTable
 70
0
  0
ENDTAB
  0
TABLE
  2
UCS
  5
7
100
AcDbSymbolTable
 70
0
  0
ENDTAB
  0
TABLE
  2
APPID
  5
9
100
AcDbSymbolTable
 70
1
  0
APPID
  5
211
100
AcDbSymbolTableRecord
100
AcDbRegAppTableRecord
  2
ACAD
 70
0
  0
ENDTAB
  0
TABLE
  2
BLOCK_RECORD
  5
1
100
AcDbSymbolTable
 70
0
  0
BLOCK_RECORD
  5
212
100
AcDbSymbolTableRecord
100
AcDbBlockTableRecord
  2
*Model_Space
  0
BLOCK_RECORD
  5
213
100
AcDbSymbolTableRecord
100
AcDbBlockTableRecord
  2
*Paper_Space
  0
BLOCK_RECORD
  5
214
100
AcDbSymbolTableRecord
100
AcDbBlockTableRecord
  2
_FILLED
  0
ENDTAB
  0
TABLE
  2
DIMSTYLE
  5
A
100
AcDbSymbolTable
 70
1
100
AcDbDimStyleTable
 71
0
  0
DIMSTYLE
105
215
100
AcDbSymbolTableRecord
100
AcDbDimStyleTableRecord
  2
STANDARD
 70
0
  3

  4

 40
1.0
 41
3.8443501344
 42
1.0
 43
0.38
 44
1.0
 45
0.0
 46
0.0
 47
0.01
 48
0.01
140
5.3820901881
141
0.09
142
0.0
143
25.4
144
1.0
145
0.0
146
1.0
147
0.625
 71
1
 72
0
 73
0
 74
0
 75
0
 76
0
 77
1
 78
8
 79
2
170
0
171
1
172
0
173
0
174
0
175
0
176
0
177
0
178
0
270
2
179
2
271
2
272
2
273
2
274
2
275
0
280
0
281
0
282
0
283
1
284
8
285
0
286
0
287
3
288
0
340
11
278
46
341
214
342
214
343
214
344
214
  0
ENDTAB
  0
ENDSEC
  0
SECTION
  2
BLOCKS
  0
BLOCK
  5
20
100
AcDbEntity
  8
0
100
AcDbBlockBegin
  2
*Model_Space
 70
0
 10
0.0
 20
0.0
 30
0.0
  3
*Model_Space
  1

  0
ENDBLK
  5
21
100
AcDbEntity
  8
0
100
AcDbBlockEnd
  0
BLOCK
  5
1C
100
AcDbEntity
  8
0
100
AcDbBlockBegin
  2
*Paper_Space
 70
0
 10
0.0
 20
0.0
 30
0.0
  3
*Paper_Space
  1

  0
ENDBLK
  5
1D
100
AcDbEntity
  8
0
100
AcDbBlockEnd
  0
BLOCK
  5
216
100
AcDbEntity
  8
0
100
AcDbBlockBegin
  2
_FILLED
 70
64
 10
0.0
 20
0.0
  3
_FILLED
  1

  0
SOLID
  5
217
100
AcDbEntity
  8
0
  6
BYBLOCK
 62
0
100
AcDbTrace
 10
0.0
 20
0.0
 11
-1.0
 21
0.25
 12
-1.0
 22
-0.25
 13
-1.0
 23
-0.25
  0
ENDBLK
  5
218
100
AcDbEntity
  8
0
  6
BYBLOCK
 62
0
100
AcDbBlockEnd
  0
ENDSEC
  0
SECTION
  2
ENTITIES
  0
LINE
  5
219
100
AcDbEntity
  8
0
100
AcDbLine
 62
7
  6
BYLAYER
 10
80.4680491306
 20
424.5658866342
 11
79.9680511092
 21
424.0658887927
  0
LINE
  5
21A
100
AcDbEntity
  8
0
100
AcDbLine
 62
7
  6
BYLAYER
 10
78.7180511092
 20
420.5658866342
 11
78.2180511092
 21
420.0658866342
  0
LINE
  5
21B
100
AcDbEntity
  8
0
100
AcDbLine
 62
7
  6
BYLAYER
 10
266.4174345191
 20
30.4658866342
 11
260.8180112319
 21
30.4658866342
  0
LINE
  5
21C
100
AcDbEntity
  8
0
100
AcDbLine
 62
7
  6
BYLAYER
 10
224.4179095621
 20
30.4658866342
 11
218.8175361948
 21
30.4658866342
  0
LINE
  5
21D
100
AcDbEntity
  8
0
100
AcDbLine
 62
7
  6
BYLAYER
 10
118.7683036306
 20
30.4658866342
 11
113.1688803433
 21
30.4658866342
  0
LINE
  5
21E
100
AcDbEntity
  8
0
100
AcDbLine
 62
7
  6
BYLAYER
 10
76.7687786736
 20
30.4658866342
 11
71.1684053063
 21
30.4658866342
  0
LINE
  5
21F
100
AcDbEntity
  8
0
100
AcDbLine
 62
7
  6
BYLAYER
 10
70.9687789202
 20
30.5657764957
 11
71.7959847592
 21
30.5657764957
  0
LINE
  5
220
100
AcDbEntity
  8
0
100
AcDbLine
 62
7
  6
BYLAYER
 10
77.1415730812
 20
30.5657764957
 11
112.7959847563
 21
30.5657764957
  0
LINE
  5
221
100
AcDbEntity
  8
0
100
AcDbLine
 62
7
  6
BYLAYER
 10
118.1415730783
 20
30.5657764957
 11
118.9687789202
 21
30.5657764957
  0
LINE
  5
222
100
AcDbEntity
  8
0
100
AcDbLine
 62
7
  6
BYLAYER
 10
218.6179098087
 20
30.5657764957
 11
219.4451156478
 21
30.5657764957
  0
LINE
  5
223
100
AcDbEntity
  8
0
100
AcDbLine
 62
7
  6
BYLAYER
 10
224.7907039697
 20
30.5657764957
 11
260.4451156449
 21
30.5657764957
  0
LINE
  5
224
100
AcDbEntity
  8
0
100
AcDbLine
 62
7
  6
BYLAYER
 10
265.7907039668
 20
30.5657764957
 11
266.6179098087
 21
30.5657764957
  0
LINE
  5
225
100
AcDbEntity
  8
0
100
AcDbLine
 62
7
  6
BYLAYER
 10
246.759357989
 20
31.0657764957
 11
238.4774261545
 21
31.0657764957
  0
LINE
  5
226
100
AcDbEntity
  8
0
100
AcDbLine
 62
7
  6
BYLAYER
 10
99.1102271005
 20
31.0657764957
 11
90.828295266
 21
31.0657764957
  0
LINE
  5
227
100
AcDbEntity
  8
0
100
AcDbLine
 62
7
  6
BYLAYER
 10
266.4179098058
 20
31.4658866342
 11
259.8179098058
 21
31.4658866342
  0
LINE
  5
228
100
AcDbEntity
  8
0
100
AcDbLine
 62
7
  6
BYLAYER
 10
225.4179098087
 20
31.4658866342
 11
218.8179098087
 21
31.4658866342
  0
LINE
  5
229
100
AcDbEntity
  8
0
100
AcDbLine
 62
7
  6
BYLAYER
 10
118.7687789173
 20
31.4658866342
 11
112.1687789173
 21
31.4658866342
  0
LINE
  5
22A
100
AcDbEntity
  8
0
100
AcDbLine
 62
7
  6
BYLAYER
 10
77.7687789202
 20
31.4658866342
 11
71.1687789202
 21
31.4658866342
  0
LINE
  5
22B
100
AcDbEntity
  8
0
100
AcDbLine
 62
7
  6
BYLAYER
 10
267.6179098087
 20
31.5657764957
 11
266.4179098058
 21
31.5657764957
  0
LINE
  5
22C
100
AcDbEntity
  8
0
100
AcDbLine
 62
7
  6
BYLAYER
 10
259.8179098058
 20
31.5657764957
 11
246.6179098087
 21
31.5657765023
  0
LINE
  5
22D
100
AcDbEntity
  8
0
100
AcDbLine
 62
7
  6
BYLAYER
 10
238.6179098087
 20
31.5657764957
 11
225.4179098087
 21
31.5657764957
  0
LINE
  5
22E
100
AcDbEntity
  8
0
100
AcDbLine
 62
7
  6
BYLAYER
 10
218.8179098087
 20
31.5657764957
 11
217.6179098087
 21
31.5657764957
  0
LINE
  5
22F
100
AcDbEntity
  8
0
100
AcDbLine
 62
7
  6
BYLAYER
 10
119.9687789202
 20
31.5657764957
 11
118.7687789173
 21
31.5657764957
  0
LINE
  5
230
100
AcDbEntity
  8
0
100
AcDbLine
 62
7
  6
BYLAYER
 10
112.1687789173
 20
31.5657764957
 11
98.9687789202
 21
31.5657765023
  0
LINE
  5
231
100
AcDbEntity
  8
0
100
AcDbLine
 62
7
  6
BYLAYER
 10
90.9687789202
 20
31.5657764957
 11
77.7687789202
 21
31.5657764957
  0
LINE
  5
232
100
AcDbEntity
  8
0
100
AcDbLine
 62
7
  6
BYLAYER
 10
71.1687789202
 20
31.5657764957
 11
69.9687789202
 21
31.5657764957
  0
LINE
  5
233
100
AcDbEntity
  8
0
100
AcDbLine
 62
7
  6
BYLAYER
 10
69.9687789202
 20
32.5657764268
 11
71.1687789202
 21
32.5657764957
  0
LINE
  5
234
100
AcDbEntity
  8
0
100
AcDbLine
 62
7
  6
BYLAYER
 10
77.7687789202
 20
32.5657764957
 11
78.9687789202
 21
32.5657764267
  0
LINE
  5
235
100
AcDbEntity
  8
0
100
AcDbLine
 62
7
  6
BYLAYER
 10
110.9687789202
 20
32.5657764268
 11
112.1687789173
 21
32.5657764957
  0
LINE
  5
236
100
AcDbEntity
  8
0
100
AcDbLine
 62
7
  6
BYLAYER
 10
118.7687789173
 20
32.5657764957
 11
119.9687789202
 21
32.5657764267
  0
LINE
  5
237
100
AcDbEntity
  8
0
100
AcDbLine
 62
7
  6
BYLAYER
 10
217.6179098087
 20
32.5657764268
 11
218.8179098087
 21
32.5657764957
  0
LINE
  5
238
100
AcDbEntity
  8
0
100
AcDbLine
 62
7
  6
BYLAYER
 10
225.4179098087
 20
32.5657764957
 11
226.6179098087
 21
32.5657764267
  0
LINE
  5
239
100
AcDbEntity
  8
0
100
AcDbLine
 62
7
  6
BYLAYER
 10
258.6179098087
 20
32.5657764268
 11
259.8179098058
 21
32.5657764957
  0
LINE
  5
23A
100
AcDbEntity
  8
0
100
AcDbLine
 62
7
  6
BYLAYER
 10
266.4179098058
 20
32.5657764957
 11
267.6179098087
 21
32.5657764267
  0
LINE
  5
23B
100
AcDbEntity
  8
0
100
AcDbLine
 62
7
  6
BYLAYER
 10
70.4687789202
 20
33.0657764957
 11
77.4687789202
 21
33.0657764957
  0
LINE
  5
23C
100
AcDbEntity
  8
0
100
AcDbLine
 62
7
  6
BYLAYER
 10
112.4687789202
 20
33.0657764957
 11
119.4687789202
 21
33.0657764957
  0
LINE
  5
23D
100
AcDbEntity
  8
0
100
AcDbLine
 62
7
  6
BYLAYER
 10
218.1179098087
 20
33.0657764957
 11
225.1179098087
 21
33.0657764957
  0
LINE
  5
23E
100
AcDbEntity
  8
0
100
AcDbLine
 62
7
  6
BYLAYER
 10
260.1179098087
 20
33.0657764957
 11
267.1179098087
 21
33.0657764957
  0
LINE
  5
23F
100
AcDbEntity
  8
0
100
AcDbLine
 62
7
  6
BYLAYER
 10
267.6179098087
 20
33.5657764957
 11
260.1179098087
 21
33.5657764957
  0
LINE
  5
240
100
AcDbEntity
  8
0
100
AcDbLine
 62
7
  6
BYLAYER
 10
225.1179098087
 20
33.5657764957
 11
217.6179098087
 21
33.5657764957
  0
LINE
  5
241
100
AcDbEntity
  8
0
100
AcDbLine
 62
7
  6
BYLAYER
 10
119.9687789202
 20
33.5657764957
 11
112.4687789202
 21
33.5657764957
  0
LINE
  5
242
100
AcDbEntity
  8
0
100
AcDbLine
 62
7
  6
BYLAYER
 10
77.4687789202
 20
33.5657764957
 11
69.9687789202
 21
33.5657764957
  0
LINE
  5
243
100
AcDbEntity
  8
0
100
AcDbLine
 62
7
  6
BYLAYER
 10
96.7180511092
 20
420.5658866342
 11
96.2180511092
 21
420.0658866342
  0
LINE
  5
244
100
AcDbEntity
  8
0
100
AcDbLine
 62
7
  6
BYLAYER
 10
69.9687789202
 20
48.0657764957
 11
119.9687789202
 21
48.0657764957
  0
LINE
  5
245
100
AcDbEntity
  8
0
100
AcDbLine
 62
7
  6
BYLAYER
 10
217.6179098087
 20
48.0657764957
 11
267.6179098087
 21
48.0657764957
  0
LINE
  5
246
100
AcDbEntity
  8
3
100
AcDbLine
 62
7
  6
BYLAYER
 10
267.6174347657
 20
48.0658994427
 11
217.6174347657
 21
48.0658994427
  0
LINE
  5
247
100
AcDbEntity
  8
3
100
AcDbLine
 62
7
  6
BYLAYER
 10
119.9683038772
 20
48.0658994427
 11
69.9683038772
 21
48.0658994427
  0
LINE
  5
248
100
AcDbEntity
  8
4
100
AcDbLine
 62
7
  6
BYLAYER
 10
59.7795581937
 20
75.4140617574
 11
104.7795581937
 21
75.4140617574
  0
LINE
  5
249
100
AcDbEntity
  8
3
100
AcDbLine
 62
7
  6
BYLAYER
 10
207.4286890822
 20
75.4140617574
 11
252.4286890822
 21
75.4140617574
  0
LINE
  5
24A
100
AcDbEntity
  8
3
100
AcDbLine
 62
7
  6
BYLAYER
 10
210.4286890822
 20
80.4140617574
 11
207.4286890822
 21
80.4140617574
  0
LINE
  5
24B
100
AcDbEntity
  8
4
100
AcDbLine
 62
7
  6
BYLAYER
 10
62.7795581937
 20
80.4140617574
 11
59.7795581937
 21
80.4140617574
  0
LINE
  5
24C
100
AcDbEntity
  8
3
100
AcDbLine
 62
7
  6
BYLAYER
 10
245.3179098073
 20
80.737524577
 11
239.9179098073
 21
80.737524577
  0
LINE
  5
24D
100
AcDbEntity
  8
4
100
AcDbLine
 62
7
  6
BYLAYER
 10
97.6687789188
 20
80.737524577
 11
92.2687789188
 21
80.737524577
  0
LINE
  5
24E
100
AcDbEntity
  8
4
100
AcDbLine
 62
7
  6
BYLAYER
 10
88.0795581937
 20
82.1640617574
 11
89.5644694499
 21
82.1640617574
  0
LINE
  5
24F
100
AcDbEntity
  8
4
100
AcDbLine
 62
7
  6
BYLAYER
 10
100.372750848
 20
82.1640617574
 11
101.5795581937
 21
82.1640617574
  0
LINE
  5
250
100
AcDbEntity
  8
3
100
AcDbLine
 62
7
  6
BYLAYER
 10
235.7286890822
 20
82.1640617574
 11
237.2136003384
 21
82.1640617574
  0
LINE
  5
251
100
AcDbEntity
  8
3
100
AcDbLine
 62
7
  6
BYLAYER
 10
248.0218817365
 20
82.1640617574
 11
249.2286890822
 21
82.1640617574
  0
LINE
  5
252
100
AcDbEntity
  8
3
100
AcDbLine
 62
7
  6
BYLAYER
 10
249.2286890822
 20
88.6640617574
 11
248.0222192761
 21
88.6640617574
  0
LINE
  5
253
100
AcDbEntity
  8
3
100
AcDbLine
 62
7
  6
BYLAYER
 10
237.2139378781
 20
88.6640617574
 11
235.7286890822
 21
88.6640617574
  0
LINE
  5
254
100
AcDbEntity
  8
4
100
AcDbLine
 62
7
  6
BYLAYER
 10
101.5795581937
 20
88.6640617574
 11
100.3730883876
 21
88.6640617574
  0
LINE
  5
255
100
AcDbEntity
  8
4
100
AcDbLine
 62
7
  6
BYLAYER
 10
89.5648069895
 20
88.6640617574
 11
88.0795581937
 21
88.6640617574
  0
LINE
  5
256
100
AcDbEntity
  8
4
100
AcDbLine
 62
7
  6
BYLAYER
 10
92.2687789188
 20
90.0905989378
 11
97.6687789188
 21
90.0905989378
  0
LINE
  5
257
100
AcDbEntity
  8
3
100
AcDbLine
 62
7
  6
BYLAYER
 10
239.9179098073
 20
90.0905989378
 11
245.3179098073
 21
90.0905989378
  0
LINE
  5
258
100
AcDbEntity
  8
4
100
AcDbLine
 62
7
  6
BYLAYER
 10
89.5687789188
 20
85.4140617574
 11
92.2687789188
 21
80.737524577
  0
LINE
  5
259
100
AcDbEntity
  8
4
100
AcDbLine
 62
7
  6
BYLAYER
 10
92.2687789188
 20
366.4255013987
 11
89.5687789188
 21
361.7489642182
  0
LINE
  5
25A
100
AcDbEntity
  8
4
100
AcDbLine
 62
7
  6
BYLAYER
 10
97.6687789188
 20
357.0724270378
 11
100.3687789188
 21
361.7489642182
  0
LINE
  5
25B
100
AcDbEntity
  8
4
100
AcDbLine
 62
7
  6
BYLAYER
 10
100.3687789188
 20
85.4140617574
 11
97.6687789188
 21
90.0905989378
  0
LINE
  5
25C
100
AcDbEntity
  8
4
100
AcDbLine
 62
7
  6
BYLAYER
 10
89.5687789188
 20
115.4140617574
 11
92.2687789188
 21
110.737524577
  0
LINE
  5
25D
100
AcDbEntity
  8
4
100
AcDbLine
 62
7
  6
BYLAYER
 10
59.7795581937
 20
75.4140617574
 11
59.7795581937
 21
125.4140617574
  0
LINE
  5
25E
100
AcDbEntity
  8
4
100
AcDbLine
 62
7
  6
BYLAYER
 10
59.7795581937
 20
321.7489642182
 11
59.7795581937
 21
371.7489642182
  0
LINE
  5
25F
100
AcDbEntity
  8
4
100
AcDbLine
 62
7
  6
BYLAYER
 10
92.2687789188
 20
336.4255013987
 11
89.5687789188
 21
331.7489642182
  0
LINE
  5
260
100
AcDbEntity
  8
4
100
AcDbLine
 62
7
  6
BYLAYER
 10
97.6687789188
 20
327.0724270378
 11
100.3687789188
 21
331.7489642182
  0
LINE
  5
261
100
AcDbEntity
  8
3
100
AcDbLine
 62
7
  6
BYLAYER
 10
245.3179098073
 20
110.737524577
 11
239.9179098073
 21
110.737524577
  0
LINE
  5
262
100
AcDbEntity
  8
4
100
AcDbLine
 62
7
  6
BYLAYER
 10
97.6687789188
 20
110.737524577
 11
92.2687789188
 21
110.737524577
  0
LINE
  5
263
100
AcDbEntity
  8
4
100
AcDbLine
 62
7
  6
BYLAYER
 10
88.0795581937
 20
112.1640617574
 11
89.5644694499
 21
112.1640617574
  0
LINE
  5
264
100
AcDbEntity
  8
4
100
AcDbLine
 62
7
  6
BYLAYER
 10
100.372750848
 20
112.1640617574
 11
101.5795581937
 21
112.1640617574
  0
LINE
  5
265
100
AcDbEntity
  8
3
100
AcDbLine
 62
7
  6
BYLAYER
 10
235.7286890822
 20
112.1640617574
 11
237.2136003384
 21
112.1640617574
  0
LINE
  5
266
100
AcDbEntity
  8
3
100
AcDbLine
 62
7
  6
BYLAYER
 10
248.0218817365
 20
112.1640617574
 11
249.2286890822
 21
112.1640617574
  0
LINE
  5
267
100
AcDbEntity
  8
3
100
AcDbLine
 62
7
  6
BYLAYER
 10
249.2286890822
 20
118.6640617574
 11
248.0222192761
 21
118.6640617574
  0
LINE
  5
268
100
AcDbEntity
  8
3
100
AcDbLine
 62
7
  6
BYLAYER
 10
237.2139378781
 20
118.6640617574
 11
235.7286890822
 21
118.6640617574
  0
LINE
  5
269
100
AcDbEntity
  8
4
100
AcDbLine
 62
7
  6
BYLAYER
 10
101.5795581937
 20
118.6640617574
 11
100.3730883876
 21
118.6640617574
  0
LINE
  5
26A
100
AcDbEntity
  8
4
100
AcDbLine
 62
7
  6
BYLAYER
 10
89.5648069895
 20
118.6640617574
 11
88.0795581937
 21
118.6640617574
  0
LINE
  5
26B
100
AcDbEntity
  8
4
100
AcDbLine
 62
7
  6
BYLAYER
 10
92.2687789188
 20
120.0905989378
 11
97.6687789188
 21
120.0905989378
  0
LINE
  5
26C
100
AcDbEntity
  8
3
100
AcDbLine
 62
7
  6
BYLAYER
 10
239.9179098073
 20
120.0905989378
 11
245.3179098073
 21
120.0905989378
  0
LINE
  5
26D
100
AcDbEntity
  8
4
100
AcDbLine
 62
7
  6
BYLAYER
 10
59.7795581937
 20
120.4140617574
 11
62.7795581937
 21
120.4140617574
  0
LINE
  5
26E
100
AcDbEntity
  8
3
100
AcDbLine
 62
7
  6
BYLAYER
 10
207.4286890822
 20
120.4140617574
 11
210.4286890822
 21
120.4140617574
  0
LINE
  5
26F
100
AcDbEntity
  8
4
100
AcDbLine
 62
7
  6
BYLAYER
 10
59.7795581937
 20
125.4140617574
 11
104.7795581937
 21
125.4140617574
  0
LINE
  5
270
100
AcDbEntity
  8
3
100
AcDbLine
 62
7
  6
BYLAYER
 10
207.4286890822
 20
125.4140617574
 11
252.4286890822
 21
125.4140617574
  0
LINE
  5
271
100
AcDbEntity
  8
4
100
AcDbLine
 62
7
  6
BYLAYER
 10
100.3687789188
 20
115.4140617574
 11
97.6687789188
 21
120.0905989378
  0
LINE
  5
272
100
AcDbEntity
  8
4
100
AcDbLine
 62
7
  6
BYLAYER
 10
62.7795581937
 20
371.7489642182
 11
62.7795581937
 21
321.7489642182
  0
LINE
  5
273
100
AcDbEntity
  8
4
100
AcDbLine
 62
7
  6
BYLAYER
 10
62.7795581937
 20
125.4140617574
 11
62.7795581937
 21
75.4140617574
  0
LINE
  5
274
100
AcDbEntity
  8
4
100
AcDbLine
 62
7
  6
BYLAYER
 10
66.7795581937
 20
75.4140617574
 11
66.7795581937
 21
125.4140617574
  0
LINE
  5
275
100
AcDbEntity
  8
4
100
AcDbLine
 62
7
  6
BYLAYER
 10
66.7795581937
 20
321.7489642182
 11
66.7795581937
 21
371.7489642182
  0
LINE
  5
276
100
AcDbEntity
  8
0
100
AcDbLine
 62
7
  6
BYLAYER
 10
69.9680511092
 20
413.0658866342
 11
69.9680511092
 21
411.0778203399
  0
LINE
  5
277
100
AcDbEntity
  8
0
100
AcDbLine
 62
7
  6
BYLAYER
 10
69.9680511092
 20
411.0658866342
 11
69.9680511092
 21
396.5658866342
  0
LINE
  5
278
100
AcDbEntity
  8
3
100
AcDbLine
 62
7
  6
BYLAYER
 10
69.9683038772
 20
396.5658994427
 11
69.9683038772
 21
371.7489642182
  0
LINE
  5
279
100
AcDbEntity
  8
3
100
AcDbLine
 62
7
  6
BYLAYER
 10
69.9683038772
 20
321.7489642182
 11
69.9683038772
 21
125.4140617574
  0
LINE
  5
27A
100
AcDbEntity
  8
3
100
AcDbLine
 62
7
  6
BYLAYER
 10
69.9683038772
 20
75.4140617574
 11
69.9683038772
 21
48.0658994427
  0
LINE
  5
27B
100
AcDbEntity
  8
0
100
AcDbLine
 62
7
  6
BYLAYER
 10
69.9687789202
 20
31.5657764957
 11
69.9687789202
 21
48.0657764957
  0
LINE
  5
27C
100
AcDbEntity
  8
0
100
AcDbLine
 62
7
  6
BYLAYER
 10
70.9680511075
 20
412.0658866342
 11
70.9680511092
 21
414.0658866342
  0
LINE
  5
27D
100
AcDbEntity
  8
0
100
AcDbLine
 62
7
  6
BYLAYER
 10
70.9687789202
 20
30.5657764957
 11
70.9687789185
 21
32.5657764957
  0
LINE
  5
27E
100
AcDbEntity
  8
0
100
AcDbLine
 62
7
  6
BYLAYER
 10
71.1680511092
 20
411.5658866342
 11
71.1680511092
 21
413.1658866342
  0
LINE
  5
27F
100
AcDbEntity
  8
0
100
AcDbLine
 62
7
  6
BYLAYER
 10
71.1687789202
 20
31.4658866342
 11
71.1687789202
 21
33.0658866342
  0
LINE
  5
280
100
AcDbEntity
  8
0
100
AcDbLine
 62
7
  6
BYLAYER
 10
73.9680511092
 20
396.5658866342
 11
73.9680511092
 21
411.5658866342
  0
LINE
  5
281
100
AcDbEntity
  8
3
100
AcDbLine
 62
7
  6
BYLAYER
 10
73.9683038772
 20
48.0658994427
 11
73.9683038772
 21
75.4140617574
  0
LINE
  5
282
100
AcDbEntity
  8
3
100
AcDbLine
 62
7
  6
BYLAYER
 10
73.9683038772
 20
125.4140617574
 11
73.9683038772
 21
321.7489642182
  0
LINE
  5
283
100
AcDbEntity
  8
3
100
AcDbLine
 62
7
  6
BYLAYER
 10
73.9683038772
 20
371.7489642182
 11
73.9683038772
 21
396.5658994427
  0
LINE
  5
284
100
AcDbEntity
  8
0
100
AcDbLine
 62
7
  6
BYLAYER
 10
73.9687789202
 20
33.0657764957
 11
73.9687789202
 21
48.0657764957
  0
LINE
  5
285
100
AcDbEntity
  8
0
100
AcDbLine
 62
7
  6
BYLAYER
 10
228.1171800191
 20
424.5658866342
 11
227.6171819977
 21
424.0658887927
  0
LINE
  5
286
100
AcDbEntity
  8
0
100
AcDbLine
 62
7
  6
BYLAYER
 10
226.3671819977
 20
420.5658866342
 11
225.8671819977
 21
420.0658866342
  0
LINE
  5
287
100
AcDbEntity
  8
0
100
AcDbLine
 62
7
  6
BYLAYER
 10
77.4680510363
 20
411.5658866342
 11
77.4680510363
 21
411.0658866342
  0
LINE
  5
288
100
AcDbEntity
  8
0
100
AcDbLine
 62
7
  6
BYLAYER
 10
77.4687788477
 20
33.5657764957
 11
77.4687788477
 21
33.0657764957
  0
LINE
  5
289
100
AcDbEntity
  8
0
100
AcDbLine
 62
7
  6
BYLAYER
 10
77.7680511092
 20
413.1658866342
 11
77.7680511092
 21
411.670069069
  0
LINE
  5
28A
100
AcDbEntity
  8
0
100
AcDbLine
 62
7
  6
BYLAYER
 10
77.7687789202
 20
32.9617095015
 11
77.7687789202
 21
31.4658866342
  0
LINE
  5
28B
100
AcDbEntity
  8
0
100
AcDbLine
 62
7
  6
BYLAYER
 10
77.9680511092
 20
413.0658866342
 11
77.9680511092
 21
412.0658866342
  0
LINE
  5
28C
100
AcDbEntity
  8
0
100
AcDbLine
 62
7
  6
BYLAYER
 10
77.9687789202
 20
32.5657764957
 11
77.9687789202
 21
31.5657764957
  0
LINE
  5
28D
100
AcDbEntity
  8
0
100
AcDbLine
 62
7
  6
BYLAYER
 10
78.2180511092
 20
414.0658866342
 11
78.2180511092
 21
420.0658866342
  0
LINE
  5
28E
100
AcDbEntity
  8
0
100
AcDbLine
 62
7
  6
BYLAYER
 10
78.9680511092
 20
412.0658866342
 11
78.9680511092
 21
414.0658866342
  0
LINE
  5
28F
100
AcDbEntity
  8
0
100
AcDbLine
 62
7
  6
BYLAYER
 10
78.9687789202
 20
30.5657764957
 11
78.9687789202
 21
32.5657764957
  0
LINE
  5
290
100
AcDbEntity
  8
0
100
AcDbLine
 62
7
  6
BYLAYER
 10
79.9680511092
 20
420.5658866342
 11
79.9680511092
 21
424.0658856967
  0
LINE
  5
291
100
AcDbEntity
  8
0
100
AcDbLine
 62
7
  6
BYLAYER
 10
81.8438311092
 20
421.7658866342
 11
81.8438311092
 21
420.5658866342
  0
LINE
  5
292
100
AcDbEntity
  8
0
100
AcDbLine
 62
7
  6
BYLAYER
 10
90.0938311092
 20
421.7658866342
 11
90.0938311092
 21
420.5658866342
  0
LINE
  5
293
100
AcDbEntity
  8
0
100
AcDbLine
 62
7
  6
BYLAYER
 10
90.4680511092
 20
413.0658866342
 11
90.4680511092
 21
396.5658866342
  0
LINE
  5
294
100
AcDbEntity
  8
3
100
AcDbLine
 62
7
  6
BYLAYER
 10
90.4683038772
 20
396.5658994427
 11
90.4683038772
 21
371.7489642182
  0
LINE
  5
295
100
AcDbEntity
  8
3
100
AcDbLine
 62
7
  6
BYLAYER
 10
90.4683038772
 20
321.7489642182
 11
90.4683038772
 21
125.4140617574
  0
LINE
  5
296
100
AcDbEntity
  8
3
100
AcDbLine
 62
7
  6
BYLAYER
 10
90.4683038772
 20
75.4140617574
 11
90.4683038772
 21
48.0658994427
  0
LINE
  5
297
100
AcDbEntity
  8
0
100
AcDbLine
 62
7
  6
BYLAYER
 10
90.4687789202
 20
48.0657764957
 11
90.4687789202
 21
31.5657764957
  0
LINE
  5
298
100
AcDbEntity
  8
0
100
AcDbLine
 62
7
  6
BYLAYER
 10
90.9680511092
 20
396.5658866342
 11
90.9680511092
 21
413.0658866341
  0
LINE
  5
299
100
AcDbEntity
  8
3
100
AcDbLine
 62
7
  6
BYLAYER
 10
90.9683038772
 20
48.0658994427
 11
90.9683038772
 21
75.4140617574
  0
LINE
  5
29A
100
AcDbEntity
  8
3
100
AcDbLine
 62
7
  6
BYLAYER
 10
90.9683038772
 20
125.4140617574
 11
90.9683038772
 21
321.7489642182
  0
LINE
  5
29B
100
AcDbEntity
  8
3
100
AcDbLine
 62
7
  6
BYLAYER
 10
90.9683038772
 20
371.7489642182
 11
90.9683038772
 21
396.5658994427
  0
LINE
  5
29C
100
AcDbEntity
  8
0
100
AcDbLine
 62
7
  6
BYLAYER
 10
90.9687789202
 20
31.5657764957
 11
90.9687789202
 21
48.0657764957
  0
LINE
  5
29D
100
AcDbEntity
  8
0
100
AcDbLine
 62
7
  6
BYLAYER
 10
244.3671819977
 20
420.5658866342
 11
243.8671819977
 21
420.0658866342
  0
LINE
  5
29E
100
AcDbEntity
  8
0
100
AcDbLine
 62
7
  6
BYLAYER
 10
91.9680511092
 20
424.0658856967
 11
91.9680511092
 21
420.5658866342
  0
LINE
  5
29F
100
AcDbEntity
  8
0
100
AcDbLine
 62
7
  6
BYLAYER
 10
93.7180511092
 20
414.0658866342
 11
93.7180511092
 21
420.0658866342
  0
LINE
  5
2A0
100
AcDbEntity
  8
0
100
AcDbLine
 62
7
  6
BYLAYER
 10
96.2180511092
 20
414.0658866342
 11
96.2180511092
 21
420.0658866342
  0
LINE
  5
2A1
100
AcDbEntity
  8
0
100
AcDbLine
 62
7
  6
BYLAYER
 10
98.9680511092
 20
413.0658866341
 11
98.9680511092
 21
396.5658866342
  0
LINE
  5
2A2
100
AcDbEntity
  8
3
100
AcDbLine
 62
7
  6
BYLAYER
 10
98.9683038772
 20
396.5658994427
 11
98.9683038772
 21
371.7489642182
  0
LINE
  5
2A3
100
AcDbEntity
  8
3
100
AcDbLine
 62
7
  6
BYLAYER
 10
98.9683038772
 20
321.7489642182
 11
98.9683038772
 21
125.4140617574
  0
LINE
  5
2A4
100
AcDbEntity
  8
3
100
AcDbLine
 62
7
  6
BYLAYER
 10
98.9683038772
 20
75.4140617574
 11
98.9683038772
 21
48.0658994427
  0
LINE
  5
2A5
100
AcDbEntity
  8
0
100
AcDbLine
 62
7
  6
BYLAYER
 10
98.9687789202
 20
48.0657764957
 11
98.9687789202
 21
31.5657764957
  0
LINE
  5
2A6
100
AcDbEntity
  8
0
100
AcDbLine
 62
7
  6
BYLAYER
 10
99.4680511092
 20
396.5658866342
 11
99.4680511092
 21
413.0658866342
  0
LINE
  5
2A7
100
AcDbEntity
  8
3
100
AcDbLine
 62
7
  6
BYLAYER
 10
99.4683038772
 20
48.0658994427
 11
99.4683038772
 21
75.4140617574
  0
LINE
  5
2A8
100
AcDbEntity
  8
3
100
AcDbLine
 62
7
  6
BYLAYER
 10
99.4683038772
 20
125.4140617574
 11
99.4683038772
 21
321.7489642182
  0
LINE
  5
2A9
100
AcDbEntity
  8
3
100
AcDbLine
 62
7
  6
BYLAYER
 10
99.4683038772
 20
371.7489642182
 11
99.4683038772
 21
396.5658994427
  0
LINE
  5
2AA
100
AcDbEntity
  8
0
100
AcDbLine
 62
7
  6
BYLAYER
 10
99.4687789202
 20
31.5657764957
 11
99.4687789202
 21
48.0657764957
  0
LINE
  5
2AB
100
AcDbEntity
  8
0
100
AcDbLine
 62
7
  6
BYLAYER
 10
99.8448111092
 20
421.7658866342
 11
99.8448111092
 21
420.5658866342
  0
LINE
  5
2AC
100
AcDbEntity
  8
0
100
AcDbLine
 62
7
  6
BYLAYER
 10
108.0948111092
 20
421.7658866342
 11
108.0948111092
 21
420.5658866342
  0
LINE
  5
2AD
100
AcDbEntity
  8
4
100
AcDbLine
 62
7
  6
BYLAYER
 10
109.7795581937
 20
366.7489642182
 11
109.7795581937
 21
326.7489642182
  0
LINE
  5
2AE
100
AcDbEntity
  8
4
100
AcDbLine
 62
7
  6
BYLAYER
 10
109.7795581937
 20
120.4140617574
 11
109.7795581937
 21
80.4140617574
  0
LINE
  5
2AF
100
AcDbEntity
  8
0
100
AcDbLine
 62
7
  6
BYLAYER
 10
110.9680511092
 20
414.0658866342
 11
110.9680511092
 21
412.0658866342
  0
LINE
  5
2B0
100
AcDbEntity
  8
0
100
AcDbLine
 62
7
  6
BYLAYER
 10
110.9687789202
 20
32.5657764957
 11
110.9687789202
 21
30.5657764957
  0
LINE
  5
2B1
100
AcDbEntity
  8
0
100
AcDbLine
 62
7
  6
BYLAYER
 10
111.7180511092
 20
414.0658866342
 11
111.7180511092
 21
420.0658866342
  0
LINE
  5
2B2
100
AcDbEntity
  8
0
100
AcDbLine
 62
7
  6
BYLAYER
 10
111.9680511092
 20
412.0658866342
 11
111.9680511092
 21
413.0658866342
  0
LINE
  5
2B3
100
AcDbEntity
  8
0
100
AcDbLine
 62
7
  6
BYLAYER
 10
111.9687789202
 20
31.5657764957
 11
111.9687789202
 21
32.5657764957
  0
LINE
  5
2B4
100
AcDbEntity
  8
0
100
AcDbLine
 62
7
  6
BYLAYER
 10
112.1680511092
 20
411.6699536282
 11
112.1680511092
 21
413.1658866342
  0
LINE
  5
2B5
100
AcDbEntity
  8
0
100
AcDbLine
 62
7
  6
BYLAYER
 10
112.1687789173
 20
31.4658866342
 11
112.1687789173
 21
32.961594059
  0
LINE
  5
2B6
100
AcDbEntity
  8
0
100
AcDbLine
 62
7
  6
BYLAYER
 10
112.4680511817
 20
411.0658866342
 11
112.4680511817
 21
411.5658866342
  0
LINE
  5
2B7
100
AcDbEntity
  8
0
100
AcDbLine
 62
7
  6
BYLAYER
 10
112.4687789931
 20
33.0657764957
 11
112.4687789931
 21
33.5657764957
  0
LINE
  5
2B8
100
AcDbEntity
  8
0
100
AcDbLine
 62
7
  6
BYLAYER
 10
115.9680511092
 20
411.5658866342
 11
115.9680511092
 21
396.5658866342
  0
LINE
  5
2B9
100
AcDbEntity
  8
3
100
AcDbLine
 62
7
  6
BYLAYER
 10
115.9683038772
 20
396.5658994427
 11
115.9683038772
 21
48.0658994427
  0
LINE
  5
2BA
100
AcDbEntity
  8
0
100
AcDbLine
 62
7
  6
BYLAYER
 10
115.9687789202
 20
48.0657764957
 11
115.9687789202
 21
33.0657764957
  0
LINE
  5
2BB
100
AcDbEntity
  8
0
100
AcDbLine
 62
7
  6
BYLAYER
 10
118.7680511092
 20
413.1658866342
 11
118.7680511092
 21
411.5658866342
  0
LINE
  5
2BC
100
AcDbEntity
  8
0
100
AcDbLine
 62
7
  6
BYLAYER
 10
118.7687789173
 20
33.0658866342
 11
118.7687789173
 21
31.4658866342
  0
LINE
  5
2BD
100
AcDbEntity
  8
0
100
AcDbLine
 62
7
  6
BYLAYER
 10
118.9680511092
 20
414.0658866342
 11
118.9680511109
 21
412.0658866342
  0
LINE
  5
2BE
100
AcDbEntity
  8
0
100
AcDbLine
 62
7
  6
BYLAYER
 10
118.9687789219
 20
32.5657764957
 11
118.9687789202
 21
30.5657764957
  0
LINE
  5
2BF
100
AcDbEntity
  8
0
100
AcDbLine
 62
7
  6
BYLAYER
 10
119.9680511092
 20
396.5658866342
 11
119.9680511092
 21
413.0658866342
  0
LINE
  5
2C0
100
AcDbEntity
  8
3
100
AcDbLine
 62
7
  6
BYLAYER
 10
119.9683038772
 20
48.0658994427
 11
119.9683038772
 21
396.5658994427
  0
LINE
  5
2C1
100
AcDbEntity
  8
0
100
AcDbLine
 62
7
  6
BYLAYER
 10
119.9687789202
 20
31.5657764957
 11
119.9687789202
 21
48.0657764957
  0
LINE
  5
2C2
100
AcDbEntity
  8
4
100
AcDbLine
 62
7
  6
BYLAYER
 10
92.2687789188
 20
120.0905989378
 11
89.5687789188
 21
115.4140617574
  0
LINE
  5
2C3
100
AcDbEntity
  8
3
100
AcDbLine
 62
7
  6
BYLAYER
 10
239.9179098073
 20
366.4255013987
 11
237.2179098073
 21
361.7489642182
  0
LINE
  5
2C4
100
AcDbEntity
  8
4
100
AcDbLine
 62
7
  6
BYLAYER
 10
97.6687789188
 20
110.737524577
 11
100.3687789188
 21
115.4140617574
  0
LINE
  5
2C5
100
AcDbEntity
  8
4
100
AcDbLine
 62
7
  6
BYLAYER
 10
89.5687789188
 20
331.7489642182
 11
92.2687789188
 21
327.0724270378
  0
LINE
  5
2C6
100
AcDbEntity
  8
3
100
AcDbLine
 62
7
  6
BYLAYER
 10
237.2179098073
 20
85.4140617574
 11
239.9179098073
 21
80.737524577
  0
LINE
  5
2C7
100
AcDbEntity
  8
4
100
AcDbLine
 62
7
  6
BYLAYER
 10
100.3687789188
 20
331.7489642182
 11
97.6687789188
 21
336.4255013987
  0
LINE
  5
2C8
100
AcDbEntity
  8
3
100
AcDbLine
 62
7
  6
BYLAYER
 10
248.0179098073
 20
85.4140617574
 11
245.3179098073
 21
90.0905989378
  0
LINE
  5
2C9
100
AcDbEntity
  8
3
100
AcDbLine
 62
7
  6
BYLAYER
 10
245.3179098073
 20
357.0724270378
 11
248.0179098073
 21
361.7489642182
  0
LINE
  5
2CA
100
AcDbEntity
  8
4
100
AcDbLine
 62
7
  6
BYLAYER
 10
92.2687789188
 20
90.0905989378
 11
89.5687789188
 21
85.4140617574
  0
LINE
  5
2CB
100
AcDbEntity
  8
3
100
AcDbLine
 62
7
  6
BYLAYER
 10
239.9179098073
 20
336.4255013987
 11
237.2179098073
 21
331.7489642182
  0
LINE
  5
2CC
100
AcDbEntity
  8
4
100
AcDbLine
 62
7
  6
BYLAYER
 10
97.6687789188
 20
80.737524577
 11
100.3687789188
 21
85.4140617574
  0
LINE
  5
2CD
100
AcDbEntity
  8
4
100
AcDbLine
 62
7
  6
BYLAYER
 10
89.5687789188
 20
361.7489642182
 11
92.2687789188
 21
357.0724270378
  0
LINE
  5
2CE
100
AcDbEntity
  8
3
100
AcDbLine
 62
7
  6
BYLAYER
 10
237.2179098073
 20
115.4140617574
 11
239.9179098073
 21
110.737524577
  0
LINE
  5
2CF
100
AcDbEntity
  8
4
100
AcDbLine
 62
7
  6
BYLAYER
 10
100.3687789188
 20
361.7489642182
 11
97.6687789188
 21
366.4255013987
  0
LINE
  5
2D0
100
AcDbEntity
  8
3
100
AcDbLine
 62
7
  6
BYLAYER
 10
245.3179098073
 20
327.0724270378
 11
248.0179098073
 21
331.7489642182
  0
LINE
  5
2D1
100
AcDbEntity
  8
3
100
AcDbLine
 62
7
  6
BYLAYER
 10
248.0179098073
 20
115.4140617574
 11
245.3179098073
 21
120.0905989378
  0
LINE
  5
2D2
100
AcDbEntity
  8
3
100
AcDbLine
 62
7
  6
BYLAYER
 10
207.4286890822
 20
75.4140617574
 11
207.4286890822
 21
125.4140617574
  0
LINE
  5
2D3
100
AcDbEntity
  8
3
100
AcDbLine
 62
7
  6
BYLAYER
 10
207.4286890822
 20
321.7489642182
 11
207.4286890822
 21
371.7489642182
  0
LINE
  5
2D4
100
AcDbEntity
  8
3
100
AcDbLine
 62
7
  6
BYLAYER
 10
210.4286890822
 20
371.7489642182
 11
210.4286890822
 21
321.7489642182
  0
LINE
  5
2D5
100
AcDbEntity
  8
3
100
AcDbLine
 62
7
  6
BYLAYER
 10
210.4286890822
 20
125.4140617574
 11
210.4286890822
 21
75.4140617574
  0
LINE
  5
2D6
100
AcDbEntity
  8
3
100
AcDbLine
 62
7
  6
BYLAYER
 10
214.4286890822
 20
75.4140617574
 11
214.4286890822
 21
125.4140617574
  0
LINE
  5
2D7
100
AcDbEntity
  8
3
100
AcDbLine
 62
7
  6
BYLAYER
 10
214.4286890822
 20
321.7489642182
 11
214.4286890822
 21
371.7489642182
  0
LINE
  5
2D8
100
AcDbEntity
  8
0
100
AcDbLine
 62
7
  6
BYLAYER
 10
217.6171819977
 20
413.0658866342
 11
217.6171819977
 21
411.0777369656
  0
LINE
  5
2D9
100
AcDbEntity
  8
0
100
AcDbLine
 62
7
  6
BYLAYER
 10
217.6171819977
 20
411.0658866342
 11
217.6171819977
 21
396.5658866342
  0
LINE
  5
2DA
100
AcDbEntity
  8
3
100
AcDbLine
 62
7
  6
BYLAYER
 10
217.6174347657
 20
396.5658994427
 11
217.6174347657
 21
371.7489642182
  0
LINE
  5
2DB
100
AcDbEntity
  8
3
100
AcDbLine
 62
7
  6
BYLAYER
 10
217.6174347657
 20
321.7489642182
 11
217.6174347657
 21
125.4140617574
  0
LINE
  5
2DC
100
AcDbEntity
  8
3
100
AcDbLine
 62
7
  6
BYLAYER
 10
217.6174347657
 20
75.4140617574
 11
217.6174347657
 21
48.0658994427
  0
LINE
  5
2DD
100
AcDbEntity
  8
0
100
AcDbLine
 62
7
  6
BYLAYER
 10
217.6179098087
 20
31.5657764957
 11
217.6179098087
 21
48.0657764957
  0
LINE
  5
2DE
100
AcDbEntity
  8
0
100
AcDbLine
 62
7
  6
BYLAYER
 10
218.617181996
 20
412.0658866342
 11
218.6171819977
 21
414.0658866342
  0
LINE
  5
2DF
100
AcDbEntity
  8
0
100
AcDbLine
 62
7
  6
BYLAYER
 10
218.6179098087
 20
30.5657764957
 11
218.617909807
 21
32.5657764957
  0
LINE
  5
2E0
100
AcDbEntity
  8
0
100
AcDbLine
 62
7
  6
BYLAYER
 10
218.8171819977
 20
411.5658866342
 11
218.8171819977
 21
413.1658866342
  0
LINE
  5
2E1
100
AcDbEntity
  8
0
100
AcDbLine
 62
7
  6
BYLAYER
 10
218.8179098087
 20
31.4658866342
 11
218.8179098087
 21
33.0658866342
  0
LINE
  5
2E2
100
AcDbEntity
  8
0
100
AcDbLine
 62
7
  6
BYLAYER
 10
221.6171819977
 20
396.5658866342
 11
221.6171819977
 21
411.5658866342
  0
LINE
  5
2E3
100
AcDbEntity
  8
3
100
AcDbLine
 62
7
  6
BYLAYER
 10
221.6174347657
 20
48.0658994427
 11
221.6174347657
 21
75.4140617574
  0
LINE
  5
2E4
100
AcDbEntity
  8
3
100
AcDbLine
 62
7
  6
BYLAYER
 10
221.6174347657
 20
125.4140617574
 11
221.6174347657
 21
321.7489642182
  0
LINE
  5
2E5
100
AcDbEntity
  8
3
100
AcDbLine
 62
7
  6
BYLAYER
 10
221.6174347657
 20
371.7489642182
 11
221.6174347657
 21
396.5658994427
  0
LINE
  5
2E6
100
AcDbEntity
  8
0
100
AcDbLine
 62
7
  6
BYLAYER
 10
221.6179098087
 20
33.0657764957
 11
221.6179098087
 21
48.0657764957
  0
LINE
  5
2E7
100
AcDbEntity
  8
0
100
AcDbLine
 62
7
  6
BYLAYER
 10
225.1171819249
 20
411.5658866342
 11
225.1171819249
 21
411.0658866342
  0
LINE
  5
2E8
100
AcDbEntity
  8
0
100
AcDbLine
 62
7
  6
BYLAYER
 10
225.1179097362
 20
33.5657764957
 11
225.1179097362
 21
33.0657764957
  0
LINE
  5
2E9
100
AcDbEntity
  8
0
100
AcDbLine
 62
7
  6
BYLAYER
 10
225.4171819977
 20
413.1658866342
 11
225.4171819977
 21
411.670069069
  0
LINE
  5
2EA
100
AcDbEntity
  8
0
100
AcDbLine
 62
7
  6
BYLAYER
 10
225.4179098087
 20
32.9617095015
 11
225.4179098087
 21
31.4658866342
  0
LINE
  5
2EB
100
AcDbEntity
  8
0
100
AcDbLine
 62
7
  6
BYLAYER
 10
225.6171819977
 20
413.0658866342
 11
225.6171819977
 21
412.0658866342
  0
LINE
  5
2EC
100
AcDbEntity
  8
0
100
AcDbLine
 62
7
  6
BYLAYER
 10
225.6179098087
 20
32.5657764957
 11
225.6179098087
 21
31.5657764957
  0
LINE
  5
2ED
100
AcDbEntity
  8
0
100
AcDbLine
 62
7
  6
BYLAYER
 10
225.8671819977
 20
414.0658866342
 11
225.8671819977
 21
420.0658866342
  0
LINE
  5
2EE
100
AcDbEntity
  8
0
100
AcDbLine
 62
7
  6
BYLAYER
 10
226.6171819977
 20
412.0658866342
 11
226.6171819977
 21
414.0658866342
  0
LINE
  5
2EF
100
AcDbEntity
  8
0
100
AcDbLine
 62
7
  6
BYLAYER
 10
226.6179098087
 20
30.5657764957
 11
226.6179098087
 21
32.5657764957
  0
LINE
  5
2F0
100
AcDbEntity
  8
0
100
AcDbLine
 62
7
  6
BYLAYER
 10
227.6171819977
 20
420.5658866342
 11
227.6171819977
 21
424.0658856967
  0
LINE
  5
2F1
100
AcDbEntity
  8
0
100
AcDbLine
 62
7
  6
BYLAYER
 10
229.4929619977
 20
421.7658866342
 11
229.4929619977
 21
420.5658866342
  0
LINE
  5
2F2
100
AcDbEntity
  8
0
100
AcDbLine
 62
7
  6
BYLAYER
 10
237.7429619977
 20
421.7658866342
 11
237.7429619977
 21
420.5658866342
  0
LINE
  5
2F3
100
AcDbEntity
  8
0
100
AcDbLine
 62
7
  6
BYLAYER
 10
238.1171819977
 20
413.0658866342
 11
238.1171819977
 21
396.5658866342
  0
LINE
  5
2F4
100
AcDbEntity
  8
3
100
AcDbLine
 62
7
  6
BYLAYER
 10
238.1174347657
 20
396.5658994427
 11
238.1174347657
 21
371.7489642182
  0
LINE
  5
2F5
100
AcDbEntity
  8
3
100
AcDbLine
 62
7
  6
BYLAYER
 10
238.1174347657
 20
321.7489642182
 11
238.1174347657
 21
125.4140617574
  0
LINE
  5
2F6
100
AcDbEntity
  8
3
100
AcDbLine
 62
7
  6
BYLAYER
 10
238.1174347657
 20
75.4140617574
 11
238.1174347657
 21
48.0658994427
  0
LINE
  5
2F7
100
AcDbEntity
  8
0
100
AcDbLine
 62
7
  6
BYLAYER
 10
238.1179098087
 20
48.0657764957
 11
238.1179098087
 21
31.5657764957
  0
LINE
  5
2F8
100
AcDbEntity
  8
0
100
AcDbLine
 62
7
  6
BYLAYER
 10
238.6171819977
 20
396.5658866342
 11
238.6171819977
 21
413.0658866341
  0
LINE
  5
2F9
100
AcDbEntity
  8
3
100
AcDbLine
 62
7
  6
BYLAYER
 10
238.6174347657
 20
48.0658994427
 11
238.6174347657
 21
75.4140617574
  0
LINE
  5
2FA
100
AcDbEntity
  8
3
100
AcDbLine
 62
7
  6
BYLAYER
 10
238.6174347657
 20
125.4140617574
 11
238.6174347657
 21
321.7489642182
  0
LINE
  5
2FB
100
AcDbEntity
  8
3
100
AcDbLine
 62
7
  6
BYLAYER
 10
238.6174347657
 20
371.7489642182
 11
238.6174347657
 21
396.5658994427
  0
LINE
  5
2FC
100
AcDbEntity
  8
0
100
AcDbLine
 62
7
  6
BYLAYER
 10
238.6179098087
 20
31.5657764957
 11
238.6179098087
 21
48.0657764957
  0
LINE
  5
2FD
100
AcDbEntity
  8
0
100
AcDbLine
 62
7
  6
BYLAYER
 10
239.6171819977
 20
424.0658856967
 11
239.6171819977
 21
420.5658866342
  0
LINE
  5
2FE
100
AcDbEntity
  8
0
100
AcDbLine
 62
7
  6
BYLAYER
 10
241.3671819977
 20
414.0658866342
 11
241.3671819977
 21
420.0658866342
  0
LINE
  5
2FF
100
AcDbEntity
  8
0
100
AcDbLine
 62
7
  6
BYLAYER
 10
243.8671819977
 20
414.0658866342
 11
243.8671819977
 21
420.0658866342
  0
LINE
  5
300
100
AcDbEntity
  8
0
100
AcDbLine
 62
7
  6
BYLAYER
 10
246.6171819977
 20
413.0658866341
 11
246.6171819977
 21
396.5658866342
  0
LINE
  5
301
100
AcDbEntity
  8
3
100
AcDbLine
 62
7
  6
BYLAYER
 10
246.6174347657
 20
396.5658994427
 11
246.6174347657
 21
371.7489642182
  0
LINE
  5
302
100
AcDbEntity
  8
3
100
AcDbLine
 62
7
  6
BYLAYER
 10
246.6174347657
 20
321.7489642182
 11
246.6174347657
 21
125.4140617574
  0
LINE
  5
303
100
AcDbEntity
  8
3
100
AcDbLine
 62
7
  6
BYLAYER
 10
246.6174347657
 20
75.4140617574
 11
246.6174347657
 21
48.0658994427
  0
LINE
  5
304
100
AcDbEntity
  8
0
100
AcDbLine
 62
7
  6
BYLAYER
 10
246.6179098087
 20
48.0657764957
 11
246.6179098087
 21
31.5657764957
  0
LINE
  5
305
100
AcDbEntity
  8
0
100
AcDbLine
 62
7
  6
BYLAYER
 10
247.1171819977
 20
396.5658866342
 11
247.1171819977
 21
413.0658866342
  0
LINE
  5
306
100
AcDbEntity
  8
3
100
AcDbLine
 62
7
  6
BYLAYER
 10
247.1174347657
 20
48.0658994427
 11
247.1174347657
 21
75.4140617574
  0
LINE
  5
307
100
AcDbEntity
  8
3
100
AcDbLine
 62
7
  6
BYLAYER
 10
247.1174347657
 20
125.4140617574
 11
247.1174347657
 21
321.7489642182
  0
LINE
  5
308
100
AcDbEntity
  8
3
100
AcDbLine
 62
7
  6
BYLAYER
 10
247.1174347657
 20
371.7489642182
 11
247.1174347657
 21
396.5658994427
  0
LINE
  5
309
100
AcDbEntity
  8
0
100
AcDbLine
 62
7
  6
BYLAYER
 10
247.1179098087
 20
31.5657764957
 11
247.1179098087
 21
48.0657764957
  0
LINE
  5
30A
100
AcDbEntity
  8
0
100
AcDbLine
 62
7
  6
BYLAYER
 10
247.4939419977
 20
421.7658866342
 11
247.4939419977
 21
420.5658866342
  0
LINE
  5
30B
100
AcDbEntity
  8
0
100
AcDbLine
 62
7
  6
BYLAYER
 10
93.2180511092
 20
420.5658866342
 11
93.7180511092
 21
420.0658866342
  0
LINE
  5
30C
100
AcDbEntity
  8
0
100
AcDbLine
 62
7
  6
BYLAYER
 10
91.4680530878
 20
424.5658866342
 11
91.9680511092
 21
424.0658887927
  0
LINE
  5
30D
100
AcDbEntity
  8
0
100
AcDbLine
 62
7
  6
BYLAYER
 10
255.7439419977
 20
421.7658866342
 11
255.7439419977
 21
420.5658866342
  0
LINE
  5
30E
100
AcDbEntity
  8
3
100
AcDbLine
 62
7
  6
BYLAYER
 10
257.4286890822
 20
366.7489642182
 11
257.4286890822
 21
326.7489642182
  0
LINE
  5
30F
100
AcDbEntity
  8
3
100
AcDbLine
 62
7
  6
BYLAYER
 10
257.4286890822
 20
120.4140617574
 11
257.4286890822
 21
80.4140617574
  0
LINE
  5
310
100
AcDbEntity
  8
0
100
AcDbLine
 62
7
  6
BYLAYER
 10
258.6171819977
 20
414.0658866342
 11
258.6171819977
 21
412.0658866342
  0
LINE
  5
311
100
AcDbEntity
  8
0
100
AcDbLine
 62
7
  6
BYLAYER
 10
258.6179098087
 20
32.5657764957
 11
258.6179098087
 21
30.5657764957
  0
LINE
  5
312
100
AcDbEntity
  8
0
100
AcDbLine
 62
7
  6
BYLAYER
 10
259.3671819977
 20
414.0658866342
 11
259.3671819977
 21
420.0658866342
  0
LINE
  5
313
100
AcDbEntity
  8
0
100
AcDbLine
 62
7
  6
BYLAYER
 10
259.6171819977
 20
412.0658866342
 11
259.6171819977
 21
413.0658866342
  0
LINE
  5
314
100
AcDbEntity
  8
0
100
AcDbLine
 62
7
  6
BYLAYER
 10
259.6179098087
 20
31.5657764957
 11
259.6179098087
 21
32.5657764957
  0
LINE
  5
315
100
AcDbEntity
  8
0
100
AcDbLine
 62
7
  6
BYLAYER
 10
259.8171819977
 20
411.6699536282
 11
259.8171819977
 21
413.1658866342
  0
LINE
  5
316
100
AcDbEntity
  8
0
100
AcDbLine
 62
7
  6
BYLAYER
 10
259.8179098058
 20
31.4658866342
 11
259.8179098058
 21
32.9641776161
  0
LINE
  5
317
100
AcDbEntity
  8
0
100
AcDbLine
 62
7
  6
BYLAYER
 10
260.1171820702
 20
411.0658866342
 11
260.1171820702
 21
411.5658866342
  0
LINE
  5
318
100
AcDbEntity
  8
0
100
AcDbLine
 62
7
  6
BYLAYER
 10
260.1179098816
 20
33.0657764957
 11
260.1179098816
 21
33.5657764957
  0
LINE
  5
319
100
AcDbEntity
  8
0
100
AcDbLine
 62
7
  6
BYLAYER
 10
263.6171819977
 20
411.5658866342
 11
263.6171819977
 21
396.5658866342
  0
LINE
  5
31A
100
AcDbEntity
  8
3
100
AcDbLine
 62
7
  6
BYLAYER
 10
263.6174347657
 20
396.5658994427
 11
263.6174347657
 21
48.0658994427
  0
LINE
  5
31B
100
AcDbEntity
  8
0
100
AcDbLine
 62
7
  6
BYLAYER
 10
263.6179098087
 20
48.0657764957
 11
263.6179098087
 21
33.0657764957
  0
LINE
  5
31C
100
AcDbEntity
  8
0
100
AcDbLine
 62
7
  6
BYLAYER
 10
266.4171819977
 20
413.1658866342
 11
266.4171819977
 21
411.5658866342
  0
LINE
  5
31D
100
AcDbEntity
  8
0
100
AcDbLine
 62
7
  6
BYLAYER
 10
266.4179098058
 20
33.0658866342
 11
266.4179098058
 21
31.4658866342
  0
LINE
  5
31E
100
AcDbEntity
  8
0
100
AcDbLine
 62
7
  6
BYLAYER
 10
266.6171819977
 20
414.0658866342
 11
266.6171819994
 21
412.0658866342
  0
LINE
  5
31F
100
AcDbEntity
  8
0
100
AcDbLine
 62
7
  6
BYLAYER
 10
266.6179098104
 20
32.5657764957
 11
266.6179098087
 21
30.5657764957
  0
LINE
  5
320
100
AcDbEntity
  8
0
100
AcDbLine
 62
7
  6
BYLAYER
 10
267.6171819977
 20
396.5658866342
 11
267.6171819977
 21
413.0658866342
  0
LINE
  5
321
100
AcDbEntity
  8
3
100
AcDbLine
 62
7
  6
BYLAYER
 10
267.6174347657
 20
48.0658994427
 11
267.6174347657
 21
396.5658994427
  0
LINE
  5
322
100
AcDbEntity
  8
0
100
AcDbLine
 62
7
  6
BYLAYER
 10
267.6179098087
 20
31.5657764957
 11
267.6179098087
 21
33.5539701943
  0
LINE
  5
323
100
AcDbEntity
  8
0
100
AcDbLine
 62
7
  6
BYLAYER
 10
267.6179098087
 20
33.5657764957
 11
267.6179098087
 21
48.0657764957
  0
LINE
  5
324
100
AcDbEntity
  8
4
100
AcDbLine
 62
7
  6
BYLAYER
 10
59.7795581937
 20
321.7489642182
 11
104.7795581937
 21
321.7489642182
  0
LINE
  5
325
100
AcDbEntity
  8
3
100
AcDbLine
 62
7
  6
BYLAYER
 10
207.4286890822
 20
321.7489642182
 11
252.4286890822
 21
321.7489642182
  0
LINE
  5
326
100
AcDbEntity
  8
3
100
AcDbLine
 62
7
  6
BYLAYER
 10
210.4286890822
 20
326.7489642182
 11
207.4286890822
 21
326.7489642182
  0
LINE
  5
327
100
AcDbEntity
  8
4
100
AcDbLine
 62
7
  6
BYLAYER
 10
62.7795581937
 20
326.7489642182
 11
59.7795581937
 21
326.7489642182
  0
LINE
  5
328
100
AcDbEntity
  8
3
100
AcDbLine
 62
7
  6
BYLAYER
 10
245.3179098073
 20
327.0724270378
 11
239.9179098073
 21
327.0724270378
  0
LINE
  5
329
100
AcDbEntity
  8
4
100
AcDbLine
 62
7
  6
BYLAYER
 10
97.6687789188
 20
327.0724270378
 11
92.2687789188
 21
327.0724270378
  0
LINE
  5
32A
100
AcDbEntity
  8
4
100
AcDbLine
 62
7
  6
BYLAYER
 10
88.0795581937
 20
328.4989642182
 11
89.5644694499
 21
328.4989642182
  0
LINE
  5
32B
100
AcDbEntity
  8
4
100
AcDbLine
 62
7
  6
BYLAYER
 10
100.372750848
 20
328.4989642182
 11
101.5795581937
 21
328.4989642182
  0
LINE
  5
32C
100
AcDbEntity
  8
3
100
AcDbLine
 62
7
  6
BYLAYER
 10
235.7286890822
 20
328.4989642182
 11
237.2136003384
 21
328.4989642182
  0
LINE
  5
32D
100
AcDbEntity
  8
3
100
AcDbLine
 62
7
  6
BYLAYER
 10
248.0218817365
 20
328.4989642182
 11
249.2286890822
 21
328.4989642182
  0
LINE
  5
32E
100
AcDbEntity
  8
0
100
AcDbLine
 62
7
  6
BYLAYER
 10
111.2180511092
 20
420.5658866342
 11
111.7180511092
 21
420.0658866342
  0
LINE
  5
32F
100
AcDbEntity
  8
3
100
AcDbLine
 62
7
  6
BYLAYER
 10
239.9179098073
 20
120.0905989378
 11
237.2179098073
 21
115.4140617574
  0
LINE
  5
330
100
AcDbEntity
  8
3
100
AcDbLine
 62
7
  6
BYLAYER
 10
249.2286890822
 20
334.9989642182
 11
248.0222192761
 21
334.9989642182
  0
LINE
  5
331
100
AcDbEntity
  8
3
100
AcDbLine
 62
7
  6
BYLAYER
 10
237.2139378781
 20
334.9989642182
 11
235.7286890822
 21
334.9989642182
  0
LINE
  5
332
100
AcDbEntity
  8
4
100
AcDbLine
 62
7
  6
BYLAYER
 10
101.5795581937
 20
334.9989642182
 11
100.3730883876
 21
334.9989642182
  0
LINE
  5
333
100
AcDbEntity
  8
4
100
AcDbLine
 62
7
  6
BYLAYER
 10
89.5648069895
 20
334.9989642182
 11
88.0795581937
 21
334.9989642182
  0
LINE
  5
334
100
AcDbEntity
  8
4
100
AcDbLine
 62
7
  6
BYLAYER
 10
92.2687789188
 20
336.4255013987
 11
97.6687789188
 21
336.4255013987
  0
LINE
  5
335
100
AcDbEntity
  8
3
100
AcDbLine
 62
7
  6
BYLAYER
 10
239.9179098073
 20
336.4255013987
 11
245.3179098073
 21
336.4255013987
  0
LINE
  5
336
100
AcDbEntity
  8
3
100
AcDbLine
 62
7
  6
BYLAYER
 10
237.2179098073
 20
331.7489642182
 11
239.9179098073
 21
327.0724270378
  0
LINE
  5
337
100
AcDbEntity
  8
3
100
AcDbLine
 62
7
  6
BYLAYER
 10
245.3179098073
 20
110.737524577
 11
248.0179098073
 21
115.4140617574
  0
LINE
  5
338
100
AcDbEntity
  8
3
100
AcDbLine
 62
7
  6
BYLAYER
 10
239.9179098073
 20
90.0905989378
 11
237.2179098073
 21
85.4140617574
  0
LINE
  5
339
100
AcDbEntity
  8
3
100
AcDbLine
 62
7
  6
BYLAYER
 10
245.3179098073
 20
357.0724270378
 11
239.9179098073
 21
357.0724270378
  0
LINE
  5
33A
100
AcDbEntity
  8
4
100
AcDbLine
 62
7
  6
BYLAYER
 10
97.6687789188
 20
357.0724270378
 11
92.2687789188
 21
357.0724270378
  0
LINE
  5
33B
100
AcDbEntity
  8
4
100
AcDbLine
 62
7
  6
BYLAYER
 10
88.0795581937
 20
358.4989642182
 11
89.5644694499
 21
358.4989642182
  0
LINE
  5
33C
100
AcDbEntity
  8
4
100
AcDbLine
 62
7
  6
BYLAYER
 10
100.372750848
 20
358.4989642182
 11
101.5795581937
 21
358.4989642182
  0
LINE
  5
33D
100
AcDbEntity
  8
3
100
AcDbLine
 62
7
  6
BYLAYER
 10
235.7286890822
 20
358.4989642182
 11
237.2136003384
 21
358.4989642182
  0
LINE
  5
33E
100
AcDbEntity
  8
3
100
AcDbLine
 62
7
  6
BYLAYER
 10
248.0218817365
 20
358.4989642182
 11
249.2286890822
 21
358.4989642182
  0
LINE
  5
33F
100
AcDbEntity
  8
3
100
AcDbLine
 62
7
  6
BYLAYER
 10
248.0179098073
 20
331.7489642182
 11
245.3179098073
 21
336.4255013987
  0
LINE
  5
340
100
AcDbEntity
  8
3
100
AcDbLine
 62
7
  6
BYLAYER
 10
237.2179098073
 20
361.7489642182
 11
239.9179098073
 21
357.0724270378
  0
LINE
  5
341
100
AcDbEntity
  8
3
100
AcDbLine
 62
7
  6
BYLAYER
 10
245.3179098073
 20
80.737524577
 11
248.0179098073
 21
85.4140617574
  0
LINE
  5
342
100
AcDbEntity
  8
3
100
AcDbLine
 62
7
  6
BYLAYER
 10
249.2286890822
 20
364.9989642182
 11
248.0222192761
 21
364.9989642182
  0
LINE
  5
343
100
AcDbEntity
  8
3
100
AcDbLine
 62
7
  6
BYLAYER
 10
237.2139378781
 20
364.9989642182
 11
235.7286890822
 21
364.9989642182
  0
LINE
  5
344
100
AcDbEntity
  8
4
100
AcDbLine
 62
7
  6
BYLAYER
 10
101.5795581937
 20
364.9989642182
 11
100.3730883876
 21
364.9989642182
  0
LINE
  5
345
100
AcDbEntity
  8
4
100
AcDbLine
 62
7
  6
BYLAYER
 10
89.5648069895
 20
364.9989642182
 11
88.0795581937
 21
364.9989642182
  0
LINE
  5
346
100
AcDbEntity
  8
4
100
AcDbLine
 62
7
  6
BYLAYER
 10
92.2687789188
 20
366.4255013987
 11
97.6687789188
 21
366.4255013987
  0
LINE
  5
347
100
AcDbEntity
  8
3
100
AcDbLine
 62
7
  6
BYLAYER
 10
239.9179098073
 20
366.4255013987
 11
245.3179098073
 21
366.4255013987
  0
LINE
  5
348
100
AcDbEntity
  8
4
100
AcDbLine
 62
7
  6
BYLAYER
 10
59.7795581937
 20
366.7489642182
 11
62.7795581937
 21
366.7489642182
  0
LINE
  5
349
100
AcDbEntity
  8
3
100
AcDbLine
 62
7
  6
BYLAYER
 10
207.4286890822
 20
366.7489642182
 11
210.4286890822
 21
366.7489642182
  0
LINE
  5
34A
100
AcDbEntity
  8
4
100
AcDbLine
 62
7
  6
BYLAYER
 10
59.7795581937
 20
371.7489642182
 11
104.7795581937
 21
371.7489642182
  0
LINE
  5
34B
100
AcDbEntity
  8
3
100
AcDbLine
 62
7
  6
BYLAYER
 10
207.4286890822
 20
371.7489642182
 11
252.4286890822
 21
371.7489642182
  0
LINE
  5
34C
100
AcDbEntity
  8
3
100
AcDbLine
 62
7
  6
BYLAYER
 10
248.0179098073
 20
361.7489642182
 11
245.3179098073
 21
366.4255013987
  0
LINE
  5
34D
100
AcDbEntity
  8
0
100
AcDbLine
 62
7
  6
BYLAYER
 10
69.9680511092
 20
396.5658866342
 11
119.9680511092
 21
396.5658866342
  0
LINE
  5
34E
100
AcDbEntity
  8
0
100
AcDbLine
 62
7
  6
BYLAYER
 10
217.6171819977
 20
396.5658866342
 11
267.6171819977
 21
396.5658866342
  0
LINE
  5
34F
100
AcDbEntity
  8
3
100
AcDbLine
 62
7
  6
BYLAYER
 10
69.9683038772
 20
396.5658994427
 11
119.9683038772
 21
396.5658994427
  0
LINE
  5
350
100
AcDbEntity
  8
3
100
AcDbLine
 62
7
  6
BYLAYER
 10
217.6174347657
 20
396.5658994427
 11
267.6174347657
 21
396.5658994427
  0
LINE
  5
351
100
AcDbEntity
  8
0
100
AcDbLine
 62
7
  6
BYLAYER
 10
259.6171819977
 20
410.0658866342
 11
243.6171988116
 21
410.0658866342
  0
LINE
  5
352
100
AcDbEntity
  8
0
100
AcDbLine
 62
7
  6
BYLAYER
 10
241.6171819977
 20
410.0658866342
 11
225.6171988116
 21
410.0658866342
  0
LINE
  5
353
100
AcDbEntity
  8
0
100
AcDbLine
 62
7
  6
BYLAYER
 10
111.9680511092
 20
410.0658866342
 11
95.9680679231
 21
410.0658866342
  0
LINE
  5
354
100
AcDbEntity
  8
0
100
AcDbLine
 62
7
  6
BYLAYER
 10
93.9680511092
 20
410.0658866342
 11
77.9680679231
 21
410.0658866342
  0
LINE
  5
355
100
AcDbEntity
  8
0
100
AcDbLine
 62
7
  6
BYLAYER
 10
259.5119729688
 20
410.0770808852
 11
243.7224076194
 21
410.0770808852
  0
LINE
  5
356
100
AcDbEntity
  8
0
100
AcDbLine
 62
7
  6
BYLAYER
 10
241.5119729688
 20
410.0770808852
 11
225.7224076194
 21
410.0770808852
  0
LINE
  5
357
100
AcDbEntity
  8
0
100
AcDbLine
 62
7
  6
BYLAYER
 10
111.8628420803
 20
410.0770808852
 11
96.0732767309
 21
410.0770808852
  0
LINE
  5
358
100
AcDbEntity
  8
0
100
AcDbLine
 62
7
  6
BYLAYER
 10
93.8628420803
 20
410.0770808852
 11
78.0732767309
 21
410.0770808852
  0
LINE
  5
359
100
AcDbEntity
  8
0
100
AcDbLine
 62
7
  6
BYLAYER
 10
77.862556449
 20
411.0546308174
 11
94.0735287337
 21
411.0546308174
  0
LINE
  5
35A
100
AcDbEntity
  8
0
100
AcDbLine
 62
7
  6
BYLAYER
 10
225.5116873375
 20
411.0546308174
 11
241.7226596223
 21
411.0546308174
  0
LINE
  5
35B
100
AcDbEntity
  8
0
100
AcDbLine
 62
7
  6
BYLAYER
 10
95.8627546245
 20
411.0546735513
 11
112.0733305586
 21
411.0546735513
  0
LINE
  5
35C
100
AcDbEntity
  8
0
100
AcDbLine
 62
7
  6
BYLAYER
 10
243.5118855131
 20
411.0546735513
 11
259.7224614471
 21
411.0546735513
  0
LINE
  5
35D
100
AcDbEntity
  8
0
100
AcDbLine
 62
7
  6
BYLAYER
 10
69.9680511092
 20
411.0658866342
 11
77.4680511092
 21
411.0658866342
  0
LINE
  5
35E
100
AcDbEntity
  8
0
100
AcDbLine
 62
7
  6
BYLAYER
 10
112.4680511092
 20
411.0658866342
 11
119.9680511092
 21
411.0658866342
  0
LINE
  5
35F
100
AcDbEntity
  8
0
100
AcDbLine
 62
7
  6
BYLAYER
 10
217.6171819977
 20
411.0658866342
 11
225.1171819977
 21
411.0658866342
  0
LINE
  5
360
100
AcDbEntity
  8
0
100
AcDbLine
 62
7
  6
BYLAYER
 10
260.1171819977
 20
411.0658866342
 11
267.6171819977
 21
411.0658866342
  0
LINE
  5
361
100
AcDbEntity
  8
0
100
AcDbLine
 62
7
  6
BYLAYER
 10
70.4680511092
 20
411.5658866342
 11
77.4680511092
 21
411.5658866342
  0
LINE
  5
362
100
AcDbEntity
  8
0
100
AcDbLine
 62
7
  6
BYLAYER
 10
112.4680511092
 20
411.5658866342
 11
119.4680511092
 21
411.5658866342
  0
LINE
  5
363
100
AcDbEntity
  8
0
100
AcDbLine
 62
7
  6
BYLAYER
 10
218.1171819977
 20
411.5658866342
 11
225.1171819977
 21
411.5658866342
  0
LINE
  5
364
100
AcDbEntity
  8
0
100
AcDbLine
 62
7
  6
BYLAYER
 10
260.1171819977
 20
411.5658866342
 11
267.1171819977
 21
411.5658866342
  0
LINE
  5
365
100
AcDbEntity
  8
0
100
AcDbLine
 62
7
  6
BYLAYER
 10
267.6171819977
 20
412.0658867031
 11
266.4171819977
 21
412.0658866342
  0
LINE
  5
366
100
AcDbEntity
  8
0
100
AcDbLine
 62
7
  6
BYLAYER
 10
259.8171819977
 20
412.0658866342
 11
258.6171819977
 21
412.0658867031
  0
LINE
  5
367
100
AcDbEntity
  8
0
100
AcDbLine
 62
7
  6
BYLAYER
 10
226.6171819977
 20
412.0658867031
 11
225.4171819977
 21
412.0658866342
  0
LINE
  5
368
100
AcDbEntity
  8
0
100
AcDbLine
 62
7
  6
BYLAYER
 10
218.8171819977
 20
412.0658866342
 11
217.6171819977
 21
412.0658867031
  0
LINE
  5
369
100
AcDbEntity
  8
0
100
AcDbLine
 62
7
  6
BYLAYER
 10
119.9680511092
 20
412.0658867031
 11
118.7680511092
 21
412.0658866342
  0
LINE
  5
36A
100
AcDbEntity
  8
0
100
AcDbLine
 62
7
  6
BYLAYER
 10
112.1680511092
 20
412.0658866342
 11
110.9680511092
 21
412.0658867031
  0
LINE
  5
36B
100
AcDbEntity
  8
0
100
AcDbLine
 62
7
  6
BYLAYER
 10
78.9680511092
 20
412.0658867031
 11
77.7680511092
 21
412.0658866342
  0
LINE
  5
36C
100
AcDbEntity
  8
0
100
AcDbLine
 62
7
  6
BYLAYER
 10
71.1680511092
 20
412.0658866342
 11
69.9680511092
 21
412.0658867031
  0
LINE
  5
36D
100
AcDbEntity
  8
0
100
AcDbLine
 62
7
  6
BYLAYER
 10
69.9680511092
 20
413.0658866342
 11
71.1680511092
 21
413.0658866342
  0
LINE
  5
36E
100
AcDbEntity
  8
0
100
AcDbLine
 62
7
  6
BYLAYER
 10
77.7680511092
 20
413.0658866342
 11
90.9680511092
 21
413.0658866275
  0
LINE
  5
36F
100
AcDbEntity
  8
0
100
AcDbLine
 62
7
  6
BYLAYER
 10
98.9680511092
 20
413.0658866341
 11
112.1680511092
 21
413.0658866342
  0
LINE
  5
370
100
AcDbEntity
  8
0
100
AcDbLine
 62
7
  6
BYLAYER
 10
118.7680511092
 20
413.0658866342
 11
119.9680511092
 21
413.0658866342
  0
LINE
  5
371
100
AcDbEntity
  8
0
100
AcDbLine
 62
7
  6
BYLAYER
 10
217.6171819977
 20
413.0658866342
 11
218.8171819977
 21
413.0658866342
  0
LINE
  5
372
100
AcDbEntity
  8
0
100
AcDbLine
 62
7
  6
BYLAYER
 10
225.4171819977
 20
413.0658866342
 11
238.6171819977
 21
413.0658866275
  0
LINE
  5
373
100
AcDbEntity
  8
0
100
AcDbLine
 62
7
  6
BYLAYER
 10
246.6171819977
 20
413.0658866341
 11
259.8171819977
 21
413.0658866342
  0
LINE
  5
374
100
AcDbEntity
  8
0
100
AcDbLine
 62
7
  6
BYLAYER
 10
266.4171819977
 20
413.0658866342
 11
267.6171819977
 21
413.0658866342
  0
LINE
  5
375
100
AcDbEntity
  8
0
100
AcDbLine
 62
7
  6
BYLAYER
 10
71.1680511092
 20
413.1658866342
 11
77.7680511092
 21
413.1658866342
  0
LINE
  5
376
100
AcDbEntity
  8
0
100
AcDbLine
 62
7
  6
BYLAYER
 10
112.1680511092
 20
413.1658866342
 11
118.7680511092
 21
413.1658866342
  0
LINE
  5
377
100
AcDbEntity
  8
0
100
AcDbLine
 62
7
  6
BYLAYER
 10
218.8171819977
 20
413.1658866342
 11
225.4171819977
 21
413.1658866342
  0
LINE
  5
378
100
AcDbEntity
  8
0
100
AcDbLine
 62
7
  6
BYLAYER
 10
259.8171819977
 20
413.1658866342
 11
266.4171819977
 21
413.1658866342
  0
LINE
  5
379
100
AcDbEntity
  8
0
100
AcDbLine
 62
7
  6
BYLAYER
 10
90.8266029289
 20
413.5658866342
 11
99.1085347634
 21
413.5658866342
  0
LINE
  5
37A
100
AcDbEntity
  8
0
100
AcDbLine
 62
7
  6
BYLAYER
 10
238.4757338174
 20
413.5658866342
 11
246.7576656519
 21
413.5658866342
  0
LINE
  5
37B
100
AcDbEntity
  8
0
100
AcDbLine
 62
7
  6
BYLAYER
 10
266.6171819977
 20
414.0658866342
 11
265.7903872012
 21
414.0658866342
  0
LINE
  5
37C
100
AcDbEntity
  8
0
100
AcDbLine
 62
7
  6
BYLAYER
 10
219.4439767942
 20
414.0658866342
 11
218.6171819977
 21
414.0658866342
  0
LINE
  5
37D
100
AcDbEntity
  8
0
100
AcDbLine
 62
7
  6
BYLAYER
 10
118.9680511092
 20
414.0658866342
 11
118.1412563127
 21
414.0658866342
  0
LINE
  5
37E
100
AcDbEntity
  8
0
100
AcDbLine
 62
7
  6
BYLAYER
 10
71.7948459057
 20
414.0658866342
 11
70.9680511092
 21
414.0658866342
  0
LINE
  5
37F
100
AcDbEntity
  8
0
100
AcDbLine
 62
7
  6
BYLAYER
 10
77.1412563127
 20
414.0658866342
 11
112.7948459057
 21
414.0658866342
  0
LINE
  5
380
100
AcDbEntity
  8
0
100
AcDbLine
 62
7
  6
BYLAYER
 10
224.7903872012
 20
414.0658866342
 11
260.4439767942
 21
414.0658866342
  0
LINE
  5
381
100
AcDbEntity
  8
0
100
AcDbLine
 62
7
  6
BYLAYER
 10
71.1680513558
 20
414.1658866342
 11
76.7679496832
 21
414.1658866342
  0
LINE
  5
382
100
AcDbEntity
  8
0
100
AcDbLine
 62
7
  6
BYLAYER
 10
113.1680513558
 20
414.1658866342
 11
118.7679496832
 21
414.1658866342
  0
LINE
  5
383
100
AcDbEntity
  8
0
100
AcDbLine
 62
7
  6
BYLAYER
 10
218.8171822444
 20
414.1658866342
 11
224.4170805717
 21
414.1658866342
  0
LINE
  5
384
100
AcDbEntity
  8
0
100
AcDbLine
 62
7
  6
BYLAYER
 10
260.8171822444
 20
414.1658866342
 11
266.4170805717
 21
414.1658866342
  0
LINE
  5
385
100
AcDbEntity
  8
0
100
AcDbLine
 62
7
  6
BYLAYER
 10
259.3671819977
 20
415.5658866342
 11
243.8671819977
 21
415.5658866342
  0
LINE
  5
386
100
AcDbEntity
  8
0
100
AcDbLine
 62
7
  6
BYLAYER
 10
241.3671819977
 20
415.5658866342
 11
225.8671819977
 21
415.5658866342
  0
LINE
  5
387
100
AcDbEntity
  8
0
100
AcDbLine
 62
7
  6
BYLAYER
 10
111.7180511092
 20
415.5658866342
 11
96.2180511092
 21
415.5658866342
  0
LINE
  5
388
100
AcDbEntity
  8
0
100
AcDbLine
 62
7
  6
BYLAYER
 10
93.7180511092
 20
415.5658866342
 11
78.2180511092
 21
415.5658866342
  0
LINE
  5
389
100
AcDbEntity
  8
0
100
AcDbLine
 62
7
  6
BYLAYER
 10
259.3671777149
 20
418.5658866342
 11
243.8671862805
 21
418.5658866342
  0
LINE
  5
38A
100
AcDbEntity
  8
0
100
AcDbLine
 62
7
  6
BYLAYER
 10
241.3671777149
 20
418.5658866342
 11
225.8671862805
 21
418.5658866342
  0
LINE
  5
38B
100
AcDbEntity
  8
0
100
AcDbLine
 62
7
  6
BYLAYER
 10
111.7180468264
 20
418.5658866342
 11
96.218055392
 21
418.5658866342
  0
LINE
  5
38C
100
AcDbEntity
  8
0
100
AcDbLine
 62
7
  6
BYLAYER
 10
93.7180468264
 20
418.5658866342
 11
78.218055392
 21
418.5658866342
  0
LINE
  5
38D
100
AcDbEntity
  8
0
100
AcDbLine
 62
7
  6
BYLAYER
 10
78.2180511092
 20
420.0658866342
 11
93.7180511092
 21
420.0658866342
  0
LINE
  5
38E
100
AcDbEntity
  8
0
100
AcDbLine
 62
7
  6
BYLAYER
 10
96.2180511092
 20
420.0658866342
 11
111.7180511092
 21
420.0658866342
  0
LINE
  5
38F
100
AcDbEntity
  8
0
100
AcDbLine
 62
7
  6
BYLAYER
 10
225.8671819977
 20
420.0658866342
 11
241.3671819977
 21
420.0658866342
  0
LINE
  5
390
100
AcDbEntity
  8
0
100
AcDbLine
 62
7
  6
BYLAYER
 10
243.8671819977
 20
420.0658866342
 11
259.3671819977
 21
420.0658866342
  0
LINE
  5
391
100
AcDbEntity
  8
0
100
AcDbLine
 62
7
  6
BYLAYER
 10
78.718055112
 20
420.5658866342
 11
93.2180471064
 21
420.5658866342
  0
LINE
  5
392
100
AcDbEntity
  8
0
100
AcDbLine
 62
7
  6
BYLAYER
 10
96.718055112
 20
420.5658866342
 11
111.2180471064
 21
420.5658866342
  0
LINE
  5
393
100
AcDbEntity
  8
0
100
AcDbLine
 62
7
  6
BYLAYER
 10
226.3671860005
 20
420.5658866342
 11
240.8671779949
 21
420.5658866342
  0
LINE
  5
394
100
AcDbEntity
  8
0
100
AcDbLine
 62
7
  6
BYLAYER
 10
244.3671860005
 20
420.5658866342
 11
258.8671779949
 21
420.5658866342
  0
LINE
  5
395
100
AcDbEntity
  8
0
100
AcDbLine
 62
7
  6
BYLAYER
 10
81.8438311092
 20
421.7658866342
 11
90.0938311092
 21
421.7658866342
  0
LINE
  5
396
100
AcDbEntity
  8
0
100
AcDbLine
 62
7
  6
BYLAYER
 10
99.8448111092
 20
421.7658866342
 11
108.0948111092
 21
421.7658866342
  0
LINE
  5
397
100
AcDbEntity
  8
0
100
AcDbLine
 62
7
  6
BYLAYER
 10
229.4929619977
 20
421.7658866342
 11
237.7429619977
 21
421.7658866342
  0
LINE
  5
398
100
AcDbEntity
  8
0
100
AcDbLine
 62
7
  6
BYLAYER
 10
247.4939419977
 20
421.7658866342
 11
255.7439419977
 21
421.7658866342
  0
LINE
  5
399
100
AcDbEntity
  8
0
100
AcDbLine
 62
7
  6
BYLAYER
 10
82.1439185852
 20
422.0658866342
 11
89.7938497263
 21
422.0658866342
  0
LINE
  5
39A
100
AcDbEntity
  8
0
100
AcDbLine
 62
7
  6
BYLAYER
 10
100.1447507413
 20
422.0658866342
 11
107.7948330005
 21
422.0658866342
  0
LINE
  5
39B
100
AcDbEntity
  8
0
100
AcDbLine
 62
7
  6
BYLAYER
 10
229.7930494738
 20
422.0658866342
 11
237.4429806148
 21
422.0658866342
  0
LINE
  5
39C
100
AcDbEntity
  8
0
100
AcDbLine
 62
7
  6
BYLAYER
 10
247.7938816298
 20
422.0658866342
 11
255.443963889
 21
422.0658866342
  0
LINE
  5
39D
100
AcDbEntity
  8
0
100
AcDbLine
 62
7
  6
BYLAYER
 10
240.8671819977
 20
420.5658866342
 11
241.3671819977
 21
420.0658866342
  0
LINE
  5
39E
100
AcDbEntity
  8
0
100
AcDbLine
 62
7
  6
BYLAYER
 10
239.1171839763
 20
424.5658866342
 11
239.6171819977
 21
424.0658887927
  0
LINE
  5
39F
100
AcDbEntity
  8
0
100
AcDbLine
 62
7
  6
BYLAYER
 10
79.9680511092
 20
424.0658856967
 11
91.9680511092
 21
424.0658856967
  0
LINE
  5
3A0
100
AcDbEntity
  8
0
100
AcDbLine
 62
7
  6
BYLAYER
 10
227.6171819977
 20
424.0658856967
 11
239.6171819977
 21
424.0658856967
  0
LINE
  5
3A1
100
AcDbEntity
  8
0
100
AcDbLine
 62
7
  6
BYLAYER
 10
80.4680564105
 20
424.5658866342
 11
91.4680516734
 21
424.5658866342
  0
LINE
  5
3A2
100
AcDbEntity
  8
0
100
AcDbLine
 62
7
  6
BYLAYER
 10
228.117187299
 20
424.5658866342
 11
239.117182562
 21
424.5658866342
  0
LINE
  5
3A3
100
AcDbEntity
  8
0
100
AcDbLine
 62
7
  6
BYLAYER
 10
258.8671819977
 20
420.5658866342
 11
259.3671819977
 21
420.0658866342
  0
ARC
  5
3A4
100
AcDbEntity
  8
0
100
AcDbCircle
 62
7
  6
BYLAYER
 10
71.1683038802
 20
31.4658866342
 40
1.0
100
AcDbArc
 50
234.2503109333
 51
270.0
  0
ARC
  5
3A5
100
AcDbEntity
  8
0
100
AcDbCircle
 62
7
  6
BYLAYER
 10
76.7687789202
 20
31.4658866342
 40
1.0
100
AcDbArc
 50
270.0
 51
360.0
  0
ARC
  5
3A6
100
AcDbEntity
  8
0
100
AcDbCircle
 62
7
  6
BYLAYER
 10
72.1687789202
 20
31.4658866342
 40
1.0
100
AcDbArc
 50
180.0
 51
270.0
  0
ARC
  5
3A7
100
AcDbEntity
  8
0
100
AcDbCircle
 62
7
  6
BYLAYER
 10
78.9687789202
 20
31.5657764957
 40
1.0
100
AcDbArc
 50
180.0
 51
270.0
  0
ARC
  5
3A8
100
AcDbEntity
  8
0
100
AcDbCircle
 62
7
  6
BYLAYER
 10
70.9687789202
 20
31.5657764957
 40
1.0
100
AcDbArc
 50
180.0
 51
270.0
  0
ARC
  5
3A9
100
AcDbEntity
  8
0
100
AcDbCircle
 62
7
  6
BYLAYER
 10
89.9687789202
 20
31.5657764957
 40
1.0
100
AcDbArc
 50
270.0
 51
360.0
  0
ARC
  5
3AA
100
AcDbEntity
  8
0
100
AcDbCircle
 62
7
  6
BYLAYER
 10
70.4687789202
 20
33.5657764957
 40
0.5
100
AcDbArc
 50
180.0
 51
270.0
  0
ARC
  5
3AB
100
AcDbEntity
  8
0
100
AcDbCircle
 62
7
  6
BYLAYER
 10
77.4687789202
 20
32.5657764957
 40
0.5
100
AcDbArc
 50
0.0
 51
90.0
  0
ARC
  5
3AC
100
AcDbEntity
  8
4
100
AcDbCircle
 62
7
  6
BYLAYER
 10
88.0795581937
 20
85.4140617574
 40
3.25
100
AcDbArc
 50
90.0
 51
270.0
  0
ARC
  5
3AD
100
AcDbEntity
  8
4
100
AcDbCircle
 62
7
  6
BYLAYER
 10
88.0795581937
 20
115.4140617574
 40
3.25
100
AcDbArc
 50
90.0
 51
270.0
  0
ARC
  5
3AE
100
AcDbEntity
  8
0
100
AcDbCircle
 62
7
  6
BYLAYER
 10
118.7683038772
 20
31.4658866342
 40
1.0
100
AcDbArc
 50
270.0
 51
305.7190868305
  0
ARC
  5
3AF
100
AcDbEntity
  8
0
100
AcDbCircle
 62
7
  6
BYLAYER
 10
117.7687789173
 20
31.4658866342
 40
1.0
100
AcDbArc
 50
270.0
 51
360.0
  0
ARC
  5
3B0
100
AcDbEntity
  8
0
100
AcDbCircle
 62
7
  6
BYLAYER
 10
113.1687789173
 20
31.4658866342
 40
1.0
100
AcDbArc
 50
180.0
 51
270.0
  0
ARC
  5
3B1
100
AcDbEntity
  8
0
100
AcDbCircle
 62
7
  6
BYLAYER
 10
99.9687789202
 20
31.5657764957
 40
1.0
100
AcDbArc
 50
179.9999999984
 51
270.0
  0
ARC
  5
3B2
100
AcDbEntity
  8
0
100
AcDbCircle
 62
7
  6
BYLAYER
 10
110.9687789202
 20
31.5657764957
 40
1.0
100
AcDbArc
 50
270.0
 51
360.0
  0
ARC
  5
3B3
100
AcDbEntity
  8
0
100
AcDbCircle
 62
7
  6
BYLAYER
 10
118.9687789202
 20
31.5657764957
 40
1.0
100
AcDbArc
 50
270.0
 51
360.0
  0
ARC
  5
3B4
100
AcDbEntity
  8
0
100
AcDbCircle
 62
7
  6
BYLAYER
 10
112.4687789202
 20
32.5657764957
 40
0.5
100
AcDbArc
 50
90.0
 51
180.0
  0
ARC
  5
3B5
100
AcDbEntity
  8
0
100
AcDbCircle
 62
7
  6
BYLAYER
 10
119.4687789202
 20
33.5657764957
 40
0.5
100
AcDbArc
 50
270.0
 51
360.0
  0
CIRCLE
  5
3B6
100
AcDbEntity
  8
4
100
AcDbCircle
 62
7
  6
BYLAYER
 10
94.9687789188
 20
85.4140617574
 40
6.3525
  0
CIRCLE
  5
3B7
100
AcDbEntity
  8
4
100
AcDbCircle
 62
7
  6
BYLAYER
 10
94.9687789188
 20
115.4140617574
 40
6.3525
  0
ARC
  5
3B8
100
AcDbEntity
  8
4
100
AcDbCircle
 62
7
  6
BYLAYER
 10
104.7795581937
 20
80.4140617574
 40
5.0
100
AcDbArc
 50
270.0
 51
360.0
  0
ARC
  5
3B9
100
AcDbEntity
  8
4
100
AcDbCircle
 62
7
  6
BYLAYER
 10
104.7795581937
 20
120.4140617574
 40
5.0
100
AcDbArc
 50
0.0
 51
90.0
  0
ARC
  5
3BA
100
AcDbEntity
  8
4
100
AcDbCircle
 62
7
  6
BYLAYER
 10
101.5795581937
 20
85.4140617574
 40
3.25
100
AcDbArc
 50
270.0
 51
90.0
  0
ARC
  5
3BB
100
AcDbEntity
  8
4
100
AcDbCircle
 62
7
  6
BYLAYER
 10
101.5795581937
 20
115.4140617574
 40
3.25
100
AcDbArc
 50
270.0
 51
90.0
  0
CIRCLE
  5
3BC
100
AcDbEntity
  8
4
100
AcDbCircle
 62
7
  6
BYLAYER
 10
94.9687789188
 20
85.4140617574
 40
3.0
  0
CIRCLE
  5
3BD
100
AcDbEntity
  8
4
100
AcDbCircle
 62
7
  6
BYLAYER
 10
94.9687789188
 20
115.4140617574
 40
3.0
  0
ARC
  5
3BE
100
AcDbEntity
  8
4
100
AcDbCircle
 62
7
  6
BYLAYER
 10
88.0795581937
 20
331.7489642182
 40
3.25
100
AcDbArc
 50
90.0
 51
270.0
  0
ARC
  5
3BF
100
AcDbEntity
  8
4
100
AcDbCircle
 62
7
  6
BYLAYER
 10
88.0795581937
 20
361.7489642182
 40
3.25
100
AcDbArc
 50
90.0
 51
270.0
  0
ARC
  5
3C0
100
AcDbEntity
  8
0
100
AcDbCircle
 62
7
  6
BYLAYER
 10
71.1680511092
 20
413.1658866342
 40
1.0
100
AcDbArc
 50
90.0
 51
125.746880854
  0
ARC
  5
3C1
100
AcDbEntity
  8
0
100
AcDbCircle
 62
7
  6
BYLAYER
 10
72.1680511092
 20
413.1658866342
 40
1.0
100
AcDbArc
 50
90.0
 51
180.0
  0
ARC
  5
3C2
100
AcDbEntity
  8
0
100
AcDbCircle
 62
7
  6
BYLAYER
 10
76.7680511092
 20
413.1658866342
 40
1.0
100
AcDbArc
 50
0.0
 51
90.0
  0
ARC
  5
3C3
100
AcDbEntity
  8
0
100
AcDbCircle
 62
7
  6
BYLAYER
 10
70.9680511092
 20
413.0658866342
 40
1.0
100
AcDbArc
 50
90.0
 51
180.0
  0
ARC
  5
3C4
100
AcDbEntity
  8
0
100
AcDbCircle
 62
7
  6
BYLAYER
 10
78.9680511092
 20
413.0658866342
 40
1.0
100
AcDbArc
 50
90.0
 51
180.0
  0
ARC
  5
3C5
100
AcDbEntity
  8
0
100
AcDbCircle
 62
7
  6
BYLAYER
 10
77.4680511092
 20
412.0658866342
 40
0.5
100
AcDbArc
 50
270.0
 51
360.0
  0
ARC
  5
3C6
100
AcDbEntity
  8
0
100
AcDbCircle
 62
7
  6
BYLAYER
 10
70.4680511092
 20
411.0658866342
 40
0.5
100
AcDbArc
 50
90.0
 51
180.0
  0
ARC
  5
3C7
100
AcDbEntity
  8
0
100
AcDbCircle
 62
7
  6
BYLAYER
 10
77.9680687711
 20
410.5658868172
 40
0.4999999532
100
AcDbArc
 50
102.1804098124
 51
282.180210997
  0
ARC
  5
3C8
100
AcDbEntity
  8
0
100
AcDbCircle
 62
7
  6
BYLAYER
 10
82.1438311092
 20
421.7658866342
 40
0.3
100
AcDbArc
 50
90.0
 51
180.0
  0
ARC
  5
3C9
100
AcDbEntity
  8
0
100
AcDbCircle
 62
7
  6
BYLAYER
 10
89.9680511092
 20
413.0658866342
 40
1.0
100
AcDbArc
 50
0.0
 51
90.0
  0
ARC
  5
3CA
100
AcDbEntity
  8
0
100
AcDbCircle
 62
7
  6
BYLAYER
 10
93.9680334473
 20
410.5658868172
 40
0.4999999532
100
AcDbArc
 50
257.819789003
 51
77.8195901877
  0
ARC
  5
3CB
100
AcDbEntity
  8
0
100
AcDbCircle
 62
7
  6
BYLAYER
 10
89.7938311092
 20
421.7658866342
 40
0.3
100
AcDbArc
 50
0.0
 51
90.0
  0
CIRCLE
  5
3CC
100
AcDbEntity
  8
4
100
AcDbCircle
 62
7
  6
BYLAYER
 10
94.9687789188
 20
331.7489642182
 40
6.3525
  0
CIRCLE
  5
3CD
100
AcDbEntity
  8
4
100
AcDbCircle
 62
7
  6
BYLAYER
 10
94.9687789188
 20
361.7489642182
 40
6.3525
  0
ARC
  5
3CE
100
AcDbEntity
  8
4
100
AcDbCircle
 62
7
  6
BYLAYER
 10
104.7795581937
 20
326.7489642182
 40
5.0
100
AcDbArc
 50
270.0
 51
360.0
  0
ARC
  5
3CF
100
AcDbEntity
  8
4
100
AcDbCircle
 62
7
  6
BYLAYER
 10
104.7795581937
 20
366.7489642182
 40
5.0
100
AcDbArc
 50
0.0
 51
90.0
  0
ARC
  5
3D0
100
AcDbEntity
  8
4
100
AcDbCircle
 62
7
  6
BYLAYER
 10
101.5795581937
 20
331.7489642182
 40
3.25
100
AcDbArc
 50
270.0
 51
90.0
  0
ARC
  5
3D1
100
AcDbEntity
  8
4
100
AcDbCircle
 62
7
  6
BYLAYER
 10
101.5795581937
 20
361.7489642182
 40
3.25
100
AcDbArc
 50
270.0
 51
90.0
  0
CIRCLE
  5
3D2
100
AcDbEntity
  8
4
100
AcDbCircle
 62
7
  6
BYLAYER
 10
94.9687789188
 20
331.7489642182
 40
3.0
  0
CIRCLE
  5
3D3
100
AcDbEntity
  8
4
100
AcDbCircle
 62
7
  6
BYLAYER
 10
94.9687789188
 20
361.7489642182
 40
3.0
  0
ARC
  5
3D4
100
AcDbEntity
  8
0
100
AcDbCircle
 62
7
  6
BYLAYER
 10
99.9680511092
 20
413.0658866342
 40
1.0
100
AcDbArc
 50
90.0
 51
180.0000000008
  0
ARC
  5
3D5
100
AcDbEntity
  8
0
100
AcDbCircle
 62
7
  6
BYLAYER
 10
95.9680687716
 20
410.5658868169
 40
0.4999999534
100
AcDbArc
 50
102.1571786862
 51
282.1569797606
  0
ARC
  5
3D6
100
AcDbEntity
  8
0
100
AcDbCircle
 62
7
  6
BYLAYER
 10
100.1448111092
 20
421.7658866342
 40
0.3
100
AcDbArc
 50
90.0
 51
180.0
  0
ARC
  5
3D7
100
AcDbEntity
  8
0
100
AcDbCircle
 62
7
  6
BYLAYER
 10
118.7680511092
 20
413.1658866342
 40
1.0
100
AcDbArc
 50
54.2529864704
 51
90.0
  0
ARC
  5
3D8
100
AcDbEntity
  8
0
100
AcDbCircle
 62
7
  6
BYLAYER
 10
113.1680511092
 20
413.1658866342
 40
1.0
100
AcDbArc
 50
90.0
 51
180.0
  0
ARC
  5
3D9
100
AcDbEntity
  8
0
100
AcDbCircle
 62
7
  6
BYLAYER
 10
117.7680511092
 20
413.1658866342
 40
1.0
100
AcDbArc
 50
0.0
 51
90.0
  0
ARC
  5
3DA
100
AcDbEntity
  8
0
100
AcDbCircle
 62
7
  6
BYLAYER
 10
110.9680511092
 20
413.0658866342
 40
1.0
100
AcDbArc
 50
0.0
 51
90.0
  0
ARC
  5
3DB
100
AcDbEntity
  8
0
100
AcDbCircle
 62
7
  6
BYLAYER
 10
118.9680511092
 20
413.0658866342
 40
1.0
100
AcDbArc
 50
0.0
 51
90.0
  0
ARC
  5
3DC
100
AcDbEntity
  8
0
100
AcDbCircle
 62
7
  6
BYLAYER
 10
119.4680511092
 20
411.0658866342
 40
0.5
100
AcDbArc
 50
0.0
 51
90.0
  0
ARC
  5
3DD
100
AcDbEntity
  8
0
100
AcDbCircle
 62
7
  6
BYLAYER
 10
112.4680511092
 20
412.0658866342
 40
0.5
100
AcDbArc
 50
180.0
 51
270.0
  0
ARC
  5
3DE
100
AcDbEntity
  8
0
100
AcDbCircle
 62
7
  6
BYLAYER
 10
111.9680334467
 20
410.5658868169
 40
0.4999999534
100
AcDbArc
 50
257.8430202394
 51
77.8428213138
  0
ARC
  5
3DF
100
AcDbEntity
  8
0
100
AcDbCircle
 62
7
  6
BYLAYER
 10
107.7948111092
 20
421.7658866342
 40
0.3
100
AcDbArc
 50
0.0
 51
90.0
  0
ARC
  5
3E0
100
AcDbEntity
  8
0
100
AcDbCircle
 62
7
  6
BYLAYER
 10
218.8174347688
 20
31.4658866342
 40
1.0
100
AcDbArc
 50
234.2503109333
 51
270.0
  0
ARC
  5
3E1
100
AcDbEntity
  8
0
100
AcDbCircle
 62
7
  6
BYLAYER
 10
224.4179098087
 20
31.4658866342
 40
1.0
100
AcDbArc
 50
270.0
 51
360.0
  0
ARC
  5
3E2
100
AcDbEntity
  8
0
100
AcDbCircle
 62
7
  6
BYLAYER
 10
219.8179098087
 20
31.4658866342
 40
1.0
100
AcDbArc
 50
180.0
 51
270.0
  0
ARC
  5
3E3
100
AcDbEntity
  8
0
100
AcDbCircle
 62
7
  6
BYLAYER
 10
226.6179098087
 20
31.5657764957
 40
1.0
100
AcDbArc
 50
180.0
 51
270.0
  0
ARC
  5
3E4
100
AcDbEntity
  8
0
100
AcDbCircle
 62
7
  6
BYLAYER
 10
218.6179098087
 20
31.5657764957
 40
1.0
100
AcDbArc
 50
180.0
 51
270.0
  0
ARC
  5
3E5
100
AcDbEntity
  8
0
100
AcDbCircle
 62
7
  6
BYLAYER
 10
237.6179098087
 20
31.5657764957
 40
1.0
100
AcDbArc
 50
270.0
 51
360.0
  0
ARC
  5
3E6
100
AcDbEntity
  8
0
100
AcDbCircle
 62
7
  6
BYLAYER
 10
218.1179098087
 20
33.5657764957
 40
0.5
100
AcDbArc
 50
180.0
 51
270.0
  0
ARC
  5
3E7
100
AcDbEntity
  8
0
100
AcDbCircle
 62
7
  6
BYLAYER
 10
225.1179098087
 20
32.5657764957
 40
0.5
100
AcDbArc
 50
0.0
 51
90.0
  0
ARC
  5
3E8
100
AcDbEntity
  8
3
100
AcDbCircle
 62
7
  6
BYLAYER
 10
235.7286890822
 20
85.4140617574
 40
3.25
100
AcDbArc
 50
90.0
 51
270.0
  0
ARC
  5
3E9
100
AcDbEntity
  8
3
100
AcDbCircle
 62
7
  6
BYLAYER
 10
235.7286890822
 20
115.4140617574
 40
3.25
100
AcDbArc
 50
90.0
 51
270.0
  0
ARC
  5
3EA
100
AcDbEntity
  8
0
100
AcDbCircle
 62
7
  6
BYLAYER
 10
266.4174347657
 20
31.4658866342
 40
1.0
100
AcDbArc
 50
270.0
 51
305.7190868305
  0
ARC
  5
3EB
100
AcDbEntity
  8
0
100
AcDbCircle
 62
7
  6
BYLAYER
 10
265.4179098058
 20
31.4658866342
 40
1.0
100
AcDbArc
 50
270.0
 51
360.0
  0
ARC
  5
3EC
100
AcDbEntity
  8
0
100
AcDbCircle
 62
7
  6
BYLAYER
 10
260.8179098058
 20
31.4658866342
 40
1.0
100
AcDbArc
 50
180.0
 51
270.0
  0
ARC
  5
3ED
100
AcDbEntity
  8
0
100
AcDbCircle
 62
7
  6
BYLAYER
 10
247.6179098087
 20
31.5657764957
 40
1.0
100
AcDbArc
 50
179.9999999984
 51
270.0
  0
ARC
  5
3EE
100
AcDbEntity
  8
0
100
AcDbCircle
 62
7
  6
BYLAYER
 10
258.6179098087
 20
31.5657764957
 40
1.0
100
AcDbArc
 50
270.0
 51
360.0
  0
ARC
  5
3EF
100
AcDbEntity
  8
0
100
AcDbCircle
 62
7
  6
BYLAYER
 10
266.6179098087
 20
31.5657764957
 40
1.0
100
AcDbArc
 50
270.0
 51
360.0
  0
ARC
  5
3F0
100
AcDbEntity
  8
0
100
AcDbCircle
 62
7
  6
BYLAYER
 10
260.1179098087
 20
32.5657764957
 40
0.5
100
AcDbArc
 50
90.0
 51
180.0
  0
ARC
  5
3F1
100
AcDbEntity
  8
0
100
AcDbCircle
 62
7
  6
BYLAYER
 10
267.1179098087
 20
33.5657764957
 40
0.5
100
AcDbArc
 50
270.0
 51
360.0
  0
CIRCLE
  5
3F2
100
AcDbEntity
  8
3
100
AcDbCircle
 62
7
  6
BYLAYER
 10
242.6179098073
 20
85.4140617574
 40
6.3525
  0
CIRCLE
  5
3F3
100
AcDbEntity
  8
3
100
AcDbCircle
 62
7
  6
BYLAYER
 10
242.6179098073
 20
115.4140617574
 40
6.3525
  0
ARC
  5
3F4
100
AcDbEntity
  8
3
100
AcDbCircle
 62
7
  6
BYLAYER
 10
252.4286890822
 20
80.4140617574
 40
5.0
100
AcDbArc
 50
270.0
 51
360.0
  0
ARC
  5
3F5
100
AcDbEntity
  8
3
100
AcDbCircle
 62
7
  6
BYLAYER
 10
252.4286890822
 20
120.4140617574
 40
5.0
100
AcDbArc
 50
0.0
 51
90.0
  0
ARC
  5
3F6
100
AcDbEntity
  8
3
100
AcDbCircle
 62
7
  6
BYLAYER
 10
249.2286890822
 20
85.4140617574
 40
3.25
100
AcDbArc
 50
270.0
 51
90.0
  0
ARC
  5
3F7
100
AcDbEntity
  8
3
100
AcDbCircle
 62
7
  6
BYLAYER
 10
249.2286890822
 20
115.4140617574
 40
3.25
100
AcDbArc
 50
270.0
 51
90.0
  0
CIRCLE
  5
3F8
100
AcDbEntity
  8
3
100
AcDbCircle
 62
7
  6
BYLAYER
 10
242.6179098073
 20
85.4140617574
 40
3.0
  0
CIRCLE
  5
3F9
100
AcDbEntity
  8
3
100
AcDbCircle
 62
7
  6
BYLAYER
 10
242.6179098073
 20
115.4140617574
 40
3.0
  0
ARC
  5
3FA
100
AcDbEntity
  8
3
100
AcDbCircle
 62
7
  6
BYLAYER
 10
235.7286890822
 20
331.7489642182
 40
3.25
100
AcDbArc
 50
90.0
 51
270.0
  0
ARC
  5
3FB
100
AcDbEntity
  8
3
100
AcDbCircle
 62
7
  6
BYLAYER
 10
235.7286890822
 20
361.7489642182
 40
3.25
100
AcDbArc
 50
90.0
 51
270.0
  0
ARC
  5
3FC
100
AcDbEntity
  8
0
100
AcDbCircle
 62
7
  6
BYLAYER
 10
218.8171819977
 20
413.1658866342
 40
1.0
100
AcDbArc
 50
90.0
 51
125.746880854
  0
ARC
  5
3FD
100
AcDbEntity
  8
0
100
AcDbCircle
 62
7
  6
BYLAYER
 10
219.8171819977
 20
413.1658866342
 40
1.0
100
AcDbArc
 50
90.0
 51
180.0
  0
ARC
  5
3FE
100
AcDbEntity
  8
0
100
AcDbCircle
 62
7
  6
BYLAYER
 10
224.4171819977
 20
413.1658866342
 40
1.0
100
AcDbArc
 50
0.0
 51
90.0
  0
ARC
  5
3FF
100
AcDbEntity
  8
0
100
AcDbCircle
 62
7
  6
BYLAYER
 10
218.6171819977
 20
413.0658866342
 40
1.0
100
AcDbArc
 50
90.0
 51
180.0
  0
ARC
  5
400
100
AcDbEntity
  8
0
100
AcDbCircle
 62
7
  6
BYLAYER
 10
226.6171819977
 20
413.0658866342
 40
1.0
100
AcDbArc
 50
90.0
 51
180.0
  0
ARC
  5
401
100
AcDbEntity
  8
0
100
AcDbCircle
 62
7
  6
BYLAYER
 10
225.1171819977
 20
412.0658866342
 40
0.5
100
AcDbArc
 50
270.0
 51
360.0
  0
ARC
  5
402
100
AcDbEntity
  8
0
100
AcDbCircle
 62
7
  6
BYLAYER
 10
218.1171819977
 20
411.0658866342
 40
0.5
100
AcDbArc
 50
90.0
 51
180.0
  0
ARC
  5
403
100
AcDbEntity
  8
0
100
AcDbCircle
 62
7
  6
BYLAYER
 10
225.6171996596
 20
410.5658868172
 40
0.4999999532
100
AcDbArc
 50
102.1804098124
 51
282.180210997
  0
ARC
  5
404
100
AcDbEntity
  8
0
100
AcDbCircle
 62
7
  6
BYLAYER
 10
229.7929619977
 20
421.7658866342
 40
0.3
100
AcDbArc
 50
90.0
 51
180.0
  0
ARC
  5
405
100
AcDbEntity
  8
0
100
AcDbCircle
 62
7
  6
BYLAYER
 10
237.6171819977
 20
413.0658866342
 40
1.0
100
AcDbArc
 50
0.0
 51
90.0
  0
ARC
  5
406
100
AcDbEntity
  8
0
100
AcDbCircle
 62
7
  6
BYLAYER
 10
241.6171643358
 20
410.5658868172
 40
0.4999999532
100
AcDbArc
 50
257.819789003
 51
77.8195901876
  0
ARC
  5
407
100
AcDbEntity
  8
0
100
AcDbCircle
 62
7
  6
BYLAYER
 10
237.4429619977
 20
421.7658866342
 40
0.3
100
AcDbArc
 50
0.0
 51
90.0
  0
CIRCLE
  5
408
100
AcDbEntity
  8
3
100
AcDbCircle
 62
7
  6
BYLAYER
 10
242.6179098073
 20
361.7489642182
 40
6.3525
  0
CIRCLE
  5
409
100
AcDbEntity
  8
3
100
AcDbCircle
 62
7
  6
BYLAYER
 10
242.6179098073
 20
331.7489642182
 40
6.3525
  0
ARC
  5
40A
100
AcDbEntity
  8
3
100
AcDbCircle
 62
7
  6
BYLAYER
 10
252.4286890822
 20
326.7489642182
 40
5.0
100
AcDbArc
 50
270.0
 51
360.0
  0
ARC
  5
40B
100
AcDbEntity
  8
3
100
AcDbCircle
 62
7
  6
BYLAYER
 10
252.4286890822
 20
366.7489642182
 40
5.0
100
AcDbArc
 50
0.0
 51
90.0
  0
ARC
  5
40C
100
AcDbEntity
  8
3
100
AcDbCircle
 62
7
  6
BYLAYER
 10
249.2286890822
 20
331.7489642182
 40
3.25
100
AcDbArc
 50
270.0
 51
90.0
  0
ARC
  5
40D
100
AcDbEntity
  8
3
100
AcDbCircle
 62
7
  6
BYLAYER
 10
249.2286890822
 20
361.7489642182
 40
3.25
100
AcDbArc
 50
270.0
 51
90.0
  0
CIRCLE
  5
40E
100
AcDbEntity
  8
3
100
AcDbCircle
 62
7
  6
BYLAYER
 10
242.6179098073
 20
331.7489642182
 40
3.0
  0
CIRCLE
  5
40F
100
AcDbEntity
  8
3
100
AcDbCircle
 62
7
  6
BYLAYER
 10
242.6179098073
 20
361.7489642182
 40
3.0
  0
ARC
  5
410
100
AcDbEntity
  8
0
100
AcDbCircle
 62
7
  6
BYLAYER
 10
247.6171819977
 20
413.0658866342
 40
1.0
100
AcDbArc
 50
90.0
 51
180.0000000008
  0
ARC
  5
411
100
AcDbEntity
  8
0
100
AcDbCircle
 62
7
  6
BYLAYER
 10
243.6171996601
 20
410.5658868169
 40
0.4999999534
100
AcDbArc
 50
102.1571786862
 51
282.1569797606
  0
ARC
  5
412
100
AcDbEntity
  8
0
100
AcDbCircle
 62
7
  6
BYLAYER
 10
247.7939419977
 20
421.7658866342
 40
0.3
100
AcDbArc
 50
90.0
 51
180.0
  0
ARC
  5
413
100
AcDbEntity
  8
0
100
AcDbCircle
 62
7
  6
BYLAYER
 10
266.4171819977
 20
413.1658866342
 40
1.0
100
AcDbArc
 50
54.2529864704
 51
90.0
  0
ARC
  5
414
100
AcDbEntity
  8
0
100
AcDbCircle
 62
7
  6
BYLAYER
 10
260.8171819977
 20
413.1658866342
 40
1.0
100
AcDbArc
 50
90.0
 51
180.0
  0
ARC
  5
415
100
AcDbEntity
  8
0
100
AcDbCircle
 62
7
  6
BYLAYER
 10
265.4171819977
 20
413.1658866342
 40
1.0
100
AcDbArc
 50
0.0
 51
90.0
  0
ARC
  5
416
100
AcDbEntity
  8
0
100
AcDbCircle
 62
7
  6
BYLAYER
 10
258.6171819977
 20
413.0658866342
 40
1.0
100
AcDbArc
 50
0.0
 51
90.0
  0
ARC
  5
417
100
AcDbEntity
  8
0
100
AcDbCircle
 62
7
  6
BYLAYER
 10
266.6171819977
 20
413.0658866342
 40
1.0
100
AcDbArc
 50
0.0
 51
90.0
  0
ARC
  5
418
100
AcDbEntity
  8
0
100
AcDbCircle
 62
7
  6
BYLAYER
 10
267.1171819977
 20
411.0658866342
 40
0.5
100
AcDbArc
 50
0.0
 51
90.0
  0
ARC
  5
419
100
AcDbEntity
  8
0
100
AcDbCircle
 62
7
  6
BYLAYER
 10
260.1171819977
 20
412.0658866342
 40
0.5
100
AcDbArc
 50
180.0
 51
270.0
  0
ARC
  5
41A
100
AcDbEntity
  8
0
100
AcDbCircle
 62
7
  6
BYLAYER
 10
259.6171643353
 20
410.5658868169
 40
0.4999999534
100
AcDbArc
 50
257.8430202394
 51
77.8428213138
  0
ARC
  5
41B
100
AcDbEntity
  8
0
100
AcDbCircle
 62
7
  6
BYLAYER
 10
255.4439419977
 20
421.7658866342
 40
0.3
100
AcDbArc
 50
0.0
 51
90.0
  0
SPLINE
  5
41C
100
AcDbEntity
  8
0
100
AcDbSpline
 62
7
  6
BYLAYER
 70
0
 71
3
 72
13
 73
9
 74
0
 42
0.0000001
 43
0.0000001
 44
0.0000000001
 40
0.0
 40
0.0
 40
0.0
 40
0.0
 40
0.0769117591
 40
0.1615599831
 40
0.2599401278
 40
0.3754978976
 40
0.6607031278
 40
1.0
 40
1.0
 40
1.0
 40
1.0
 10
247.6171840319
 20
414.0658866345
 30
0.0
 10
247.5862183301
 20
414.0658802954
 30
0.0
 10
247.5206994778
 20
414.0532241094
 30
0.0
 10
247.4293861039
 20
413.9990038869
 30
0.0
 10
247.3449629237
 20
413.9119132952
 30
0.0
 10
247.2367174676
 20
413.7413616958
 30
0.0
 10
247.1423047891
 20
413.4545080546
 30
0.0
 10
247.1171831835
 20
413.2024920912
 30
0.0
 10
247.1171825385
 20
413.0658866342
 30
0.0
  0
SPLINE
  5
41D
100
AcDbEntity
  8
0
100
AcDbSpline
 62
7
  6
BYLAYER
 70
0
 71
3
 72
14
 73
10
 74
0
 42
0.0000001
 43
0.0000001
 44
0.0000000001
 40
0.0
 40
0.0
 40
0.0
 40
0.0
 40
0.1247554493
 40
0.2497373879
 40
0.3748457258
 40
0.5000187559
 40
0.7495153736
 40
0.8747430248
 40
1.0
 40
1.0
 40
1.0
 40
1.0
 10
226.6171819977
 20
412.0658866342
 30
0.0
 10
226.6171817774
 20
411.9828781804
 30
0.0
 10
226.5850495259
 20
411.8156531487
 30
0.0
 10
226.4625452939
 20
411.5950659203
 30
0.0
 10
226.2914317264
 20
411.4104455644
 30
0.0
 10
226.0193615222
 20
411.2161272542
 30
0.0
 10
225.6986248475
 20
411.1022388431
 30
0.0
 10
225.3673707717
 20
411.0658690981
 30
0.0
 10
225.2005241514
 20
411.0658866135
 30
0.0
 10
225.1171819977
 20
411.0658866342
 30
0.0
  0
SPLINE
  5
41E
100
AcDbEntity
  8
0
100
AcDbSpline
 62
7
  6
BYLAYER
 70
0
 71
3
 72
20
 73
16
 74
0
 42
0.0000001
 43
0.0000001
 44
0.0000000001
 40
0.0
 40
0.0
 40
0.0
 40
0.0
 40
0.1238080638
 40
0.2666953726
 40
0.4202998571
 40
0.5759579771
 40
0.7251494748
 40
0.793928924
 40
0.8569220493
 40
0.9124045426
 40
0.9574392426
 40
0.9749810012
 40
0.9883988687
 40
0.9969788418
 40
1.0
 40
1.0
 40
1.0
 40
1.0
 10
218.6171820094
 20
412.0658866342
 30
0.0
 10
218.6171819363
 20
412.0360369556
 30
0.0
 10
218.5934991822
 20
411.9725761999
 30
0.0
 10
218.5288222224
 20
411.8944832818
 30
0.0
 10
218.4508855043
 20
411.8179854088
 30
0.0
 10
218.366596017
 20
411.7464443303
 30
0.0
 10
218.2963253914
 20
411.6900623851
 30
0.0
 10
218.242412285
 20
411.6490447504
 30
0.0
 10
218.20592577
 20
411.6224469947
 30
0.0
 10
218.1735199665
 20
411.6000000843
 30
0.0
 10
218.1495660698
 20
411.5845836941
 30
0.0
 10
218.1339554064
 20
411.5750399228
 30
0.0
 10
218.1254456143
 20
411.5705986059
 30
0.0
 10
218.120570475
 20
411.5671991686
 30
0.0
 10
218.1176343441
 20
411.566457551
 30
0.0
 10
218.117182006
 20
411.565886637
 30
0.0
  0
SPLINE
  5
41F
100
AcDbEntity
  8
0
100
AcDbSpline
 62
7
  6
BYLAYER
 70
0
 71
3
 72
20
 73
16
 74
0
 42
0.0000001
 43
0.0000001
 44
0.0000000001
 40
0.0
 40
0.0
 40
0.0
 40
0.0
 40
0.0030211582
 40
0.0116011313
 40
0.0250189988
 40
0.0425607574
 40
0.0875954574
 40
0.1430779508
 40
0.2060710762
 40
0.2748505254
 40
0.4240420232
 40
0.5797001434
 40
0.7333046278
 40
0.8761919364
 40
1.0
 40
1.0
 40
1.0
 40
1.0
 10
267.1171819903
 20
411.565886637
 30
0.0
 10
267.1167298798
 20
411.5664577312
 30
0.0
 10
267.1137932124
 20
411.567198924
 30
0.0
 10
267.1089185646
 20
411.5705987505
 30
0.0
 10
267.1004085145
 20
411.575039863
 30
0.0
 10
267.0847979892
 20
411.5845837438
 30
0.0
 10
267.0608440016
 20
411.600000062
 30
0.0
 10
267.0284382358
 20
411.6224470022
 30
0.0
 10
266.9919517085
 20
411.6490447483
 30
0.0
 10
266.938038607
 20
411.6900623868
 30
0.0
 10
266.8677679789
 20
411.7464443301
 30
0.0
 10
266.7834784926
 20
411.8179854094
 30
0.0
 10
266.7055417745
 20
411.8944832822
 30
0.0
 10
266.6408648148
 20
411.9725762001
 30
0.0
 10
266.6171820608
 20
412.0360369556
 30
0.0
 10
266.6171819878
 20
412.0658866342
 30
0.0
  0
SPLINE
  5
420
100
AcDbEntity
  8
0
100
AcDbSpline
 62
7
  6
BYLAYER
 70
0
 71
3
 72
13
 73
9
 74
0
 42
0.0000001
 43
0.0000001
 44
0.0000000001
 40
0.0
 40
0.0
 40
0.0
 40
0.0
 40
0.33928585
 40
0.6244968196
 40
0.74005726
 40
0.8384380635
 40
0.9230857437
 40
1.0
 40
1.0
 40
1.0
 40
1.0
 10
238.1171805745
 20
413.0658866342
 30
0.0
 10
238.1171805741
 20
413.2024876523
 30
0.0
 10
238.0920589132
 20
413.4545013709
 30
0.0
 10
237.9976489844
 20
413.7413546728
 30
0.0
 10
237.8894028288
 20
413.9119102882
 30
0.0
 10
237.8049792174
 20
413.9990019172
 30
0.0
 10
237.7136654088
 20
414.0532237378
 30
0.0
 10
237.6481457637
 20
414.0658796376
 30
0.0
 10
237.6171790569
 20
414.0658866346
 30
0.0
  0
SPLINE
  5
421
100
AcDbEntity
  8
0
100
AcDbSpline
 62
7
  6
BYLAYER
 70
0
 71
3
 72
14
 73
10
 74
0
 42
0.0000001
 43
0.0000001
 44
0.0000000001
 40
0.0
 40
0.0
 40
0.0
 40
0.0
 40
0.124755068
 40
0.2497371838
 40
0.3748455004
 40
0.5000186091
 40
0.7495154875
 40
0.8747430736
 40
1.0
 40
1.0
 40
1.0
 40
1.0
 10
258.6171819977
 20
412.0658866342
 30
0.0
 10
258.617182218
 20
411.9828784349
 30
0.0
 10
258.6493143445
 20
411.8156535481
 30
0.0
 10
258.7718183614
 20
411.595066356
 30
0.0
 10
258.942931965
 20
411.4104458209
 30
0.0
 10
259.2150022858
 20
411.2161273234
 30
0.0
 10
259.5357391459
 20
411.1022387405
 30
0.0
 10
259.8669933411
 20
411.0658692991
 30
0.0
 10
260.0338398772
 20
411.0658866135
 30
0.0
 10
260.1171819977
 20
411.0658866342
 30
0.0
  0
SPLINE
  5
422
100
AcDbEntity
  8
0
100
AcDbSpline
 62
7
  6
BYLAYER
 70
0
 71
3
 72
13
 73
9
 74
0
 42
0.0000001
 43
0.0000001
 44
0.0000000001
 40
0.0
 40
0.0
 40
0.0
 40
0.0
 40
0.0769117591
 40
0.1615599831
 40
0.2599401278
 40
0.3754978976
 40
0.6607031278
 40
1.0
 40
1.0
 40
1.0
 40
1.0
 10
99.9680531434
 20
414.0658866345
 30
0.0
 10
99.9370874416
 20
414.0658802954
 30
0.0
 10
99.8715685892
 20
414.0532241094
 30
0.0
 10
99.7802552154
 20
413.9990038869
 30
0.0
 10
99.6958320352
 20
413.9119132952
 30
0.0
 10
99.5875865791
 20
413.7413616958
 30
0.0
 10
99.4931739005
 20
413.4545080546
 30
0.0
 10
99.468052295
 20
413.2024920912
 30
0.0
 10
99.46805165
 20
413.0658866342
 30
0.0
  0
SPLINE
  5
423
100
AcDbEntity
  8
0
100
AcDbSpline
 62
7
  6
BYLAYER
 70
0
 71
3
 72
14
 73
10
 74
0
 42
0.0000001
 43
0.0000001
 44
0.0000000001
 40
0.0
 40
0.0
 40
0.0
 40
0.0
 40
0.1247554493
 40
0.2497373879
 40
0.3748457258
 40
0.5000187559
 40
0.7495153736
 40
0.8747430248
 40
1.0
 40
1.0
 40
1.0
 40
1.0
 10
78.9680511092
 20
412.0658866342
 30
0.0
 10
78.9680508889
 20
411.9828781804
 30
0.0
 10
78.9359186374
 20
411.8156531487
 30
0.0
 10
78.8134144054
 20
411.5950659203
 30
0.0
 10
78.6423008379
 20
411.4104455644
 30
0.0
 10
78.3702306337
 20
411.2161272542
 30
0.0
 10
78.049493959
 20
411.1022388431
 30
0.0
 10
77.7182398832
 20
411.0658690981
 30
0.0
 10
77.5513932629
 20
411.0658866135
 30
0.0
 10
77.4680511092
 20
411.0658866342
 30
0.0
  0
SPLINE
  5
424
100
AcDbEntity
  8
0
100
AcDbSpline
 62
7
  6
BYLAYER
 70
0
 71
3
 72
20
 73
16
 74
0
 42
0.0000001
 43
0.0000001
 44
0.0000000001
 40
0.0
 40
0.0
 40
0.0
 40
0.0
 40
0.1238080638
 40
0.2666953726
 40
0.4202998571
 40
0.5759579771
 40
0.7251494748
 40
0.793928924
 40
0.8569220493
 40
0.9124045426
 40
0.9574392426
 40
0.9749810012
 40
0.9883988687
 40
0.9969788418
 40
1.0
 40
1.0
 40
1.0
 40
1.0
 10
70.9680511208
 20
412.0658866342
 30
0.0
 10
70.9680510478
 20
412.0360369556
 30
0.0
 10
70.9443682937
 20
411.9725761999
 30
0.0
 10
70.8796913339
 20
411.8944832818
 30
0.0
 10
70.8017546158
 20
411.8179854088
 30
0.0
 10
70.7174651285
 20
411.7464443303
 30
0.0
 10
70.6471945029
 20
411.690062385
 30
0.0
 10
70.5932813965
 20
411.6490447504
 30
0.0
 10
70.5567948817
 20
411.6224469945
 30
0.0
 10
70.5243890774
 20
411.6000000847
 30
0.0
 10
70.5004351826
 20
411.584583693
 30
0.0
 10
70.4848245163
 20
411.575039924
 30
0.0
 10
70.4763147295
 20
411.5705986029
 30
0.0
 10
70.4714395801
 20
411.5671991736
 30
0.0
 10
70.4685034603
 20
411.5664575473
 30
0.0
 10
70.4680511175
 20
411.565886637
 30
0.0
  0
SPLINE
  5
425
100
AcDbEntity
  8
0
100
AcDbSpline
 62
7
  6
BYLAYER
 70
0
 71
3
 72
20
 73
16
 74
0
 42
0.0000001
 43
0.0000001
 44
0.0000000001
 40
0.0
 40
0.0
 40
0.0
 40
0.0
 40
0.0030211582
 40
0.0116011313
 40
0.0250189988
 40
0.0425607574
 40
0.0875954574
 40
0.1430779508
 40
0.2060710762
 40
0.2748505254
 40
0.4240420232
 40
0.5797001434
 40
0.7333046278
 40
0.8761919364
 40
1.0
 40
1.0
 40
1.0
 40
1.0
 10
119.4680511018
 20
411.565886637
 30
0.0
 10
119.4675989912
 20
411.5664577312
 30
0.0
 10
119.4646623239
 20
411.567198924
 30
0.0
 10
119.4597876761
 20
411.5705987505
 30
0.0
 10
119.4512776259
 20
411.575039863
 30
0.0
 10
119.4356671007
 20
411.5845837438
 30
0.0
 10
119.4117131131
 20
411.600000062
 30
0.0
 10
119.3793073473
 20
411.6224470022
 30
0.0
 10
119.34282082
 20
411.6490447483
 30
0.0
 10
119.2889077185
 20
411.6900623868
 30
0.0
 10
119.2186370903
 20
411.7464443301
 30
0.0
 10
119.134347604
 20
411.8179854094
 30
0.0
 10
119.056410886
 20
411.8944832822
 30
0.0
 10
118.9917339263
 20
411.9725762001
 30
0.0
 10
118.9680511723
 20
412.0360369556
 30
0.0
 10
118.9680510993
 20
412.0658866342
 30
0.0
  0
SPLINE
  5
426
100
AcDbEntity
  8
0
100
AcDbSpline
 62
7
  6
BYLAYER
 70
0
 71
3
 72
13
 73
9
 74
0
 42
0.0000001
 43
0.0000001
 44
0.0000000001
 40
0.0
 40
0.0
 40
0.0
 40
0.0
 40
0.3392858511
 40
0.6244968217
 40
0.7400572221
 40
0.83843806
 40
0.9230857453
 40
1.0
 40
1.0
 40
1.0
 40
1.0
 10
90.468049686
 20
413.0658866342
 30
0.0
 10
90.4680496856
 20
413.2024876523
 30
0.0
 10
90.4429280075
 20
413.4545013586
 30
0.0
 10
90.3485181385
 20
413.741354684
 30
0.0
 10
90.2402719026
 20
413.911910238
 30
0.0
 10
90.1558483464
 20
413.9990019146
 30
0.0
 10
90.0645345231
 20
414.0532237551
 30
0.0
 10
89.9990148745
 20
414.0658796376
 30
0.0
 10
89.9680481683
 20
414.0658866346
 30
0.0
  0
SPLINE
  5
427
100
AcDbEntity
  8
0
100
AcDbSpline
 62
7
  6
BYLAYER
 70
0
 71
3
 72
14
 73
10
 74
0
 42
0.0000001
 43
0.0000001
 44
0.0000000001
 40
0.0
 40
0.0
 40
0.0
 40
0.0
 40
0.124755068
 40
0.2497371838
 40
0.3748455004
 40
0.5000186091
 40
0.7495154875
 40
0.8747430736
 40
1.0
 40
1.0
 40
1.0
 40
1.0
 10
110.9680511092
 20
412.0658866342
 30
0.0
 10
110.9680513295
 20
411.9828784349
 30
0.0
 10
111.000183456
 20
411.8156535481
 30
0.0
 10
111.1226874729
 20
411.595066356
 30
0.0
 10
111.2938010765
 20
411.4104458209
 30
0.0
 10
111.5658713973
 20
411.2161273234
 30
0.0
 10
111.8866082574
 20
411.1022387405
 30
0.0
 10
112.2178624526
 20
411.0658692991
 30
0.0
 10
112.3847089887
 20
411.0658866135
 30
0.0
 10
112.4680511092
 20
411.0658866342
 30
0.0
  0
SPLINE
  5
428
100
AcDbEntity
  8
0
100
AcDbSpline
 62
7
  6
BYLAYER
 70
0
 71
3
 72
13
 73
9
 74
0
 42
0.0000001
 43
0.0000001
 44
0.0000000001
 40
0.0
 40
0.0
 40
0.0
 40
0.0
 40
0.3392858503
 40
0.6244968202
 40
0.7400572495
 40
0.8384380626
 40
0.9230857443
 40
1.0
 40
1.0
 40
1.0
 40
1.0
 10
247.1179112319
 20
31.5657764957
 30
0.0
 10
247.1179112323
 20
31.4291754775
 30
0.0
 10
247.1430328979
 20
31.1771617624
 30
0.0
 10
247.2374428103
 20
30.8903084539
 30
0.0
 10
247.345688988
 20
30.7197528556
 30
0.0
 10
247.4301125841
 20
30.6326612133
 30
0.0
 10
247.521426397
 20
30.5784393875
 30
0.0
 10
247.586946043
 20
30.5657834924
 30
0.0
 10
247.6179127496
 20
30.5657764952
 30
0.0
  0
SPLINE
  5
429
100
AcDbEntity
  8
0
100
AcDbSpline
 62
7
  6
BYLAYER
 70
0
 71
3
 72
13
 73
9
 74
0
 42
0.0000001
 43
0.0000001
 44
0.0000000001
 40
0.0
 40
0.0
 40
0.0
 40
0.0
 40
0.0769117553
 40
0.161559974
 40
0.2599401127
 40
0.3754978776
 40
0.6607031082
 40
1.0
 40
1.0
 40
1.0
 40
1.0
 10
237.6179078668
 20
30.5657764953
 30
0.0
 10
237.6488735677
 20
30.5657828315
 30
0.0
 10
237.7143924187
 20
30.5784390105
 30
0.0
 10
237.805705793
 20
30.6326592239
 30
0.0
 10
237.8901289748
 20
30.7197498079
 30
0.0
 10
237.9983744364
 20
30.8903014027
 30
0.0
 10
238.0927871231
 20
31.1771550531
 30
0.0
 10
238.1179087318
 20
31.4291710285
 30
0.0
 10
238.1179093767
 20
31.5657764956
 30
0.0
  0
SPLINE
  5
42A
100
AcDbEntity
  8
0
100
AcDbSpline
 62
7
  6
BYLAYER
 70
0
 71
3
 72
20
 73
16
 74
0
 42
0.0000001
 43
0.0000001
 44
0.0000000001
 40
0.0
 40
0.0
 40
0.0
 40
0.0
 40
0.0030211582
 40
0.0116011313
 40
0.0250189988
 40
0.0425607574
 40
0.0875954574
 40
0.1430779508
 40
0.2060710762
 40
0.2748505254
 40
0.4240420232
 40
0.5797001434
 40
0.7333046278
 40
0.8761919364
 40
1.0
 40
1.0
 40
1.0
 40
1.0
 10
218.1179098161
 20
33.0657764928
 30
0.0
 10
218.1183619211
 20
33.0652053942
 30
0.0
 10
218.1212986016
 20
33.0644642119
 30
0.0
 10
218.1261732373
 20
33.0610643758
 30
0.0
 10
218.1346832938
 20
33.0566232683
 30
0.0
 10
218.1502938157
 20
33.0470793849
 30
0.0
 10
218.1742478055
 20
33.0316630684
 30
0.0
 10
218.2066535704
 20
33.0092161274
 30
0.0
 10
218.243140098
 20
32.9826183816
 30
0.0
 10
218.2970531994
 20
32.9416007431
 30
0.0
 10
218.3673238276
 20
32.8852187998
 30
0.0
 10
218.4516133139
 20
32.8136777205
 30
0.0
 10
218.5295500319
 20
32.7371798477
 30
0.0
 10
218.5942269916
 20
32.6590869297
 30
0.0
 10
218.6179097456
 20
32.5956261742
 30
0.0
 10
218.6179098187
 20
32.5657764957
 30
0.0
  0
SPLINE
  5
42B
100
AcDbEntity
  8
0
100
AcDbSpline
 62
7
  6
BYLAYER
 70
0
 71
3
 72
14
 73
10
 74
0
 42
0.0000001
 43
0.0000001
 44
0.0000000001
 40
0.0
 40
0.0
 40
0.0
 40
0.0
 40
0.124755068
 40
0.2497371838
 40
0.3748455004
 40
0.5000186091
 40
0.7495154875
 40
0.8747430736
 40
1.0
 40
1.0
 40
1.0
 40
1.0
 10
226.6179098087
 20
32.5657764957
 30
0.0
 10
226.6179095884
 20
32.6487846949
 30
0.0
 10
226.5857774619
 20
32.8160095818
 30
0.0
 10
226.4632734451
 20
33.0365967739
 30
0.0
 10
226.2921598414
 20
33.2212173089
 30
0.0
 10
226.0200895206
 20
33.4155358065
 30
0.0
 10
225.6993526605
 20
33.5294243893
 30
0.0
 10
225.3680984653
 20
33.5657938308
 30
0.0
 10
225.2012519292
 20
33.5657765164
 30
0.0
 10
225.1179098087
 20
33.5657764957
 30
0.0
  0
SPLINE
  5
42C
100
AcDbEntity
  8
0
100
AcDbSpline
 62
7
  6
BYLAYER
 70
0
 71
3
 72
14
 73
10
 74
0
 42
0.0000001
 43
0.0000001
 44
0.0000000001
 40
0.0
 40
0.0
 40
0.0
 40
0.0
 40
0.1247554493
 40
0.2497373879
 40
0.3748457258
 40
0.5000187559
 40
0.7495153736
 40
0.8747430248
 40
1.0
 40
1.0
 40
1.0
 40
1.0
 10
258.6179098087
 20
32.5657764957
 30
0.0
 10
258.617910029
 20
32.6487849494
 30
0.0
 10
258.6500422805
 20
32.8160099811
 30
0.0
 10
258.7725465125
 20
33.0365972096
 30
0.0
 10
258.94366008
 20
33.2212175654
 30
0.0
 10
259.2157302842
 20
33.4155358756
 30
0.0
 10
259.536466959
 20
33.5294242867
 30
0.0
 10
259.8677210347
 20
33.5657940318
 30
0.0
 10
260.034567655
 20
33.5657765164
 30
0.0
 10
260.1179098087
 20
33.5657764957
 30
0.0
  0
SPLINE
  5
42D
100
AcDbEntity
  8
0
100
AcDbSpline
 62
7
  6
BYLAYER
 70
0
 71
3
 72
20
 73
16
 74
0
 42
0.0000001
 43
0.0000001
 44
0.0000000001
 40
0.0
 40
0.0
 40
0.0
 40
0.0
 40
0.1238080638
 40
0.2666953726
 40
0.4202998571
 40
0.5759579771
 40
0.7251494748
 40
0.793928924
 40
0.8569220493
 40
0.9124045426
 40
0.9574392426
 40
0.9749810012
 40
0.9883988687
 40
0.9969788418
 40
1.0
 40
1.0
 40
1.0
 40
1.0
 10
266.6179097971
 20
32.5657764957
 30
0.0
 10
266.6179098701
 20
32.5956261743
 30
0.0
 10
266.6415926242
 20
32.65908693
 30
0.0
 10
266.7062695841
 20
32.737179848
 30
0.0
 10
266.7842063021
 20
32.813677721
 30
0.0
 10
266.8684957894
 20
32.8852187995
 30
0.0
 10
266.938766415
 20
32.9416007448
 30
0.0
 10
266.9926795214
 20
32.9826183794
 30
0.0
 10
267.0291660364
 20
33.0092161352
 30
0.0
 10
267.0615718402
 20
33.0316630454
 30
0.0
 10
267.0855257361
 20
33.0470794362
 30
0.0
 10
267.1011364006
 20
33.0566232066
 30
0.0
 10
267.1096461906
 20
33.0610645251
 30
0.0
 10
267.114521334
 20
33.0644639592
 30
0.0
 10
267.1174574605
 20
33.0652055803
 30
0.0
 10
267.1179098004
 20
33.0657764928
 30
0.0
  0
SPLINE
  5
42E
100
AcDbEntity
  8
0
100
AcDbSpline
 62
7
  6
BYLAYER
 70
0
 71
3
 72
13
 73
9
 74
0
 42
0.0000001
 43
0.0000001
 44
0.0000000001
 40
0.0
 40
0.0
 40
0.0
 40
0.0
 40
0.3392858503
 40
0.6244968202
 40
0.7400572503
 40
0.8384380626
 40
0.9230857441
 40
1.0
 40
1.0
 40
1.0
 40
1.0
 10
99.4687803434
 20
31.5657764957
 30
0.0
 10
99.4687803438
 20
31.4291754775
 30
0.0
 10
99.4939020091
 20
31.1771617621
 30
0.0
 10
99.5883119226
 20
30.8903084541
 30
0.0
 10
99.6965580988
 20
30.7197528545
 30
0.0
 10
99.780981696
 20
30.6326612132
 30
0.0
 10
99.8722955085
 20
30.5784393878
 30
0.0
 10
99.9378151544
 20
30.5657834924
 30
0.0
 10
99.968781861
 20
30.5657764952
 30
0.0
  0
SPLINE
  5
42F
100
AcDbEntity
  8
0
100
AcDbSpline
 62
7
  6
BYLAYER
 70
0
 71
3
 72
13
 73
9
 74
0
 42
0.0000001
 43
0.0000001
 44
0.0000000001
 40
0.0
 40
0.0
 40
0.0
 40
0.0
 40
0.0769117554
 40
0.161559974
 40
0.2599401127
 40
0.3754978777
 40
0.6607031082
 40
1.0
 40
1.0
 40
1.0
 40
1.0
 10
89.9687769783
 20
30.5657764953
 30
0.0
 10
89.9997426792
 20
30.5657828315
 30
0.0
 10
90.0652615302
 20
30.5784390104
 30
0.0
 10
90.1565749045
 20
30.6326592239
 30
0.0
 10
90.2409980862
 20
30.7197498079
 30
0.0
 10
90.3492435479
 20
30.8903014027
 30
0.0
 10
90.4436562346
 20
31.1771550531
 30
0.0
 10
90.4687778433
 20
31.4291710285
 30
0.0
 10
90.4687784882
 20
31.5657764956
 30
0.0
  0
SPLINE
  5
430
100
AcDbEntity
  8
0
100
AcDbSpline
 62
7
  6
BYLAYER
 70
0
 71
3
 72
20
 73
16
 74
0
 42
0.0000001
 43
0.0000001
 44
0.0000000001
 40
0.0
 40
0.0
 40
0.0
 40
0.0
 40
0.0030211582
 40
0.0116011313
 40
0.0250189988
 40
0.0425607574
 40
0.0875954574
 40
0.1430779508
 40
0.2060710762
 40
0.2748505254
 40
0.4240420232
 40
0.5797001434
 40
0.7333046278
 40
0.8761919364
 40
1.0
 40
1.0
 40
1.0
 40
1.0
 10
70.4687789276
 20
33.0657764928
 30
0.0
 10
70.4692310373
 20
33.0652053979
 30
0.0
 10
70.4721677067
 20
33.0644642068
 30
0.0
 10
70.4770423526
 20
33.0610643788
 30
0.0
 10
70.4855524037
 20
33.0566232671
 30
0.0
 10
70.5011629284
 20
33.0470793859
 30
0.0
 10
70.5251169164
 20
33.031663068
 30
0.0
 10
70.5575226821
 20
33.0092161276
 30
0.0
 10
70.5940092094
 20
32.9826183816
 30
0.0
 10
70.6479223109
 20
32.9416007431
 30
0.0
 10
70.718192939
 20
32.8852187998
 30
0.0
 10
70.8024824253
 20
32.8136777205
 30
0.0
 10
70.8804191434
 20
32.7371798477
 30
0.0
 10
70.9450961031
 20
32.6590869297
 30
0.0
 10
70.9687788571
 20
32.5956261742
 30
0.0
 10
70.9687789301
 20
32.5657764957
 30
0.0
  0
SPLINE
  5
431
100
AcDbEntity
  8
0
100
AcDbSpline
 62
7
  6
BYLAYER
 70
0
 71
3
 72
14
 73
10
 74
0
 42
0.0000001
 43
0.0000001
 44
0.0000000001
 40
0.0
 40
0.0
 40
0.0
 40
0.0
 40
0.124755068
 40
0.2497371838
 40
0.3748455004
 40
0.5000186091
 40
0.7495154875
 40
0.8747430736
 40
1.0
 40
1.0
 40
1.0
 40
1.0
 10
78.9687789202
 20
32.5657764957
 30
0.0
 10
78.9687786999
 20
32.6487846949
 30
0.0
 10
78.9366465734
 20
32.8160095818
 30
0.0
 10
78.8141425565
 20
33.0365967739
 30
0.0
 10
78.6430289529
 20
33.2212173089
 30
0.0
 10
78.3709586321
 20
33.4155358065
 30
0.0
 10
78.050221772
 20
33.5294243893
 30
0.0
 10
77.7189675768
 20
33.5657938308
 30
0.0
 10
77.5521210407
 20
33.5657765164
 30
0.0
 10
77.4687789202
 20
33.5657764957
 30
0.0
  0
SPLINE
  5
432
100
AcDbEntity
  8
0
100
AcDbSpline
 62
7
  6
BYLAYER
 70
0
 71
3
 72
14
 73
10
 74
0
 42
0.0000001
 43
0.0000001
 44
0.0000000001
 40
0.0
 40
0.0
 40
0.0
 40
0.0
 40
0.1247554493
 40
0.2497373879
 40
0.3748457258
 40
0.5000187559
 40
0.7495153736
 40
0.8747430248
 40
1.0
 40
1.0
 40
1.0
 40
1.0
 10
110.9687789202
 20
32.5657764957
 30
0.0
 10
110.9687791405
 20
32.6487849494
 30
0.0
 10
111.000911392
 20
32.8160099811
 30
0.0
 10
111.123415624
 20
33.0365972096
 30
0.0
 10
111.2945291915
 20
33.2212175654
 30
0.0
 10
111.5665993957
 20
33.4155358756
 30
0.0
 10
111.8873360704
 20
33.5294242867
 30
0.0
 10
112.2185901462
 20
33.5657940318
 30
0.0
 10
112.3854367665
 20
33.5657765164
 30
0.0
 10
112.4687789202
 20
33.5657764957
 30
0.0
  0
SPLINE
  5
433
100
AcDbEntity
  8
0
100
AcDbSpline
 62
7
  6
BYLAYER
 70
0
 71
3
 72
20
 73
16
 74
0
 42
0.0000001
 43
0.0000001
 44
0.0000000001
 40
0.0
 40
0.0
 40
0.0
 40
0.0
 40
0.1238080638
 40
0.2666953726
 40
0.4202998571
 40
0.5759579771
 40
0.7251494748
 40
0.793928924
 40
0.8569220493
 40
0.9124045426
 40
0.9574392426
 40
0.9749810012
 40
0.9883988687
 40
0.9969788418
 40
1.0
 40
1.0
 40
1.0
 40
1.0
 10
118.9687789085
 20
32.5657764957
 30
0.0
 10
118.9687789816
 20
32.5956261743
 30
0.0
 10
118.9924617357
 20
32.65908693
 30
0.0
 10
119.0571386955
 20
32.737179848
 30
0.0
 10
119.1350754136
 20
32.813677721
 30
0.0
 10
119.2193649009
 20
32.8852187995
 30
0.0
 10
119.2896355265
 20
32.9416007448
 30
0.0
 10
119.3435486329
 20
32.9826183794
 30
0.0
 10
119.3800351478
 20
33.0092161352
 30
0.0
 10
119.4124409517
 20
33.0316630454
 30
0.0
 10
119.4363948476
 20
33.0470794362
 30
0.0
 10
119.4520055121
 20
33.0566232066
 30
0.0
 10
119.4605153021
 20
33.0610645251
 30
0.0
 10
119.4653904454
 20
33.0644639592
 30
0.0
 10
119.468326572
 20
33.0652055803
 30
0.0
 10
119.4687789119
 20
33.0657764928
 30
0.0
  0
ENDSEC
  0
SECTION
  2
OBJECTS
  0
DICTIONARY
  5
C
100
AcDbDictionary
280
0
281
1
  3
ACAD_GROUP
350
D
  3
ACAD_MLINESTYLE
350
17
  3
ACAD_LAYOUT
350
1A
  3
ACAD_PLOTSETTINGS
350
19
  3
ACAD_PLOTSTYLENAME
350
E
  0
DICTIONARY
  5
D
102
{ACAD_REACTORS
330
C
102
}
100
AcDbDictionary
280
0
281
1
  0
ACDBDICTIONARYWDFLT
  5
E
102
{ACAD_REACTORS
330
C
102
}
100
AcDbDictionary
281
1
  3
Normal
350
F
100
AcDbDictionaryWithDefault
340
F
  0
DICTIONARY
  5
17
102
{ACAD_REACTORS
330
C
102
}
100
AcDbDictionary
280
0
281
1
  3
Standard
350
18
  0
DICTIONARY
  5
19
102
{ACAD_REACTORS
330
C
102
}
100
AcDbDictionary
281
1
  0
DICTIONARY
  5
1A
102
{ACAD_REACTORS
330
C
102
}
100
AcDbDictionary
281
1
  3
Model
350
434
  3
Layout1
350
435
  0
ACDBPLACEHOLDER
  5
F
102
{ACAD_REACTORS
330
E
102
}
  0
MLINESTYLE
  5
18
102
{ACAD_REACTORS
330
17
102
}
100
AcDbMlineStyle
  2
STANDARD
 70
0
  3

 62
256
 51
90.0
 52
90.0
 71
2
 49
0.5
 62
256
  6
BYLAYER
 49
-0.5
 62
256
  6
BYLAYER
  0
LAYOUT
  5
434
102
{ACAD_REACTORS
330
1A
102
}
100
AcDbPlotSettings
  1

  2
none_device
  4

  6

 40
0.0
 41
0.0
 42
0.0
 43
0.0
 44
210.0
 45
297.0
 46
0.0
 47
0.0
 48
0.0
 49
0.0
140
0.0
141
0.0
142
1.0
143
1.0
 70
1024
 72
1
 73
0
 74
0
  7

 75
0
147
1.0
148
0.0
149
0.0
100
AcDbLayout
  1
Model
 70
0
 71
0
 10
0.0
 20
0.0
 11
210.0
 21
297.0
 12
0.0
 22
0.0
 32
0.0
 14
0.0
 24
0.0
 34
0.0
 15
0.0
 25
0.0
 35
0.0
146
0.0
 13
0.0
 23
0.0
 33
0.0
 16
1.0
 26
0.0
 36
0.0
 17
0.0
 27
1.0
 37
0.0
 76
0
330
212
345
0
346
0
  0
LAYOUT
  5
435
102
{ACAD_REACTORS
330
1A
102
}
100
AcDbPlotSettings
  1

  2
none_device
  4

  6

 40
0.0
 41
0.0
 42
0.0
 43
0.0
 44
210.0
 45
297.0
 46
0.0
 47
0.0
 48
0.0
 49
0.0
140
0.0
141
0.0
142
1.0
143
1.0
 70
0
 72
1
 73
0
 74
0
  7

 75
0
147
1.0
148
0.0
149
0.0
100
AcDbLayout
  1
Layout1
 70
0
 71
1
 10
0.0
 20
0.0
 11
210.0
 21
297.0
 12
0.0
 22
0.0
 32
0.0
 14
0.0
 24
0.0
 34
0.0
 15
0.0
 25
0.0
 35
0.0
146
0.0
 13
0.0
 23
0.0
 33
0.0
 16
1.0
 26
0.0
 36
0.0
 17
0.0
 27
1.0
 37
0.0
 76
0
330
213
345
0
346
0
  0
ENDSEC
  0
EOF
