999
DXF file: C:\Users\sesa63760\Dev\_Creo\CAD\MCADID0004900_3D-CAD\drw0001_7.dxf
999
Pro/ENGINEER 2019471 by Parametric Technology Corporation
  0
SECTION
  2
HEADER
  9
$ACADVER
  1
AC1024
  9
$DWGCODEPAGE
  3
ANSI_1252
  9
$EXTMAX
 10
616.8627190947
 20
872.420131291
 30
0.0
  9
$EXTMIN
 10
0.0
 20
0.0
 30
0.0
  9
$LIMMIN
 10
0.0
 20
0.0
  9
$LIMMAX
 10
616.8627190947
 20
872.420131291
  9
$VIEWCTR
 10
308.4313595473
 20
436.2100656455
  9
$VIEWSIZE
 40
872.420131291
  9
$CLAYER
  8
0
  9
$LTSCALE
 40
56.8688678175
  9
$CELTYPE
  6
BYLAYER
  9
$DIMSCALE
 40
1.0
  9
$DIMASZ
 40
7.3436037987
  9
$DIMEXO
 40
1.0
  9
$DIMDLI
 40
39.2912177648
  9
$DIMEXE
 40
1.0
  9
$DIMCEN
 40
9.3058147338
  9
$DIMLFAC
 40
1.0
  9
$DIMBLK
  1
_FILLED
  9
$DIMALT
 70
0
  9
$DIMALTF
 40
0.0393700787
  9
$DIMTXT
 40
10.2810453182
  9
$DIMTOL
 70
1
  9
$DIMLIM
 70
0
  9
$DIMTFAC
 40
1.0
  9
$DIMTP
 40
0.01
  9
$DIMTM
 40
0.01
  9
$DIMGAP
 40
0.625
  9
$DIMDSEP
 70
46
  9
$AUNITS
 70
0
  9
$PDMODE
 70
3
  9
$PDSIZE
 40
0.3125
  9
$HANDSEED
  5
375
  9
$TILEMODE
 70
1
  9
$MEASUREMENT
 70
1
  9
$INSUNITS
 70
4
  0
ENDSEC
  0
SECTION
  2
CLASSES
  0
CLASS
  1
ACDBDICTIONARYWDFLT
  2
AcDbDictionaryWithDefault
  3
AutoCAD 2000
 90
0
 91
1
280
0
281
0
  0
CLASS
  1
ACDBPLACEHOLDER
  2
AcDbPlaceHolder
  3
AutoCAD 2000
 90
0
 91
1
280
0
281
0
  0
CLASS
  1
LAYOUT
  2
AcDbLayout
  3
AutoCAD 2000
 90
0
 91
0
280
0
281
0
  0
ENDSEC
  0
SECTION
  2
TABLES
  0
TABLE
  2
VPORT
  5
8
100
AcDbSymbolTable
 70
2
  0
VPORT
  5
1F4
100
AcDbSymbolTableRecord
100
AcDbViewportTableRecord
  2
*ACTIVE
 70
0
 10
0.0
 20
0.0
 11
1.0
 21
1.0
 12
308.4313595473
 22
436.2100656455
 13
0.0
 23
0.0
 14
1.0
 24
1.0
 15
0.0
 25
0.0
 16
0.0
 26
0.0
 36
1.0
 17
0.0
 27
0.0
 37
0.0
 40
872.420131291
 41
0.7070707071
 42
50.0
 43
0.0
 44
0.0
 50
0.0
 51
0.0
 71
0
 72
100
 73
1
 74
1
 75
0
 76
0
 77
0
 78
0
  0
ENDTAB
  0
TABLE
  2
LTYPE
  5
5
100
AcDbSymbolTable
 70
6
  0
LTYPE
  5
14
100
AcDbSymbolTableRecord
100
AcDbLinetypeTableRecord
  2
BYBLOCK
 70
0
  3

 72
65
 73
0
 40
0.0
  0
LTYPE
  5
15
100
AcDbSymbolTableRecord
100
AcDbLinetypeTableRecord
  2
BYLAYER
 70
0
  3

 72
65
 73
0
 40
0.0
  0
LTYPE
  5
16
100
AcDbSymbolTableRecord
100
AcDbLinetypeTableRecord
  2
CONTINUOUS
 70
64
  3
Solid line
 72
65
 73
0
 40
0.0
  0
LTYPE
  5
1F5
100
AcDbSymbolTableRecord
100
AcDbLinetypeTableRecord
  2
CENTER
 70
64
  3
____ _ ____ _ ____ _ ____ _ ____ _ ____ _ ____
 72
65
 73
4
 40
0.6
 49
0.375
 74
0
 49
-0.075
 74
0
 49
0.075
 74
0
 49
-0.075
 74
0
  0
LTYPE
  5
1F6
100
AcDbSymbolTableRecord
100
AcDbLinetypeTableRecord
  2
HIDDEN
 70
64
  3
- - - - - - - - - - - - - - - - - - - -
 72
65
 73
2
 40
0.2
 49
0.1
 74
0
 49
-0.1
 74
0
  0
LTYPE
  5
1F7
100
AcDbSymbolTableRecord
100
AcDbLinetypeTableRecord
  2
PHANTOM
 70
64
  3
_____ _ _ _____ _ _ _____ _ _ _____
 72
65
 73
6
 40
0.8
 49
0.45
 74
0
 49
-0.05
 74
0
 49
0.1
 74
0
 49
-0.05
 74
0
 49
0.1
 74
0
 49
-0.05
 74
0
  0
LTYPE
  5
1F8
100
AcDbSymbolTableRecord
100
AcDbLinetypeTableRecord
  2
DOT
 70
64
  3
. . . . . . . . . . . . . . . . . . . .
 72
65
 73
2
 40
0.2
 49
0.1
 74
0
 49
-0.1
 74
0
  0
LTYPE
  5
1F9
100
AcDbSymbolTableRecord
100
AcDbLinetypeTableRecord
  2
DASHED
 70
64
  3
- - - - - - - - - - - - - - - - - - - -
 72
65
 73
2
 40
0.2
 49
0.1
 74
0
 49
-0.1
 74
0
  0
ENDTAB
  0
TABLE
  2
LAYER
  5
2
100
AcDbSymbolTable
 70
36
  0
LAYER
  5
10
100
AcDbSymbolTableRecord
100
AcDbLayerTableRecord
  2
0
 70
0
 62
7
  6
CONTINUOUS
370
-3
390
F
  0
LAYER
  5
1FA
100
AcDbSymbolTableRecord
100
AcDbLayerTableRecord
  2
DEFAULT_1
 70
0
 62
7
  6
CENTER
370
-3
390
F
  0
LAYER
  5
1FB
100
AcDbSymbolTableRecord
100
AcDbLayerTableRecord
  2
DEFAULT_2
 70
0
 62
7
  6
HIDDEN
370
-3
390
F
  0
LAYER
  5
1FC
100
AcDbSymbolTableRecord
100
AcDbLayerTableRecord
  2
DEFAULT_3
 70
0
 62
7
  6
PHANTOM
370
-3
390
F
  0
LAYER
  5
1FD
100
AcDbSymbolTableRecord
100
AcDbLayerTableRecord
  2
00_COMPONENTS
 70
0
 62
7
  6
CONTINUOUS
370
-3
390
F
  0
LAYER
  5
1FE
100
AcDbSymbolTableRecord
100
AcDbLayerTableRecord
  2
01_1_DEFAULT_DATUMS
 70
0
 62
7
  6
CONTINUOUS
370
-3
390
F
  0
LAYER
  5
1FF
100
AcDbSymbolTableRecord
100
AcDbLayerTableRecord
  2
01_PLANES
 70
0
 62
7
  6
CONTINUOUS
370
-3
390
F
  0
LAYER
  5
200
100
AcDbSymbolTableRecord
100
AcDbLayerTableRecord
  2
02_COORD_SYS
 70
0
 62
7
  6
CONTINUOUS
370
-3
390
F
  0
LAYER
  5
201
100
AcDbSymbolTableRecord
100
AcDbLayerTableRecord
  2
03_AXES
 70
0
 62
7
  6
CONTINUOUS
370
-3
390
F
  0
LAYER
  5
202
100
AcDbSymbolTableRecord
100
AcDbLayerTableRecord
  2
04_POINTS
 70
0
 62
7
  6
CONTINUOUS
370
-3
390
F
  0
LAYER
  5
203
100
AcDbSymbolTableRecord
100
AcDbLayerTableRecord
  2
05_CURVES
 70
0
 62
7
  6
CONTINUOUS
370
-3
390
F
  0
LAYER
  5
204
100
AcDbSymbolTableRecord
100
AcDbLayerTableRecord
  2
06_SURFS
 70
0
 62
7
  6
CONTINUOUS
370
-3
390
F
  0
LAYER
  5
205
100
AcDbSymbolTableRecord
100
AcDbLayerTableRecord
  2
07_COSMETICS
 70
0
 62
7
  6
CONTINUOUS
370
-3
390
F
  0
LAYER
  5
206
100
AcDbSymbolTableRecord
100
AcDbLayerTableRecord
  2
10_NOTES
 70
0
 62
7
  6
CONTINUOUS
370
-3
390
F
  0
LAYER
  5
207
100
AcDbSymbolTableRecord
100
AcDbLayerTableRecord
  2
11_NOTES_PUB
 70
0
 62
7
  6
CONTINUOUS
370
-3
390
F
  0
LAYER
  5
208
100
AcDbSymbolTableRecord
100
AcDbLayerTableRecord
  2
13_REF_GTOL
 70
0
 62
7
  6
CONTINUOUS
370
-3
390
F
  0
LAYER
  5
209
100
AcDbSymbolTableRecord
100
AcDbLayerTableRecord
  2
16_MISC
 70
0
 62
7
  6
CONTINUOUS
370
-3
390
F
  0
LAYER
  5
20A
100
AcDbSymbolTableRecord
100
AcDbLayerTableRecord
  2
17_NO_PRINT
 70
0
 62
7
  6
CONTINUOUS
370
-3
390
F
  0
LAYER
  5
20B
100
AcDbSymbolTableRecord
100
AcDbLayerTableRecord
  2
18_DATUM_CAMS_JOINTS
 70
0
 62
7
  6
CONTINUOUS
370
-3
390
F
  0
LAYER
  5
20C
100
AcDbSymbolTableRecord
100
AcDbLayerTableRecord
  2
19_DATUM_FUNCTIONAL
 70
0
 62
7
  6
CONTINUOUS
370
-3
390
F
  0
LAYER
  5
20D
100
AcDbSymbolTableRecord
100
AcDbLayerTableRecord
  2
20_DATUM_KINEMATIC_SCHEME
 70
0
 62
7
  6
CONTINUOUS
370
-3
390
F
  0
ENDTAB
  0
TABLE
  2
STYLE
  5
3
100
AcDbSymbolTable
 70
1
  0
STYLE
  5
11
100
AcDbSymbolTableRecord
100
AcDbTextStyleTableRecord
  2
STANDARD
 70
0
 40
0.0
 41
1.0
 50
0.0
 71
0
 42
0.2
  3
ARIAL.TTF
  4

  0
STYLE
  5
20E
100
AcDbSymbolTableRecord
100
AcDbTextStyleTableRecord
  2
TEXTSTYLE_1
 70
0
 40
0.0
 41
0.8
 50
0.0
 71
0
 42
0.2
  3
gdt
  4

  0
ENDTAB
  0
TABLE
  2
VIEW
  5
6
100
AcDbSymbolTable
 70
0
  0
ENDTAB
  0
TABLE
  2
UCS
  5
7
100
AcDbSymbolTable
 70
0
  0
ENDTAB
  0
TABLE
  2
APPID
  5
9
100
AcDbSymbolTable
 70
1
  0
APPID
  5
20F
100
AcDbSymbolTableRecord
100
AcDbRegAppTableRecord
  2
ACAD
 70
0
  0
ENDTAB
  0
TABLE
  2
BLOCK_RECORD
  5
1
100
AcDbSymbolTable
 70
0
  0
BLOCK_RECORD
  5
210
100
AcDbSymbolTableRecord
100
AcDbBlockTableRecord
  2
*Model_Space
  0
BLOCK_RECORD
  5
211
100
AcDbSymbolTableRecord
100
AcDbBlockTableRecord
  2
*Paper_Space
  0
BLOCK_RECORD
  5
212
100
AcDbSymbolTableRecord
100
AcDbBlockTableRecord
  2
_FILLED
  0
ENDTAB
  0
TABLE
  2
DIMSTYLE
  5
A
100
AcDbSymbolTable
 70
1
100
AcDbDimStyleTable
 71
0
  0
DIMSTYLE
105
213
100
AcDbSymbolTableRecord
100
AcDbDimStyleTableRecord
  2
STANDARD
 70
0
  3

  4

 40
1.0
 41
7.3436037987
 42
1.0
 43
0.38
 44
1.0
 45
0.0
 46
0.0
 47
0.01
 48
0.01
140
10.2810453182
141
0.09
142
0.0
143
25.4
144
1.0
145
0.0
146
1.0
147
0.625
 71
1
 72
0
 73
0
 74
0
 75
0
 76
0
 77
1
 78
8
 79
2
170
0
171
1
172
0
173
0
174
0
175
0
176
0
177
0
178
0
270
2
179
2
271
2
272
2
273
2
274
2
275
0
280
0
281
0
282
0
283
1
284
8
285
0
286
0
287
3
288
0
340
11
278
46
341
212
342
212
343
212
344
212
  0
ENDTAB
  0
ENDSEC
  0
SECTION
  2
BLOCKS
  0
BLOCK
  5
20
100
AcDbEntity
  8
0
100
AcDbBlockBegin
  2
*Model_Space
 70
0
 10
0.0
 20
0.0
 30
0.0
  3
*Model_Space
  1

  0
ENDBLK
  5
21
100
AcDbEntity
  8
0
100
AcDbBlockEnd
  0
BLOCK
  5
1C
100
AcDbEntity
  8
0
100
AcDbBlockBegin
  2
*Paper_Space
 70
0
 10
0.0
 20
0.0
 30
0.0
  3
*Paper_Space
  1

  0
ENDBLK
  5
1D
100
AcDbEntity
  8
0
100
AcDbBlockEnd
  0
BLOCK
  5
214
100
AcDbEntity
  8
0
100
AcDbBlockBegin
  2
_FILLED
 70
64
 10
0.0
 20
0.0
  3
_FILLED
  1

  0
SOLID
  5
215
100
AcDbEntity
  8
0
  6
BYBLOCK
 62
0
100
AcDbTrace
 10
0.0
 20
0.0
 11
-1.0
 21
0.25
 12
-1.0
 22
-0.25
 13
-1.0
 23
-0.25
  0
ENDBLK
  5
216
100
AcDbEntity
  8
0
  6
BYBLOCK
 62
0
100
AcDbBlockEnd
  0
ENDSEC
  0
SECTION
  2
ENTITIES
  0
LINE
  5
217
100
AcDbEntity
  8
0
100
AcDbLine
 62
7
  6
BYLAYER
 10
65.8163827318
 20
420.1957330416
 11
65.4991932449
 21
427.1957330416
  0
LINE
  5
218
100
AcDbEntity
  8
0
100
AcDbLine
 62
7
  6
BYLAYER
 10
68.6163827318
 20
420.1957330416
 11
68.4991932449
 21
427.1957330416
  0
LINE
  5
219
100
AcDbEntity
  8
0
100
AcDbLine
 62
7
  6
BYLAYER
 10
76.6773131934
 20
443.1957330416
 11
76.6348010984
 21
448.1957330416
  0
LINE
  5
21A
100
AcDbEntity
  8
0
100
AcDbLine
 62
7
  6
BYLAYER
 10
68.4991932454
 20
420.1957330416
 11
68.4991932454
 21
419.8957330416
  0
LINE
  5
21B
100
AcDbEntity
  8
0
100
AcDbLine
 62
7
  6
BYLAYER
 10
70.5012186974
 20
419.8957330416
 11
70.5012186974
 21
420.1957330416
  0
LINE
  5
21C
100
AcDbEntity
  8
0
100
AcDbLine
 62
7
  6
BYLAYER
 10
71.6641932454
 20
443.1957330416
 11
71.6641932454
 21
448.1957330416
  0
LINE
  5
21D
100
AcDbEntity
  8
0
100
AcDbLine
 62
7
  6
BYLAYER
 10
72.1618913224
 20
443.1957330416
 11
72.1618913224
 21
442.6957330416
  0
LINE
  5
21E
100
AcDbEntity
  8
0
100
AcDbLine
 62
7
  6
BYLAYER
 10
76.7066437904
 20
442.6957330416
 11
76.7066437904
 21
443.1957330416
  0
LINE
  5
21F
100
AcDbEntity
  8
0
100
AcDbLine
 62
7
  6
BYLAYER
 10
76.6830759705
 20
427.1957330416
 11
76.7725705622
 21
442.6957330416
  0
LINE
  5
220
100
AcDbEntity
  8
0
100
AcDbLine
 62
7
  6
BYLAYER
 10
71.1206193944
 20
427.1957330416
 11
71.6618913223
 21
442.6957330416
  0
LINE
  5
221
100
AcDbEntity
  8
0
100
AcDbLine
 62
7
  6
BYLAYER
 10
103.6991932454
 20
419.8957330416
 11
103.6991932454
 21
419.5957330416
  0
LINE
  5
222
100
AcDbEntity
  8
0
100
AcDbLine
 62
7
  6
BYLAYER
 10
106.6991932454
 20
419.5957330416
 11
106.6991932454
 21
419.8957330416
  0
LINE
  5
223
100
AcDbEntity
  8
0
100
AcDbLine
 62
7
  6
BYLAYER
 10
107.9991932453
 20
419.4957330416
 11
107.9991932453
 21
419.5957330416
  0
LINE
  5
224
100
AcDbEntity
  8
0
100
AcDbLine
 62
7
  6
BYLAYER
 10
108.7210682454
 20
419.4957330416
 11
108.7210682454
 21
419.5957330416
  0
LINE
  5
225
100
AcDbEntity
  8
0
100
AcDbLine
 62
7
  6
BYLAYER
 10
109.0808338704
 20
419.5957330416
 11
109.0808338704
 21
419.4957330416
  0
LINE
  5
226
100
AcDbEntity
  8
0
100
AcDbLine
 62
7
  6
BYLAYER
 10
109.9280994943
 20
419.4957330416
 11
109.9280994944
 21
419.5957330416
  0
LINE
  5
227
100
AcDbEntity
  8
0
100
AcDbLine
 62
7
  6
BYLAYER
 10
110.3463167654
 20
448.2957330416
 11
110.3463167654
 21
448.1957330416
  0
LINE
  5
228
100
AcDbEntity
  8
0
100
AcDbLine
 62
7
  6
BYLAYER
 10
110.7741932451
 20
419.4957330416
 11
110.7741932451
 21
419.5957330416
  0
LINE
  5
229
100
AcDbEntity
  8
0
100
AcDbLine
 62
7
  6
BYLAYER
 10
111.6097401201
 20
419.5957330416
 11
111.6097401201
 21
419.4957330416
  0
LINE
  5
22A
100
AcDbEntity
  8
0
100
AcDbLine
 62
7
  6
BYLAYER
 10
112.4616932454
 20
419.4957330416
 11
112.4616932454
 21
419.5957330416
  0
LINE
  5
22B
100
AcDbEntity
  8
0
100
AcDbLine
 62
7
  6
BYLAYER
 10
112.8226307454
 20
419.5957330416
 11
112.8226307454
 21
419.4957330416
  0
LINE
  5
22C
100
AcDbEntity
  8
0
100
AcDbLine
 62
7
  6
BYLAYER
 10
113.5491932453
 20
419.4957330416
 11
113.5491932454
 21
419.5957330416
  0
LINE
  5
22D
100
AcDbEntity
  8
0
100
AcDbLine
 62
7
  6
BYLAYER
 10
114.5241932454
 20
419.4957330416
 11
114.5241932454
 21
419.5957330416
  0
LINE
  5
22E
100
AcDbEntity
  8
0
100
AcDbLine
 62
7
  6
BYLAYER
 10
114.7116932454
 20
419.4957330416
 11
114.7116932454
 21
419.5957330416
  0
LINE
  5
22F
100
AcDbEntity
  8
0
100
AcDbLine
 62
7
  6
BYLAYER
 10
116.5878651194
 20
419.4957330416
 11
116.5878651194
 21
419.5957330416
  0
LINE
  5
230
100
AcDbEntity
  8
0
100
AcDbLine
 62
7
  6
BYLAYER
 10
118.4323963706
 20
419.4957330416
 11
118.4323963706
 21
419.5957330416
  0
LINE
  5
231
100
AcDbEntity
  8
0
100
AcDbLine
 62
7
  6
BYLAYER
 10
118.6257557454
 20
419.4957330416
 11
118.6257557454
 21
419.5957330416
  0
LINE
  5
232
100
AcDbEntity
  8
0
100
AcDbLine
 62
7
  6
BYLAYER
 10
119.2491932444
 20
419.4957330416
 11
119.2491932444
 21
419.5957330416
  0
LINE
  5
233
100
AcDbEntity
  8
0
100
AcDbLine
 62
7
  6
BYLAYER
 10
121.0234119954
 20
419.4957330416
 11
121.0234119954
 21
419.5957330416
  0
LINE
  5
234
100
AcDbEntity
  8
0
100
AcDbLine
 62
7
  6
BYLAYER
 10
122.0495920844
 20
448.2957330416
 11
122.0495920844
 21
448.1957330416
  0
LINE
  5
235
100
AcDbEntity
  8
0
100
AcDbLine
 62
7
  6
BYLAYER
 10
122.1938512104
 20
448.2957330416
 11
122.1938512104
 21
448.1957330416
  0
LINE
  5
236
100
AcDbEntity
  8
0
100
AcDbLine
 62
7
  6
BYLAYER
 10
122.2592186254
 20
448.2957330416
 11
122.2592186254
 21
448.1957330416
  0
LINE
  5
237
100
AcDbEntity
  8
0
100
AcDbLine
 62
7
  6
BYLAYER
 10
122.3245860424
 20
448.2957330416
 11
122.3245860424
 21
448.1957330416
  0
LINE
  5
238
100
AcDbEntity
  8
0
100
AcDbLine
 62
7
  6
BYLAYER
 10
122.4390369964
 20
419.5957330416
 11
122.4390369964
 21
419.4957330416
  0
LINE
  5
239
100
AcDbEntity
  8
0
100
AcDbLine
 62
7
  6
BYLAYER
 10
122.9323963704
 20
419.4957330416
 11
122.9323963704
 21
419.5957330416
  0
LINE
  5
23A
100
AcDbEntity
  8
0
100
AcDbLine
 62
7
  6
BYLAYER
 10
123.4491932454
 20
419.4957330416
 11
123.4491932454
 21
419.5957330416
  0
LINE
  5
23B
100
AcDbEntity
  8
0
100
AcDbLine
 62
7
  6
BYLAYER
 10
124.4241932454
 20
419.4957330416
 11
124.4241932454
 21
419.5957330416
  0
LINE
  5
23C
100
AcDbEntity
  8
0
100
AcDbLine
 62
7
  6
BYLAYER
 10
126.4866932454
 20
419.4957330416
 11
126.4866932454
 21
419.5957330416
  0
LINE
  5
23D
100
AcDbEntity
  8
0
100
AcDbLine
 62
7
  6
BYLAYER
 10
128.4765369964
 20
419.4957330416
 11
128.4765369964
 21
419.5957330416
  0
LINE
  5
23E
100
AcDbEntity
  8
0
100
AcDbLine
 62
7
  6
BYLAYER
 10
129.4491932454
 20
419.4957330416
 11
129.4491932455
 21
419.5957330416
  0
LINE
  5
23F
100
AcDbEntity
  8
0
100
AcDbLine
 62
7
  6
BYLAYER
 10
129.9683338704
 20
419.4957330416
 11
129.9683338704
 21
419.5957330416
  0
LINE
  5
240
100
AcDbEntity
  8
0
100
AcDbLine
 62
7
  6
BYLAYER
 10
130.4991932454
 20
419.4957330416
 11
130.4991932454
 21
419.5957330416
  0
LINE
  5
241
100
AcDbEntity
  8
0
100
AcDbLine
 62
7
  6
BYLAYER
 10
131.6241932464
 20
419.4957330416
 11
131.6241932464
 21
419.5957330416
  0
LINE
  5
242
100
AcDbEntity
  8
0
100
AcDbLine
 62
7
  6
BYLAYER
 10
132.1550526214
 20
419.4957330416
 11
132.1550526214
 21
419.5957330416
  0
LINE
  5
243
100
AcDbEntity
  8
0
100
AcDbLine
 62
7
  6
BYLAYER
 10
132.4308360414
 20
448.2957330416
 11
132.4308360414
 21
448.1957330416
  0
LINE
  5
244
100
AcDbEntity
  8
0
100
AcDbLine
 62
7
  6
BYLAYER
 10
132.6741932444
 20
419.4957330416
 11
132.6741932444
 21
419.5957330416
  0
LINE
  5
245
100
AcDbEntity
  8
0
100
AcDbLine
 62
7
  6
BYLAYER
 10
133.5273182464
 20
419.4957330416
 11
133.5273182464
 21
419.5957330416
  0
LINE
  5
246
100
AcDbEntity
  8
0
100
AcDbLine
 62
7
  6
BYLAYER
 10
133.5741932464
 20
419.4957330416
 11
133.5741932464
 21
419.5957330416
  0
LINE
  5
247
100
AcDbEntity
  8
0
100
AcDbLine
 62
7
  6
BYLAYER
 10
135.2605213704
 20
419.4957330416
 11
135.2605213704
 21
419.5957330416
  0
LINE
  5
248
100
AcDbEntity
  8
0
100
AcDbLine
 62
7
  6
BYLAYER
 10
137.0394276204
 20
419.4957330416
 11
137.0394276204
 21
419.5957330416
  0
LINE
  5
249
100
AcDbEntity
  8
0
100
AcDbLine
 62
7
  6
BYLAYER
 10
137.2491932454
 20
419.4957330416
 11
137.2491932454
 21
419.5957330416
  0
LINE
  5
24A
100
AcDbEntity
  8
0
100
AcDbLine
 62
7
  6
BYLAYER
 10
138.6991932454
 20
419.8957330416
 11
138.6991932454
 21
419.5957330416
  0
LINE
  5
24B
100
AcDbEntity
  8
0
100
AcDbLine
 62
7
  6
BYLAYER
 10
140.7652110414
 20
448.2957330416
 11
140.7652110414
 21
448.1957330416
  0
LINE
  5
24C
100
AcDbEntity
  8
0
100
AcDbLine
 62
7
  6
BYLAYER
 10
141.6991932454
 20
419.5957330416
 11
141.6991932454
 21
419.8957330416
  0
LINE
  5
24D
100
AcDbEntity
  8
0
100
AcDbLine
 62
7
  6
BYLAYER
 10
142.9554454174
 20
448.2957330416
 11
142.9554454174
 21
448.1957330416
  0
LINE
  5
24E
100
AcDbEntity
  8
0
100
AcDbLine
 62
7
  6
BYLAYER
 10
145.8921641664
 20
448.2957330416
 11
145.8921641664
 21
448.1957330416
  0
LINE
  5
24F
100
AcDbEntity
  8
0
100
AcDbLine
 62
7
  6
BYLAYER
 10
152.7745860414
 20
448.2957330416
 11
152.7745860414
 21
448.1957330416
  0
LINE
  5
250
100
AcDbEntity
  8
0
100
AcDbLine
 62
7
  6
BYLAYER
 10
156.3842186264
 20
448.2957330416
 11
156.3842186264
 21
448.1957330416
  0
LINE
  5
251
100
AcDbEntity
  8
0
100
AcDbLine
 62
7
  6
BYLAYER
 10
160.0756248764
 20
448.2957330416
 11
160.0756248764
 21
448.1957330416
  0
LINE
  5
252
100
AcDbEntity
  8
0
100
AcDbLine
 62
7
  6
BYLAYER
 10
163.7342186264
 20
448.2957330416
 11
163.7342186264
 21
448.1957330416
  0
LINE
  5
253
100
AcDbEntity
  8
0
100
AcDbLine
 62
7
  6
BYLAYER
 10
164.1938512104
 20
448.2957330416
 11
164.1938512104
 21
448.1957330416
  0
LINE
  5
254
100
AcDbEntity
  8
0
100
AcDbLine
 62
7
  6
BYLAYER
 10
181.4991932454
 20
448.2957330416
 11
181.4991932454
 21
448.1957330416
  0
LINE
  5
255
100
AcDbEntity
  8
0
100
AcDbLine
 62
7
  6
BYLAYER
 10
183.4991932454
 20
448.1957330416
 11
183.4991932454
 21
448.2957330416
  0
LINE
  5
256
100
AcDbEntity
  8
0
100
AcDbLine
 62
7
  6
BYLAYER
 10
189.4991932454
 20
455.1957330416
 11
189.4991932454
 21
448.2957330416
  0
LINE
  5
257
100
AcDbEntity
  8
0
100
AcDbLine
 62
7
  6
BYLAYER
 10
193.4991932454
 20
455.1957330416
 11
193.4991932454
 21
448.2957330416
  0
LINE
  5
258
100
AcDbEntity
  8
0
100
AcDbLine
 62
7
  6
BYLAYER
 10
230.9991932454
 20
448.2957330416
 11
230.9991932454
 21
448.1957330416
  0
LINE
  5
259
100
AcDbEntity
  8
0
100
AcDbLine
 62
7
  6
BYLAYER
 10
231.4991932454
 20
448.2957330416
 11
231.4991932454
 21
448.1957330416
  0
LINE
  5
25A
100
AcDbEntity
  8
0
100
AcDbLine
 62
7
  6
BYLAYER
 10
278.4991932454
 20
419.8957330416
 11
278.4991932454
 21
419.5957330416
  0
LINE
  5
25B
100
AcDbEntity
  8
0
100
AcDbLine
 62
7
  6
BYLAYER
 10
282.4991932454
 20
419.5957330416
 11
282.4991932454
 21
419.8957330416
  0
LINE
  5
25C
100
AcDbEntity
  8
0
100
AcDbLine
 62
7
  6
BYLAYER
 10
291.9842271228
 20
419.5957330416
 11
291.9842271228
 21
419.4957330416
  0
LINE
  5
25D
100
AcDbEntity
  8
0
100
AcDbLine
 62
7
  6
BYLAYER
 10
292.0969492692
 20
419.4957330416
 11
292.0969492692
 21
419.5957330416
  0
LINE
  5
25E
100
AcDbEntity
  8
0
100
AcDbLine
 62
7
  6
BYLAYER
 10
326.901437222
 20
419.4957330416
 11
323.7519202549
 21
419.4957330416
  0
LINE
  5
25F
100
AcDbEntity
  8
0
100
AcDbLine
 62
7
  6
BYLAYER
 10
323.1721719862
 20
419.4957330416
 11
319.284111181
 21
419.4957330416
  0
LINE
  5
260
100
AcDbEntity
  8
0
100
AcDbLine
 62
7
  6
BYLAYER
 10
318.7922871101
 20
419.4957330416
 11
314.608252368
 21
419.4957330416
  0
LINE
  5
261
100
AcDbEntity
  8
0
100
AcDbLine
 62
7
  6
BYLAYER
 10
314.4481551836
 20
419.4957330416
 11
300.3744188902
 21
419.4957330416
  0
LINE
  5
262
100
AcDbEntity
  8
0
100
AcDbLine
 62
7
  6
BYLAYER
 10
299.8341950404
 20
419.4957330416
 11
296.4723837363
 21
419.4957330416
  0
LINE
  5
263
100
AcDbEntity
  8
0
100
AcDbLine
 62
7
  6
BYLAYER
 10
296.2066852648
 20
419.4957330416
 11
291.9840747209
 21
419.4957330416
  0
LINE
  5
264
100
AcDbEntity
  8
0
100
AcDbLine
 62
7
  6
BYLAYER
 10
137.2491932454
 20
419.4957330416
 11
133.5273182464
 21
419.4957330416
  0
LINE
  5
265
100
AcDbEntity
  8
0
100
AcDbLine
 62
7
  6
BYLAYER
 10
132.6741932444
 20
419.4957330416
 11
131.6241932464
 21
419.4957330416
  0
LINE
  5
266
100
AcDbEntity
  8
0
100
AcDbLine
 62
7
  6
BYLAYER
 10
130.4991932454
 20
419.4957330416
 11
129.4491932454
 21
419.4957330416
  0
LINE
  5
267
100
AcDbEntity
  8
0
100
AcDbLine
 62
7
  6
BYLAYER
 10
128.4765369964
 20
419.4957330416
 11
124.4241932454
 21
419.4957330416
  0
LINE
  5
268
100
AcDbEntity
  8
0
100
AcDbLine
 62
7
  6
BYLAYER
 10
123.4491932454
 20
419.4957330416
 11
119.2491932444
 21
419.4957330416
  0
LINE
  5
269
100
AcDbEntity
  8
0
100
AcDbLine
 62
7
  6
BYLAYER
 10
118.6257557454
 20
419.4957330416
 11
114.5241932454
 21
419.4957330416
  0
LINE
  5
26A
100
AcDbEntity
  8
0
100
AcDbLine
 62
7
  6
BYLAYER
 10
113.5491932453
 20
419.4957330416
 11
107.9991932453
 21
419.4957330416
  0
LINE
  5
26B
100
AcDbEntity
  8
0
100
AcDbLine
 62
7
  6
BYLAYER
 10
340.4991932454
 20
419.5957330416
 11
278.4991932454
 21
419.5957330416
  0
LINE
  5
26C
100
AcDbEntity
  8
0
100
AcDbLine
 62
7
  6
BYLAYER
 10
141.6991932454
 20
419.5957330416
 11
103.6991932454
 21
419.5957330416
  0
LINE
  5
26D
100
AcDbEntity
  8
0
100
AcDbLine
 62
7
  6
BYLAYER
 10
68.4991932454
 20
419.8957330416
 11
550.4991932454
 21
419.8957330416
  0
LINE
  5
26E
100
AcDbEntity
  8
0
100
AcDbLine
 62
7
  6
BYLAYER
 10
65.8163827324
 20
420.1957330416
 11
553.1820037584
 21
420.1957330416
  0
LINE
  5
26F
100
AcDbEntity
  8
0
100
AcDbLine
 62
7
  6
BYLAYER
 10
295.9556910501
 20
419.4957330416
 11
295.9556910501
 21
419.5957330416
  0
LINE
  5
270
100
AcDbEntity
  8
0
100
AcDbLine
 62
7
  6
BYLAYER
 10
296.2061717086
 20
419.4957330416
 11
296.2061717086
 21
419.5957330416
  0
LINE
  5
271
100
AcDbEntity
  8
0
100
AcDbLine
 62
7
  6
BYLAYER
 10
296.4732407111
 20
419.5957330416
 11
296.4732407111
 21
419.4957330416
  0
LINE
  5
272
100
AcDbEntity
  8
0
100
AcDbLine
 62
7
  6
BYLAYER
 10
299.8341950404
 20
419.4957330416
 11
299.8341950404
 21
419.5957330416
  0
LINE
  5
273
100
AcDbEntity
  8
0
100
AcDbLine
 62
7
  6
BYLAYER
 10
299.8910965747
 20
419.4957330416
 11
299.8910965747
 21
419.5957330416
  0
LINE
  5
274
100
AcDbEntity
  8
0
100
AcDbLine
 62
7
  6
BYLAYER
 10
300.3744188902
 20
419.4957330416
 11
300.3744188902
 21
419.5957330416
  0
LINE
  5
275
100
AcDbEntity
  8
0
100
AcDbLine
 62
7
  6
BYLAYER
 10
301.5448187147
 20
419.4957330416
 11
301.5448187147
 21
419.5957330416
  0
LINE
  5
276
100
AcDbEntity
  8
0
100
AcDbLine
 62
7
  6
BYLAYER
 10
304.103173034
 20
419.4957330416
 11
304.103173034
 21
419.5957330416
  0
LINE
  5
277
100
AcDbEntity
  8
0
100
AcDbLine
 62
7
  6
BYLAYER
 10
304.6558334458
 20
419.4957330416
 11
304.6558334458
 21
419.5957330416
  0
LINE
  5
278
100
AcDbEntity
  8
0
100
AcDbLine
 62
7
  6
BYLAYER
 10
305.8260629079
 20
419.4957330416
 11
305.8260629078
 21
419.5957330416
  0
LINE
  5
279
100
AcDbEntity
  8
0
100
AcDbLine
 62
7
  6
BYLAYER
 10
307.0393944284
 20
419.4957330416
 11
307.0393944284
 21
419.5957330416
  0
LINE
  5
27A
100
AcDbEntity
  8
0
100
AcDbLine
 62
7
  6
BYLAYER
 10
308.3966834244
 20
419.4957330416
 11
308.3966834245
 21
419.5957330416
  0
LINE
  5
27B
100
AcDbEntity
  8
0
100
AcDbLine
 62
7
  6
BYLAYER
 10
310.8252204704
 20
419.4957330416
 11
310.8252204704
 21
419.5957330416
  0
LINE
  5
27C
100
AcDbEntity
  8
0
100
AcDbLine
 62
7
  6
BYLAYER
 10
65.4991932454
 20
427.1957330416
 11
553.4991932454
 21
427.1957330416
  0
LINE
  5
27D
100
AcDbEntity
  8
0
100
AcDbLine
 62
7
  6
BYLAYER
 10
312.7465842581
 20
419.4957330416
 11
312.7465842581
 21
419.5957330416
  0
LINE
  5
27E
100
AcDbEntity
  8
0
100
AcDbLine
 62
7
  6
BYLAYER
 10
313.1185483747
 20
419.5957330416
 11
313.1185483747
 21
419.4957330416
  0
LINE
  5
27F
100
AcDbEntity
  8
0
100
AcDbLine
 62
7
  6
BYLAYER
 10
313.585967074
 20
419.4957330416
 11
313.585967074
 21
419.5957330416
  0
LINE
  5
280
100
AcDbEntity
  8
0
100
AcDbLine
 62
7
  6
BYLAYER
 10
314.4233055216
 20
419.4957330416
 11
314.4233055216
 21
419.5957330416
  0
LINE
  5
281
100
AcDbEntity
  8
0
100
AcDbLine
 62
7
  6
BYLAYER
 10
314.4511013112
 20
419.4957330416
 11
314.4511013112
 21
419.5957330416
  0
LINE
  5
282
100
AcDbEntity
  8
0
100
AcDbLine
 62
7
  6
BYLAYER
 10
314.6079885612
 20
419.5957330416
 11
314.6079885612
 21
419.4957330416
  0
LINE
  5
283
100
AcDbEntity
  8
0
100
AcDbLine
 62
7
  6
BYLAYER
 10
314.8458746204
 20
419.5957330416
 11
314.8458746204
 21
419.4957330416
  0
LINE
  5
284
100
AcDbEntity
  8
0
100
AcDbLine
 62
7
  6
BYLAYER
 10
317.6227391052
 20
419.4957330416
 11
317.6227391052
 21
419.5957330416
  0
LINE
  5
285
100
AcDbEntity
  8
0
100
AcDbLine
 62
7
  6
BYLAYER
 10
318.3391932454
 20
454.9957330373
 11
318.3391932454
 21
448.1957330416
  0
LINE
  5
286
100
AcDbEntity
  8
0
100
AcDbLine
 62
7
  6
BYLAYER
 10
318.7922871101
 20
419.4957330416
 11
318.7922871101
 21
419.5957330416
  0
LINE
  5
287
100
AcDbEntity
  8
0
100
AcDbLine
 62
7
  6
BYLAYER
 10
318.9338594908
 20
419.4957330416
 11
318.9338594908
 21
419.5957330416
  0
LINE
  5
288
100
AcDbEntity
  8
0
100
AcDbLine
 62
7
  6
BYLAYER
 10
321.2502971072
 20
419.4957330416
 11
321.2502971072
 21
419.5957330416
  0
LINE
  5
289
100
AcDbEntity
  8
0
100
AcDbLine
 62
7
  6
BYLAYER
 10
323.1721719861
 20
419.4957330416
 11
323.1721719861
 21
419.5957330416
  0
LINE
  5
28A
100
AcDbEntity
  8
0
100
AcDbLine
 62
7
  6
BYLAYER
 10
323.7519202549
 20
419.4957330416
 11
323.7519202549
 21
419.5957330416
  0
LINE
  5
28B
100
AcDbEntity
  8
0
100
AcDbLine
 62
7
  6
BYLAYER
 10
324.9228311717
 20
419.4957330416
 11
324.9228311717
 21
419.5957330416
  0
LINE
  5
28C
100
AcDbEntity
  8
0
100
AcDbLine
 62
7
  6
BYLAYER
 10
326.3391932454
 20
454.9957330373
 11
326.3391932454
 21
448.1957330416
  0
LINE
  5
28D
100
AcDbEntity
  8
0
100
AcDbLine
 62
7
  6
BYLAYER
 10
326.9014372219
 20
419.4957330416
 11
326.9014372219
 21
419.5957330416
  0
LINE
  5
28E
100
AcDbEntity
  8
0
100
AcDbLine
 62
7
  6
BYLAYER
 10
547.3364951684
 20
442.6957330416
 11
71.6618913224
 21
442.6957330416
  0
LINE
  5
28F
100
AcDbEntity
  8
0
100
AcDbLine
 62
7
  6
BYLAYER
 10
71.6641932454
 20
443.1957330416
 11
547.3341932454
 21
443.1957330416
  0
LINE
  5
290
100
AcDbEntity
  8
0
100
AcDbLine
 62
7
  6
BYLAYER
 10
71.6641932454
 20
448.1957330416
 11
547.3341932454
 21
448.1957330416
  0
LINE
  5
291
100
AcDbEntity
  8
0
100
AcDbLine
 62
7
  6
BYLAYER
 10
110.3463167654
 20
448.2957330416
 11
164.1938512104
 21
448.2957330416
  0
LINE
  5
292
100
AcDbEntity
  8
0
100
AcDbLine
 62
7
  6
BYLAYER
 10
181.4991932454
 20
448.2957330416
 11
231.4991932454
 21
448.2957330416
  0
LINE
  5
293
100
AcDbEntity
  8
0
100
AcDbLine
 62
7
  6
BYLAYER
 10
337.4992034167
 20
448.2957330416
 11
437.4991932454
 21
448.2957330416
  0
LINE
  5
294
100
AcDbEntity
  8
0
100
AcDbLine
 62
7
  6
BYLAYER
 10
452.4992034167
 20
448.2957330416
 11
483.4991932454
 21
448.2957330416
  0
LINE
  5
295
100
AcDbEntity
  8
0
100
AcDbLine
 62
7
  6
BYLAYER
 10
399.2814198072
 20
448.3957330416
 11
400.9679432447
 21
448.3957330416
  0
LINE
  5
296
100
AcDbEntity
  8
0
100
AcDbLine
 62
7
  6
BYLAYER
 10
401.2804432447
 20
448.3957330416
 11
403.0929432447
 21
448.3957330416
  0
LINE
  5
297
100
AcDbEntity
  8
0
100
AcDbLine
 62
7
  6
BYLAYER
 10
403.467943246
 20
448.3957330416
 11
404.9864979335
 21
448.3957330416
  0
LINE
  5
298
100
AcDbEntity
  8
0
100
AcDbLine
 62
7
  6
BYLAYER
 10
405.0133725256
 20
448.3957330416
 11
405.030443246
 21
448.3957330416
  0
LINE
  5
299
100
AcDbEntity
  8
0
100
AcDbLine
 62
7
  6
BYLAYER
 10
405.2491932458
 20
448.3957330416
 11
407.0304432458
 21
448.3957330416
  0
LINE
  5
29A
100
AcDbEntity
  8
0
100
AcDbLine
 62
7
  6
BYLAYER
 10
407.3106921887
 20
448.3957330416
 11
409.3116932445
 21
448.3957330416
  0
LINE
  5
29B
100
AcDbEntity
  8
0
100
AcDbLine
 62
7
  6
BYLAYER
 10
409.6241932454
 20
448.3957330416
 11
410.4679432454
 21
448.3957330416
  0
LINE
  5
29C
100
AcDbEntity
  8
0
100
AcDbLine
 62
7
  6
BYLAYER
 10
410.6241932454
 20
448.3957330416
 11
412.3317127774
 21
448.3957330416
  0
LINE
  5
29D
100
AcDbEntity
  8
0
100
AcDbLine
 62
7
  6
BYLAYER
 10
412.5089588714
 20
448.3957330416
 11
414.1398182464
 21
448.3957330416
  0
LINE
  5
29E
100
AcDbEntity
  8
0
100
AcDbLine
 62
7
  6
BYLAYER
 10
414.1644078452
 20
448.3957330416
 11
414.2179432464
 21
448.3957330416
  0
LINE
  5
29F
100
AcDbEntity
  8
0
100
AcDbLine
 62
7
  6
BYLAYER
 10
414.5929432454
 20
448.3957330416
 11
415.0304432453
 21
448.3957330416
  0
LINE
  5
2A0
100
AcDbEntity
  8
0
100
AcDbLine
 62
7
  6
BYLAYER
 10
415.4366932454
 20
448.3957330416
 11
417.1866932454
 21
448.3957330416
  0
LINE
  5
2A1
100
AcDbEntity
  8
0
100
AcDbLine
 62
7
  6
BYLAYER
 10
419.4679432464
 20
448.3957330416
 11
419.9054432464
 21
448.3957330416
  0
LINE
  5
2A2
100
AcDbEntity
  8
0
100
AcDbLine
 62
7
  6
BYLAYER
 10
417.5616932454
 20
448.3957330416
 11
419.1124744954
 21
448.3957330416
  0
LINE
  5
2A3
100
AcDbEntity
  8
0
100
AcDbLine
 62
7
  6
BYLAYER
 10
420.3741932454
 20
448.3957330416
 11
422.1554432454
 21
448.3957330416
  0
LINE
  5
2A4
100
AcDbEntity
  8
0
100
AcDbLine
 62
7
  6
BYLAYER
 10
423.1197987134
 20
448.3957330416
 11
424.3429432454
 21
448.3957330416
  0
LINE
  5
2A5
100
AcDbEntity
  8
0
100
AcDbLine
 62
7
  6
BYLAYER
 10
424.7277088714
 20
448.3957330416
 11
426.3585682464
 21
448.3957330416
  0
LINE
  5
2A6
100
AcDbEntity
  8
0
100
AcDbLine
 62
7
  6
BYLAYER
 10
426.8116932455
 20
448.3957330416
 11
427.2491932453
 21
448.3957330416
  0
LINE
  5
2A7
100
AcDbEntity
  8
0
100
AcDbLine
 62
7
  6
BYLAYER
 10
426.3831578452
 20
448.3957330416
 11
426.4366932464
 21
448.3957330416
  0
LINE
  5
2A8
100
AcDbEntity
  8
0
100
AcDbLine
 62
7
  6
BYLAYER
 10
427.7179432454
 20
448.3957330416
 11
429.3116932454
 21
448.3957330416
  0
LINE
  5
2A9
100
AcDbEntity
  8
0
100
AcDbLine
 62
7
  6
BYLAYER
 10
429.7491932454
 20
448.3957330416
 11
431.5304432454
 21
448.3957330416
  0
LINE
  5
2AA
100
AcDbEntity
  8
0
100
AcDbLine
 62
7
  6
BYLAYER
 10
431.7804432454
 20
448.3957330416
 11
433.5616932454
 21
448.3957330416
  0
LINE
  5
2AB
100
AcDbEntity
  8
0
100
AcDbLine
 62
7
  6
BYLAYER
 10
433.9366932455
 20
448.3957330416
 11
436.2491932453
 21
448.3957330416
  0
LINE
  5
2AC
100
AcDbEntity
  8
0
100
AcDbLine
 62
7
  6
BYLAYER
 10
459.0294666834
 20
448.3957330416
 11
460.7179432454
 21
448.3957330416
  0
LINE
  5
2AD
100
AcDbEntity
  8
0
100
AcDbLine
 62
7
  6
BYLAYER
 10
461.0929432454
 20
448.3957330416
 11
461.5304432453
 21
448.3957330416
  0
LINE
  5
2AE
100
AcDbEntity
  8
0
100
AcDbLine
 62
7
  6
BYLAYER
 10
461.9991932454
 20
448.3957330416
 11
463.5929432454
 21
448.3957330416
  0
LINE
  5
2AF
100
AcDbEntity
  8
0
100
AcDbLine
 62
7
  6
BYLAYER
 10
464.0304432454
 20
448.3957330416
 11
465.8116932454
 21
448.3957330416
  0
LINE
  5
2B0
100
AcDbEntity
  8
0
100
AcDbLine
 62
7
  6
BYLAYER
 10
466.0616932454
 20
448.3957330416
 11
467.8429432454
 21
448.3957330416
  0
LINE
  5
2B1
100
AcDbEntity
  8
0
100
AcDbLine
 62
7
  6
BYLAYER
 10
468.2179432455
 20
448.3957330416
 11
470.5304432453
 21
448.3957330416
  0
LINE
  5
2B2
100
AcDbEntity
  8
0
100
AcDbLine
 62
7
  6
BYLAYER
 10
471.8165760574
 20
448.3957330416
 11
473.9679432444
 21
448.3957330416
  0
LINE
  5
2B3
100
AcDbEntity
  8
0
100
AcDbLine
 62
7
  6
BYLAYER
 10
474.2804432464
 20
448.3957330416
 11
476.3429432464
 21
448.3957330416
  0
LINE
  5
2B4
100
AcDbEntity
  8
0
100
AcDbLine
 62
7
  6
BYLAYER
 10
476.6554432454
 20
448.3957330416
 11
477.4991932454
 21
448.3957330416
  0
LINE
  5
2B5
100
AcDbEntity
  8
0
100
AcDbLine
 62
7
  6
BYLAYER
 10
477.7540760574
 20
448.3957330416
 11
479.9054432444
 21
448.3957330416
  0
LINE
  5
2B6
100
AcDbEntity
  8
0
100
AcDbLine
 62
7
  6
BYLAYER
 10
480.1866932444
 20
448.3957330416
 11
482.4054432444
 21
448.3957330416
  0
LINE
  5
2B7
100
AcDbEntity
  8
0
100
AcDbLine
 62
7
  6
BYLAYER
 10
318.3391932454
 20
454.9957330373
 11
326.3391932454
 21
454.9957330373
  0
LINE
  5
2B8
100
AcDbEntity
  8
0
100
AcDbLine
 62
7
  6
BYLAYER
 10
189.4991932454
 20
455.1957330416
 11
193.4991932454
 21
455.1957330416
  0
LINE
  5
2B9
100
AcDbEntity
  8
0
100
AcDbLine
 62
7
  6
BYLAYER
 10
425.4991932454
 20
455.1957330416
 11
429.4991932454
 21
455.1957330416
  0
LINE
  5
2BA
100
AcDbEntity
  8
0
100
AcDbLine
 62
7
  6
BYLAYER
 10
336.4991932454
 20
419.8957330416
 11
336.4991932454
 21
419.5957330416
  0
LINE
  5
2BB
100
AcDbEntity
  8
0
100
AcDbLine
 62
7
  6
BYLAYER
 10
337.4991932454
 20
448.2957330416
 11
337.4991932454
 21
448.1957330416
  0
LINE
  5
2BC
100
AcDbEntity
  8
0
100
AcDbLine
 62
7
  6
BYLAYER
 10
337.9991932454
 20
448.1957330416
 11
337.9991932454
 21
448.2957330416
  0
LINE
  5
2BD
100
AcDbEntity
  8
0
100
AcDbLine
 62
7
  6
BYLAYER
 10
340.4991932454
 20
419.5957330416
 11
340.4991932454
 21
419.8957330416
  0
LINE
  5
2BE
100
AcDbEntity
  8
0
100
AcDbLine
 62
7
  6
BYLAYER
 10
397.4991932454
 20
448.2957330416
 11
397.4991932454
 21
448.1957330416
  0
LINE
  5
2BF
100
AcDbEntity
  8
0
100
AcDbLine
 62
7
  6
BYLAYER
 10
399.2814198072
 20
448.3957330416
 11
399.2814198072
 21
448.2957330416
  0
LINE
  5
2C0
100
AcDbEntity
  8
0
100
AcDbLine
 62
7
  6
BYLAYER
 10
399.3043690259
 20
448.3957330416
 11
399.3043690259
 21
448.2957330416
  0
LINE
  5
2C1
100
AcDbEntity
  8
0
100
AcDbLine
 62
7
  6
BYLAYER
 10
399.4991932454
 20
448.1957330416
 11
399.4991932454
 21
448.2957330416
  0
LINE
  5
2C2
100
AcDbEntity
  8
0
100
AcDbLine
 62
7
  6
BYLAYER
 10
400.080736214
 20
448.3957330416
 11
400.080736214
 21
448.2957330416
  0
LINE
  5
2C3
100
AcDbEntity
  8
0
100
AcDbLine
 62
7
  6
BYLAYER
 10
400.9679432447
 20
448.3957330416
 11
400.9679432447
 21
448.2957330416
  0
LINE
  5
2C4
100
AcDbEntity
  8
0
100
AcDbLine
 62
7
  6
BYLAYER
 10
401.2804432447
 20
448.3957330416
 11
401.2804432447
 21
448.2957330416
  0
LINE
  5
2C5
100
AcDbEntity
  8
0
100
AcDbLine
 62
7
  6
BYLAYER
 10
401.7604237134
 20
448.3957330416
 11
401.7604237134
 21
448.2957330416
  0
LINE
  5
2C6
100
AcDbEntity
  8
0
100
AcDbLine
 62
7
  6
BYLAYER
 10
402.1783924634
 20
448.2957330416
 11
402.1783924634
 21
448.3957330416
  0
LINE
  5
2C7
100
AcDbEntity
  8
0
100
AcDbLine
 62
7
  6
BYLAYER
 10
402.7906971509
 20
448.3957330416
 11
402.7906971509
 21
448.2957330416
  0
LINE
  5
2C8
100
AcDbEntity
  8
0
100
AcDbLine
 62
7
  6
BYLAYER
 10
403.0929432447
 20
448.2957330416
 11
403.0929432447
 21
448.3957330416
  0
LINE
  5
2C9
100
AcDbEntity
  8
0
100
AcDbLine
 62
7
  6
BYLAYER
 10
403.467943246
 20
448.3957330416
 11
403.467943246
 21
448.2957330416
  0
LINE
  5
2CA
100
AcDbEntity
  8
0
100
AcDbLine
 62
7
  6
BYLAYER
 10
403.5118885585
 20
448.3957330416
 11
403.5118885585
 21
448.2957330416
  0
LINE
  5
2CB
100
AcDbEntity
  8
0
100
AcDbLine
 62
7
  6
BYLAYER
 10
403.715990121
 20
448.3957330416
 11
403.715990121
 21
448.2957330416
  0
LINE
  5
2CC
100
AcDbEntity
  8
0
100
AcDbLine
 62
7
  6
BYLAYER
 10
403.9659901211
 20
448.2957330416
 11
403.9659901211
 21
448.3957330416
  0
LINE
  5
2CD
100
AcDbEntity
  8
0
100
AcDbLine
 62
7
  6
BYLAYER
 10
404.2467518388
 20
448.3957330416
 11
404.2467518388
 21
448.2957330416
  0
LINE
  5
2CE
100
AcDbEntity
  8
0
100
AcDbLine
 62
7
  6
BYLAYER
 10
404.5358143397
 20
448.3957330416
 11
404.5358143397
 21
448.2957330416
  0
LINE
  5
2CF
100
AcDbEntity
  8
0
100
AcDbLine
 62
7
  6
BYLAYER
 10
404.7858143398
 20
448.3957330416
 11
404.7858143398
 21
448.2957330416
  0
LINE
  5
2D0
100
AcDbEntity
  8
0
100
AcDbLine
 62
7
  6
BYLAYER
 10
404.9864979335
 20
448.3957330416
 11
404.9864979335
 21
448.2957330416
  0
LINE
  5
2D1
100
AcDbEntity
  8
0
100
AcDbLine
 62
7
  6
BYLAYER
 10
405.030443246
 20
448.3957330416
 11
405.030443246
 21
448.2957330416
  0
LINE
  5
2D2
100
AcDbEntity
  8
0
100
AcDbLine
 62
7
  6
BYLAYER
 10
405.2491932458
 20
448.3957330416
 11
405.2491932458
 21
448.2957330416
  0
LINE
  5
2D3
100
AcDbEntity
  8
0
100
AcDbLine
 62
7
  6
BYLAYER
 10
406.142259652
 20
448.3957330416
 11
406.142259652
 21
448.2957330416
  0
LINE
  5
2D4
100
AcDbEntity
  8
0
100
AcDbLine
 62
7
  6
BYLAYER
 10
407.0304432458
 20
448.3957330416
 11
407.0304432458
 21
448.2957330416
  0
LINE
  5
2D5
100
AcDbEntity
  8
0
100
AcDbLine
 62
7
  6
BYLAYER
 10
407.3116932445
 20
448.3957330416
 11
407.3116932445
 21
448.2957330416
  0
LINE
  5
2D6
100
AcDbEntity
  8
0
100
AcDbLine
 62
7
  6
BYLAYER
 10
407.4264393383
 20
448.2957330416
 11
407.4264393383
 21
448.3957330416
  0
LINE
  5
2D7
100
AcDbEntity
  8
0
100
AcDbLine
 62
7
  6
BYLAYER
 10
407.7155018383
 20
448.3957330416
 11
407.7155018383
 21
448.2957330416
  0
LINE
  5
2D8
100
AcDbEntity
  8
0
100
AcDbLine
 62
7
  6
BYLAYER
 10
408.2394276195
 20
448.2957330416
 11
408.2394276195
 21
448.3957330416
  0
LINE
  5
2D9
100
AcDbEntity
  8
0
100
AcDbLine
 62
7
  6
BYLAYER
 10
409.0167713695
 20
448.3957330416
 11
409.0167713695
 21
448.2957330416
  0
LINE
  5
2DA
100
AcDbEntity
  8
0
100
AcDbLine
 62
7
  6
BYLAYER
 10
409.3116932445
 20
448.2957330416
 11
409.3116932445
 21
448.3957330416
  0
LINE
  5
2DB
100
AcDbEntity
  8
0
100
AcDbLine
 62
7
  6
BYLAYER
 10
409.6241932454
 20
448.3957330416
 11
409.6241932454
 21
448.2957330416
  0
LINE
  5
2DC
100
AcDbEntity
  8
0
100
AcDbLine
 62
7
  6
BYLAYER
 10
409.7906971514
 20
448.3957330416
 11
409.7906971514
 21
448.2957330416
  0
LINE
  5
2DD
100
AcDbEntity
  8
0
100
AcDbLine
 62
7
  6
BYLAYER
 10
409.9845448072
 20
448.2957330416
 11
409.9845448072
 21
448.3957330416
  0
LINE
  5
2DE
100
AcDbEntity
  8
0
100
AcDbLine
 62
7
  6
BYLAYER
 10
410.4357166824
 20
448.3957330416
 11
410.4357166824
 21
448.2957330416
  0
LINE
  5
2DF
100
AcDbEntity
  8
0
100
AcDbLine
 62
7
  6
BYLAYER
 10
410.4679432454
 20
448.3957330416
 11
410.4679432454
 21
448.2957330416
  0
LINE
  5
2E0
100
AcDbEntity
  8
0
100
AcDbLine
 62
7
  6
BYLAYER
 10
410.6241932454
 20
448.3957330416
 11
410.6241932454
 21
448.2957330416
  0
LINE
  5
2E1
100
AcDbEntity
  8
0
100
AcDbLine
 62
7
  6
BYLAYER
 10
410.8209705894
 20
448.3957330416
 11
410.8209705894
 21
448.2957330416
  0
LINE
  5
2E2
100
AcDbEntity
  8
0
100
AcDbLine
 62
7
  6
BYLAYER
 10
411.0822010584
 20
448.2957330416
 11
411.0822010584
 21
448.3957330416
  0
LINE
  5
2E3
100
AcDbEntity
  8
0
100
AcDbLine
 62
7
  6
BYLAYER
 10
411.4440174638
 20
448.3957330416
 11
411.4440174638
 21
448.2957330416
  0
LINE
  5
2E4
100
AcDbEntity
  8
0
100
AcDbLine
 62
7
  6
BYLAYER
 10
411.8258534014
 20
448.3957330416
 11
411.8258534014
 21
448.2957330416
  0
LINE
  5
2E5
100
AcDbEntity
  8
0
100
AcDbLine
 62
7
  6
BYLAYER
 10
412.0607166834
 20
448.3957330416
 11
412.0607166834
 21
448.2957330416
  0
LINE
  5
2E6
100
AcDbEntity
  8
0
100
AcDbLine
 62
7
  6
BYLAYER
 10
412.2804432454
 20
448.3957330416
 11
412.2804432454
 21
448.2957330416
  0
LINE
  5
2E7
100
AcDbEntity
  8
0
100
AcDbLine
 62
7
  6
BYLAYER
 10
412.3317127774
 20
448.3957330416
 11
412.3317127774
 21
448.2957330416
  0
LINE
  5
2E8
100
AcDbEntity
  8
0
100
AcDbLine
 62
7
  6
BYLAYER
 10
412.5089588714
 20
448.3957330416
 11
412.5089588714
 21
448.2957330416
  0
LINE
  5
2E9
100
AcDbEntity
  8
0
100
AcDbLine
 62
7
  6
BYLAYER
 10
412.5895252774
 20
448.3957330416
 11
412.5895252774
 21
448.2957330416
  0
LINE
  5
2EA
100
AcDbEntity
  8
0
100
AcDbLine
 62
7
  6
BYLAYER
 10
413.3580799644
 20
448.3957330416
 11
413.3580799644
 21
448.2957330416
  0
LINE
  5
2EB
100
AcDbEntity
  8
0
100
AcDbLine
 62
7
  6
BYLAYER
 10
414.1398182464
 20
448.3957330416
 11
414.1398182464
 21
448.2957330416
  0
LINE
  5
2EC
100
AcDbEntity
  8
0
100
AcDbLine
 62
7
  6
BYLAYER
 10
414.2179432464
 20
448.3957330416
 11
414.2179432464
 21
448.2957330416
  0
LINE
  5
2ED
100
AcDbEntity
  8
0
100
AcDbLine
 62
7
  6
BYLAYER
 10
414.5929432454
 20
448.3957330416
 11
414.5929432454
 21
448.2957330416
  0
LINE
  5
2EE
100
AcDbEntity
  8
0
100
AcDbLine
 62
7
  6
BYLAYER
 10
414.8141346524
 20
448.3957330416
 11
414.8141346524
 21
448.2957330416
  0
LINE
  5
2EF
100
AcDbEntity
  8
0
100
AcDbLine
 62
7
  6
BYLAYER
 10
415.0304432452
 20
448.2957330416
 11
415.0304432452
 21
448.3957330416
  0
LINE
  5
2F0
100
AcDbEntity
  8
0
100
AcDbLine
 62
7
  6
BYLAYER
 10
415.4366932454
 20
448.3957330416
 11
415.4366932454
 21
448.2957330416
  0
LINE
  5
2F1
100
AcDbEntity
  8
0
100
AcDbLine
 62
7
  6
BYLAYER
 10
416.1847401204
 20
448.3957330416
 11
416.1847401204
 21
448.2957330416
  0
LINE
  5
2F2
100
AcDbEntity
  8
0
100
AcDbLine
 62
7
  6
BYLAYER
 10
416.747182919
 20
448.2957330416
 11
416.747182919
 21
448.3957330416
  0
LINE
  5
2F3
100
AcDbEntity
  8
0
100
AcDbLine
 62
7
  6
BYLAYER
 10
416.9713612134
 20
448.3957330416
 11
416.9713612134
 21
448.2957330416
  0
LINE
  5
2F4
100
AcDbEntity
  8
0
100
AcDbLine
 62
7
  6
BYLAYER
 10
417.1866932454
 20
448.2957330416
 11
417.1866932454
 21
448.3957330416
  0
LINE
  5
2F5
100
AcDbEntity
  8
0
100
AcDbLine
 62
7
  6
BYLAYER
 10
417.5616932454
 20
448.3957330416
 11
417.5616932454
 21
448.2957330416
  0
LINE
  5
2F6
100
AcDbEntity
  8
0
100
AcDbLine
 62
7
  6
BYLAYER
 10
417.6490955894
 20
448.3957330416
 11
417.6490955894
 21
448.2957330416
  0
LINE
  5
2F7
100
AcDbEntity
  8
0
100
AcDbLine
 62
7
  6
BYLAYER
 10
418.3903065264
 20
448.3957330416
 11
418.3903065264
 21
448.2957330416
  0
LINE
  5
2F8
100
AcDbEntity
  8
0
100
AcDbLine
 62
7
  6
BYLAYER
 10
419.0929432454
 20
448.3957330416
 11
419.0929432454
 21
448.2957330416
  0
LINE
  5
2F9
100
AcDbEntity
  8
0
100
AcDbLine
 62
7
  6
BYLAYER
 10
419.1124744954
 20
448.3957330416
 11
419.1124744954
 21
448.2957330416
  0
LINE
  5
2FA
100
AcDbEntity
  8
0
100
AcDbLine
 62
7
  6
BYLAYER
 10
419.4679432464
 20
448.3957330416
 11
419.4679432464
 21
448.2957330416
  0
LINE
  5
2FB
100
AcDbEntity
  8
0
100
AcDbLine
 62
7
  6
BYLAYER
 10
419.6842518394
 20
448.3957330416
 11
419.6842518394
 21
448.2957330416
  0
LINE
  5
2FC
100
AcDbEntity
  8
0
100
AcDbLine
 62
7
  6
BYLAYER
 10
419.9054432464
 20
448.3957330416
 11
419.9054432464
 21
448.2957330416
  0
LINE
  5
2FD
100
AcDbEntity
  8
0
100
AcDbLine
 62
7
  6
BYLAYER
 10
420.3741932454
 20
448.3957330416
 11
420.3741932454
 21
448.2957330416
  0
LINE
  5
2FE
100
AcDbEntity
  8
0
100
AcDbLine
 62
7
  6
BYLAYER
 10
420.5929432454
 20
448.3957330416
 11
420.5929432454
 21
448.2957330416
  0
LINE
  5
2FF
100
AcDbEntity
  8
0
100
AcDbLine
 62
7
  6
BYLAYER
 10
420.8116932454
 20
448.2957330416
 11
420.8116932454
 21
448.3957330416
  0
LINE
  5
300
100
AcDbEntity
  8
0
100
AcDbLine
 62
7
  6
BYLAYER
 10
421.4030018394
 20
448.3957330416
 11
421.4030018394
 21
448.2957330416
  0
LINE
  5
301
100
AcDbEntity
  8
0
100
AcDbLine
 62
7
  6
BYLAYER
 10
422.1554432454
 20
448.3957330416
 11
422.1554432454
 21
448.2957330416
  0
LINE
  5
302
100
AcDbEntity
  8
0
100
AcDbLine
 62
7
  6
BYLAYER
 10
423.1197987134
 20
448.3957330416
 11
423.1197987134
 21
448.2957330416
  0
LINE
  5
303
100
AcDbEntity
  8
0
100
AcDbLine
 62
7
  6
BYLAYER
 10
423.5284901204
 20
448.3957330416
 11
423.5284901204
 21
448.2957330416
  0
LINE
  5
304
100
AcDbEntity
  8
0
100
AcDbLine
 62
7
  6
BYLAYER
 10
423.9200916824
 20
448.3957330416
 11
423.9200916824
 21
448.2957330416
  0
LINE
  5
305
100
AcDbEntity
  8
0
100
AcDbLine
 62
7
  6
BYLAYER
 10
424.1300526204
 20
448.3957330416
 11
424.1300526204
 21
448.2957330416
  0
LINE
  5
306
100
AcDbEntity
  8
0
100
AcDbLine
 62
7
  6
BYLAYER
 10
424.3429432455
 20
448.2957330416
 11
424.3429432455
 21
448.3957330416
  0
LINE
  5
307
100
AcDbEntity
  8
0
100
AcDbLine
 62
7
  6
BYLAYER
 10
424.7277088714
 20
448.3957330416
 11
424.7277088714
 21
448.2957330416
  0
LINE
  5
308
100
AcDbEntity
  8
0
100
AcDbLine
 62
7
  6
BYLAYER
 10
424.8082752774
 20
448.3957330416
 11
424.8082752774
 21
448.2957330416
  0
LINE
  5
309
100
AcDbEntity
  8
0
100
AcDbLine
 62
7
  6
BYLAYER
 10
425.4991932454
 20
455.1957330416
 11
425.4991932454
 21
448.3957330416
  0
LINE
  5
30A
100
AcDbEntity
  8
0
100
AcDbLine
 62
7
  6
BYLAYER
 10
425.5768299644
 20
448.3957330416
 11
425.5768299644
 21
448.2957330416
  0
LINE
  5
30B
100
AcDbEntity
  8
0
100
AcDbLine
 62
7
  6
BYLAYER
 10
426.3585682464
 20
448.3957330416
 11
426.3585682464
 21
448.2957330416
  0
LINE
  5
30C
100
AcDbEntity
  8
0
100
AcDbLine
 62
7
  6
BYLAYER
 10
426.4366932464
 20
448.3957330416
 11
426.4366932464
 21
448.2957330416
  0
LINE
  5
30D
100
AcDbEntity
  8
0
100
AcDbLine
 62
7
  6
BYLAYER
 10
426.8116932454
 20
448.3957330416
 11
426.8116932454
 21
448.2957330416
  0
LINE
  5
30E
100
AcDbEntity
  8
0
100
AcDbLine
 62
7
  6
BYLAYER
 10
427.0328846524
 20
448.3957330416
 11
427.0328846524
 21
448.2957330416
  0
LINE
  5
30F
100
AcDbEntity
  8
0
100
AcDbLine
 62
7
  6
BYLAYER
 10
427.2491932452
 20
448.2957330416
 11
427.2491932452
 21
448.3957330416
  0
LINE
  5
310
100
AcDbEntity
  8
0
100
AcDbLine
 62
7
  6
BYLAYER
 10
427.7179432454
 20
448.3957330416
 11
427.7179432454
 21
448.2957330416
  0
LINE
  5
311
100
AcDbEntity
  8
0
100
AcDbLine
 62
7
  6
BYLAYER
 10
427.9352284014
 20
448.3957330416
 11
427.9352284014
 21
448.2957330416
  0
LINE
  5
312
100
AcDbEntity
  8
0
100
AcDbLine
 62
7
  6
BYLAYER
 10
428.1554432454
 20
448.2957330416
 11
428.1554432454
 21
448.3957330416
  0
LINE
  5
313
100
AcDbEntity
  8
0
100
AcDbLine
 62
7
  6
BYLAYER
 10
428.1940174644
 20
448.3957330416
 11
428.1940174644
 21
448.2957330416
  0
LINE
  5
314
100
AcDbEntity
  8
0
100
AcDbLine
 62
7
  6
BYLAYER
 10
428.5616932454
 20
448.3957330416
 11
428.5616932454
 21
448.2957330416
  0
LINE
  5
315
100
AcDbEntity
  8
0
100
AcDbLine
 62
7
  6
BYLAYER
 10
428.8741932454
 20
448.3957330416
 11
428.8741932454
 21
448.2957330416
  0
LINE
  5
316
100
AcDbEntity
  8
0
100
AcDbLine
 62
7
  6
BYLAYER
 10
429.0953846514
 20
448.3957330416
 11
429.0953846514
 21
448.2957330416
  0
LINE
  5
317
100
AcDbEntity
  8
0
100
AcDbLine
 62
7
  6
BYLAYER
 10
429.3116932454
 20
448.2957330416
 11
429.3116932454
 21
448.3957330416
  0
LINE
  5
318
100
AcDbEntity
  8
0
100
AcDbLine
 62
7
  6
BYLAYER
 10
429.4991932454
 20
455.1957330416
 11
429.4991932454
 21
448.2957330416
  0
LINE
  5
319
100
AcDbEntity
  8
0
100
AcDbLine
 62
7
  6
BYLAYER
 10
429.7491932454
 20
448.3957330416
 11
429.7491932454
 21
448.2957330416
  0
LINE
  5
31A
100
AcDbEntity
  8
0
100
AcDbLine
 62
7
  6
BYLAYER
 10
429.9679432454
 20
448.3957330416
 11
429.9679432454
 21
448.2957330416
  0
LINE
  5
31B
100
AcDbEntity
  8
0
100
AcDbLine
 62
7
  6
BYLAYER
 10
430.1866932454
 20
448.2957330416
 11
430.1866932454
 21
448.3957330416
  0
LINE
  5
31C
100
AcDbEntity
  8
0
100
AcDbLine
 62
7
  6
BYLAYER
 10
430.7780018394
 20
448.3957330416
 11
430.7780018394
 21
448.2957330416
  0
LINE
  5
31D
100
AcDbEntity
  8
0
100
AcDbLine
 62
7
  6
BYLAYER
 10
431.5304432454
 20
448.3957330416
 11
431.5304432454
 21
448.2957330416
  0
LINE
  5
31E
100
AcDbEntity
  8
0
100
AcDbLine
 62
7
  6
BYLAYER
 10
431.7804432454
 20
448.3957330416
 11
431.7804432454
 21
448.2957330416
  0
LINE
  5
31F
100
AcDbEntity
  8
0
100
AcDbLine
 62
7
  6
BYLAYER
 10
432.6735096524
 20
448.3957330416
 11
432.6735096524
 21
448.2957330416
  0
LINE
  5
320
100
AcDbEntity
  8
0
100
AcDbLine
 62
7
  6
BYLAYER
 10
433.5616932454
 20
448.3957330416
 11
433.5616932454
 21
448.2957330416
  0
LINE
  5
321
100
AcDbEntity
  8
0
100
AcDbLine
 62
7
  6
BYLAYER
 10
433.9366932454
 20
448.3957330416
 11
433.9366932454
 21
448.2957330416
  0
LINE
  5
322
100
AcDbEntity
  8
0
100
AcDbLine
 62
7
  6
BYLAYER
 10
434.2394276204
 20
448.2957330416
 11
434.2394276204
 21
448.3957330416
  0
LINE
  5
323
100
AcDbEntity
  8
0
100
AcDbLine
 62
7
  6
BYLAYER
 10
434.3898182454
 20
448.3957330416
 11
434.3898182454
 21
448.2957330416
  0
LINE
  5
324
100
AcDbEntity
  8
0
100
AcDbLine
 62
7
  6
BYLAYER
 10
434.7447987147
 20
448.2957330416
 11
434.7447987147
 21
448.3957330416
  0
LINE
  5
325
100
AcDbEntity
  8
0
100
AcDbLine
 62
7
  6
BYLAYER
 10
435.0929432452
 20
448.3957330416
 11
435.0929432452
 21
448.2957330416
  0
LINE
  5
326
100
AcDbEntity
  8
0
100
AcDbLine
 62
7
  6
BYLAYER
 10
435.4454823084
 20
448.3957330416
 11
435.4454823084
 21
448.2957330416
  0
LINE
  5
327
100
AcDbEntity
  8
0
100
AcDbLine
 62
7
  6
BYLAYER
 10
435.4991932454
 20
448.2957330416
 11
435.4991932454
 21
448.1957330416
  0
LINE
  5
328
100
AcDbEntity
  8
0
100
AcDbLine
 62
7
  6
BYLAYER
 10
435.7985096524
 20
448.2957330416
 11
435.7985096524
 21
448.3957330416
  0
LINE
  5
329
100
AcDbEntity
  8
0
100
AcDbLine
 62
7
  6
BYLAYER
 10
435.9484119954
 20
448.3957330416
 11
435.9484119954
 21
448.2957330416
  0
LINE
  5
32A
100
AcDbEntity
  8
0
100
AcDbLine
 62
7
  6
BYLAYER
 10
436.2491932452
 20
448.2957330416
 11
436.2491932452
 21
448.3957330416
  0
LINE
  5
32B
100
AcDbEntity
  8
0
100
AcDbLine
 62
7
  6
BYLAYER
 10
437.4991932454
 20
448.1957330416
 11
437.4991932454
 21
448.2957330416
  0
LINE
  5
32C
100
AcDbEntity
  8
0
100
AcDbLine
 62
7
  6
BYLAYER
 10
452.4991932454
 20
448.2957330416
 11
452.4991932454
 21
448.1957330416
  0
LINE
  5
32D
100
AcDbEntity
  8
0
100
AcDbLine
 62
7
  6
BYLAYER
 10
452.9991932454
 20
448.1957330416
 11
452.9991932454
 21
448.2957330416
  0
LINE
  5
32E
100
AcDbEntity
  8
0
100
AcDbLine
 62
7
  6
BYLAYER
 10
458.4991932454
 20
448.2957330416
 11
458.4991932454
 21
448.1957330416
  0
LINE
  5
32F
100
AcDbEntity
  8
0
100
AcDbLine
 62
7
  6
BYLAYER
 10
459.0294666834
 20
448.3957330416
 11
459.0294666834
 21
448.2957330416
  0
LINE
  5
330
100
AcDbEntity
  8
0
100
AcDbLine
 62
7
  6
BYLAYER
 10
459.8585682454
 20
448.3957330416
 11
459.8585682454
 21
448.2957330416
  0
LINE
  5
331
100
AcDbEntity
  8
0
100
AcDbLine
 62
7
  6
BYLAYER
 10
460.4991932454
 20
448.1957330416
 11
460.4991932454
 21
448.2957330416
  0
LINE
  5
332
100
AcDbEntity
  8
0
100
AcDbLine
 62
7
  6
BYLAYER
 10
460.7179432454
 20
448.3957330416
 11
460.7179432454
 21
448.2957330416
  0
LINE
  5
333
100
AcDbEntity
  8
0
100
AcDbLine
 62
7
  6
BYLAYER
 10
461.0929432454
 20
448.3957330416
 11
461.0929432454
 21
448.2957330416
  0
LINE
  5
334
100
AcDbEntity
  8
0
100
AcDbLine
 62
7
  6
BYLAYER
 10
461.3141346524
 20
448.3957330416
 11
461.3141346524
 21
448.2957330416
  0
LINE
  5
335
100
AcDbEntity
  8
0
100
AcDbLine
 62
7
  6
BYLAYER
 10
461.5304432452
 20
448.2957330416
 11
461.5304432452
 21
448.3957330416
  0
LINE
  5
336
100
AcDbEntity
  8
0
100
AcDbLine
 62
7
  6
BYLAYER
 10
461.9991932454
 20
448.3957330416
 11
461.9991932454
 21
448.2957330416
  0
LINE
  5
337
100
AcDbEntity
  8
0
100
AcDbLine
 62
7
  6
BYLAYER
 10
462.2164784014
 20
448.3957330416
 11
462.2164784014
 21
448.2957330416
  0
LINE
  5
338
100
AcDbEntity
  8
0
100
AcDbLine
 62
7
  6
BYLAYER
 10
462.4366932454
 20
448.2957330416
 11
462.4366932454
 21
448.3957330416
  0
LINE
  5
339
100
AcDbEntity
  8
0
100
AcDbLine
 62
7
  6
BYLAYER
 10
462.4752674644
 20
448.3957330416
 11
462.4752674644
 21
448.2957330416
  0
LINE
  5
33A
100
AcDbEntity
  8
0
100
AcDbLine
 62
7
  6
BYLAYER
 10
462.8429432454
 20
448.3957330416
 11
462.8429432454
 21
448.2957330416
  0
LINE
  5
33B
100
AcDbEntity
  8
0
100
AcDbLine
 62
7
  6
BYLAYER
 10
463.1554432454
 20
448.3957330416
 11
463.1554432454
 21
448.2957330416
  0
LINE
  5
33C
100
AcDbEntity
  8
0
100
AcDbLine
 62
7
  6
BYLAYER
 10
463.3766346514
 20
448.3957330416
 11
463.3766346514
 21
448.2957330416
  0
LINE
  5
33D
100
AcDbEntity
  8
0
100
AcDbLine
 62
7
  6
BYLAYER
 10
463.5929432454
 20
448.2957330416
 11
463.5929432454
 21
448.3957330416
  0
LINE
  5
33E
100
AcDbEntity
  8
0
100
AcDbLine
 62
7
  6
BYLAYER
 10
464.0304432454
 20
448.3957330416
 11
464.0304432454
 21
448.2957330416
  0
LINE
  5
33F
100
AcDbEntity
  8
0
100
AcDbLine
 62
7
  6
BYLAYER
 10
464.2491932454
 20
448.3957330416
 11
464.2491932454
 21
448.2957330416
  0
LINE
  5
340
100
AcDbEntity
  8
0
100
AcDbLine
 62
7
  6
BYLAYER
 10
464.4679432454
 20
448.2957330416
 11
464.4679432454
 21
448.3957330416
  0
LINE
  5
341
100
AcDbEntity
  8
0
100
AcDbLine
 62
7
  6
BYLAYER
 10
465.0592518394
 20
448.3957330416
 11
465.0592518394
 21
448.2957330416
  0
LINE
  5
342
100
AcDbEntity
  8
0
100
AcDbLine
 62
7
  6
BYLAYER
 10
465.8116932454
 20
448.3957330416
 11
465.8116932454
 21
448.2957330416
  0
LINE
  5
343
100
AcDbEntity
  8
0
100
AcDbLine
 62
7
  6
BYLAYER
 10
466.0616932454
 20
448.3957330416
 11
466.0616932454
 21
448.2957330416
  0
LINE
  5
344
100
AcDbEntity
  8
0
100
AcDbLine
 62
7
  6
BYLAYER
 10
466.9547596524
 20
448.3957330416
 11
466.9547596524
 21
448.2957330416
  0
LINE
  5
345
100
AcDbEntity
  8
0
100
AcDbLine
 62
7
  6
BYLAYER
 10
467.8429432454
 20
448.3957330416
 11
467.8429432454
 21
448.2957330416
  0
LINE
  5
346
100
AcDbEntity
  8
0
100
AcDbLine
 62
7
  6
BYLAYER
 10
468.2179432454
 20
448.3957330416
 11
468.2179432454
 21
448.2957330416
  0
LINE
  5
347
100
AcDbEntity
  8
0
100
AcDbLine
 62
7
  6
BYLAYER
 10
468.5206776204
 20
448.2957330416
 11
468.5206776204
 21
448.3957330416
  0
LINE
  5
348
100
AcDbEntity
  8
0
100
AcDbLine
 62
7
  6
BYLAYER
 10
468.6710682454
 20
448.3957330416
 11
468.6710682454
 21
448.2957330416
  0
LINE
  5
349
100
AcDbEntity
  8
0
100
AcDbLine
 62
7
  6
BYLAYER
 10
469.0260487147
 20
448.2957330416
 11
469.0260487147
 21
448.3957330416
  0
LINE
  5
34A
100
AcDbEntity
  8
0
100
AcDbLine
 62
7
  6
BYLAYER
 10
469.3741932452
 20
448.3957330416
 11
469.3741932452
 21
448.2957330416
  0
LINE
  5
34B
100
AcDbEntity
  8
0
100
AcDbLine
 62
7
  6
BYLAYER
 10
469.7267323084
 20
448.3957330416
 11
469.7267323084
 21
448.2957330416
  0
LINE
  5
34C
100
AcDbEntity
  8
0
100
AcDbLine
 62
7
  6
BYLAYER
 10
470.0797596524
 20
448.2957330416
 11
470.0797596524
 21
448.3957330416
  0
LINE
  5
34D
100
AcDbEntity
  8
0
100
AcDbLine
 62
7
  6
BYLAYER
 10
470.2296619954
 20
448.3957330416
 11
470.2296619954
 21
448.2957330416
  0
LINE
  5
34E
100
AcDbEntity
  8
0
100
AcDbLine
 62
7
  6
BYLAYER
 10
470.5304432452
 20
448.2957330416
 11
470.5304432452
 21
448.3957330416
  0
LINE
  5
34F
100
AcDbEntity
  8
0
100
AcDbLine
 62
7
  6
BYLAYER
 10
471.8102284004
 20
448.3957330416
 11
471.8102284004
 21
448.2957330416
  0
LINE
  5
350
100
AcDbEntity
  8
0
100
AcDbLine
 62
7
  6
BYLAYER
 10
472.8121815254
 20
448.3957330416
 11
472.8121815254
 21
448.2957330416
  0
LINE
  5
351
100
AcDbEntity
  8
0
100
AcDbLine
 62
7
  6
BYLAYER
 10
473.9679432444
 20
448.3957330416
 11
473.9679432444
 21
448.2957330416
  0
LINE
  5
352
100
AcDbEntity
  8
0
100
AcDbLine
 62
7
  6
BYLAYER
 10
474.2804432464
 20
448.3957330416
 11
474.2804432464
 21
448.2957330416
  0
LINE
  5
353
100
AcDbEntity
  8
0
100
AcDbLine
 62
7
  6
BYLAYER
 10
474.6608143404
 20
448.3957330416
 11
474.6608143404
 21
448.2957330416
  0
LINE
  5
354
100
AcDbEntity
  8
0
100
AcDbLine
 62
7
  6
BYLAYER
 10
475.4147205904
 20
448.2957330416
 11
475.4147205904
 21
448.3957330416
  0
LINE
  5
355
100
AcDbEntity
  8
0
100
AcDbLine
 62
7
  6
BYLAYER
 10
476.0558338714
 20
448.3957330416
 11
476.0558338714
 21
448.2957330416
  0
LINE
  5
356
100
AcDbEntity
  8
0
100
AcDbLine
 62
7
  6
BYLAYER
 10
476.3429432464
 20
448.2957330416
 11
476.3429432464
 21
448.3957330416
  0
LINE
  5
357
100
AcDbEntity
  8
0
100
AcDbLine
 62
7
  6
BYLAYER
 10
476.6554432454
 20
448.3957330416
 11
476.6554432454
 21
448.2957330416
  0
LINE
  5
358
100
AcDbEntity
  8
0
100
AcDbLine
 62
7
  6
BYLAYER
 10
476.8219471514
 20
448.3957330416
 11
476.8219471514
 21
448.2957330416
  0
LINE
  5
359
100
AcDbEntity
  8
0
100
AcDbLine
 62
7
  6
BYLAYER
 10
477.0157948072
 20
448.2957330416
 11
477.0157948072
 21
448.3957330416
  0
LINE
  5
35A
100
AcDbEntity
  8
0
100
AcDbLine
 62
7
  6
BYLAYER
 10
477.4669666824
 20
448.3957330416
 11
477.4669666824
 21
448.2957330416
  0
LINE
  5
35B
100
AcDbEntity
  8
0
100
AcDbLine
 62
7
  6
BYLAYER
 10
477.4991932454
 20
448.3957330416
 11
477.4991932454
 21
448.2957330416
  0
LINE
  5
35C
100
AcDbEntity
  8
0
100
AcDbLine
 62
7
  6
BYLAYER
 10
477.7477284004
 20
448.3957330416
 11
477.7477284004
 21
448.2957330416
  0
LINE
  5
35D
100
AcDbEntity
  8
0
100
AcDbLine
 62
7
  6
BYLAYER
 10
478.7496815254
 20
448.3957330416
 11
478.7496815254
 21
448.2957330416
  0
LINE
  5
35E
100
AcDbEntity
  8
0
100
AcDbLine
 62
7
  6
BYLAYER
 10
479.9054432444
 20
448.3957330416
 11
479.9054432444
 21
448.2957330416
  0
LINE
  5
35F
100
AcDbEntity
  8
0
100
AcDbLine
 62
7
  6
BYLAYER
 10
480.1866932444
 20
448.3957330416
 11
480.1866932444
 21
448.2957330416
  0
LINE
  5
360
100
AcDbEntity
  8
0
100
AcDbLine
 62
7
  6
BYLAYER
 10
480.2599354325
 20
448.2957330416
 11
480.2599354325
 21
448.3957330416
  0
LINE
  5
361
100
AcDbEntity
  8
0
100
AcDbLine
 62
7
  6
BYLAYER
 10
480.8849354324
 20
448.3957330416
 11
480.8849354324
 21
448.2957330416
  0
LINE
  5
362
100
AcDbEntity
  8
0
100
AcDbLine
 62
7
  6
BYLAYER
 10
481.3058338694
 20
448.3957330416
 11
481.3058338694
 21
448.2957330416
  0
LINE
  5
363
100
AcDbEntity
  8
0
100
AcDbLine
 62
7
  6
BYLAYER
 10
481.4991932454
 20
448.2957330416
 11
481.4991932454
 21
448.1957330416
  0
LINE
  5
364
100
AcDbEntity
  8
0
100
AcDbLine
 62
7
  6
BYLAYER
 10
481.7233143381
 20
448.2957330416
 11
481.7233143381
 21
448.3957330416
  0
LINE
  5
365
100
AcDbEntity
  8
0
100
AcDbLine
 62
7
  6
BYLAYER
 10
482.3351307444
 20
448.3957330416
 11
482.3351307444
 21
448.2957330416
  0
LINE
  5
366
100
AcDbEntity
  8
0
100
AcDbLine
 62
7
  6
BYLAYER
 10
482.4054432444
 20
448.3957330416
 11
482.4054432444
 21
448.2957330416
  0
LINE
  5
367
100
AcDbEntity
  8
0
100
AcDbLine
 62
7
  6
BYLAYER
 10
483.4991932454
 20
448.1957330416
 11
483.4991932454
 21
448.2957330416
  0
LINE
  5
368
100
AcDbEntity
  8
0
100
AcDbLine
 62
7
  6
BYLAYER
 10
547.8777670963
 20
427.1957330416
 11
547.3364951685
 21
442.6957330416
  0
LINE
  5
369
100
AcDbEntity
  8
0
100
AcDbLine
 62
7
  6
BYLAYER
 10
542.3515303874
 20
443.1957330416
 11
542.2906026734
 21
448.1957330416
  0
LINE
  5
36A
100
AcDbEntity
  8
0
100
AcDbLine
 62
7
  6
BYLAYER
 10
546.8364951684
 20
442.6957330416
 11
546.8364951684
 21
443.1957330416
  0
LINE
  5
36B
100
AcDbEntity
  8
0
100
AcDbLine
 62
7
  6
BYLAYER
 10
547.3341932454
 20
443.1957330416
 11
547.3341932454
 21
448.1957330416
  0
LINE
  5
36C
100
AcDbEntity
  8
0
100
AcDbLine
 62
7
  6
BYLAYER
 10
548.5074258374
 20
420.1957330416
 11
548.5074258374
 21
419.8957330416
  0
LINE
  5
36D
100
AcDbEntity
  8
0
100
AcDbLine
 62
7
  6
BYLAYER
 10
550.4991932454
 20
419.8957330416
 11
550.4991932454
 21
420.1957330416
  0
LINE
  5
36E
100
AcDbEntity
  8
0
100
AcDbLine
 62
7
  6
BYLAYER
 10
542.1603417604
 20
427.1957330416
 11
542.2034091574
 21
443.1957330416
  0
LINE
  5
36F
100
AcDbEntity
  8
0
100
AcDbLine
 62
7
  6
BYLAYER
 10
550.3820037584
 20
420.1957330416
 11
550.4991932454
 21
427.1957330416
  0
LINE
  5
370
100
AcDbEntity
  8
0
100
AcDbLine
 62
7
  6
BYLAYER
 10
553.1820037589
 20
420.1957330416
 11
553.4991932458
 21
427.1957330416
  0
ARC
  5
371
100
AcDbEntity
  8
0
100
AcDbCircle
 62
7
  6
BYLAYER
 10
427.4991932454
 20
455.1957330416
 40
2.0
100
AcDbArc
 50
0.0
 51
180.0
  0
ARC
  5
372
100
AcDbEntity
  8
0
100
AcDbCircle
 62
7
  6
BYLAYER
 10
191.4991932454
 20
455.1957330416
 40
2.0
100
AcDbArc
 50
0.0
 51
180.0
  0
ENDSEC
  0
SECTION
  2
OBJECTS
  0
DICTIONARY
  5
C
100
AcDbDictionary
280
0
281
1
  3
ACAD_GROUP
350
D
  3
ACAD_MLINESTYLE
350
17
  3
ACAD_LAYOUT
350
1A
  3
ACAD_PLOTSETTINGS
350
19
  3
ACAD_PLOTSTYLENAME
350
E
  0
DICTIONARY
  5
D
102
{ACAD_REACTORS
330
C
102
}
100
AcDbDictionary
280
0
281
1
  0
ACDBDICTIONARYWDFLT
  5
E
102
{ACAD_REACTORS
330
C
102
}
100
AcDbDictionary
281
1
  3
Normal
350
F
100
AcDbDictionaryWithDefault
340
F
  0
DICTIONARY
  5
17
102
{ACAD_REACTORS
330
C
102
}
100
AcDbDictionary
280
0
281
1
  3
Standard
350
18
  0
DICTIONARY
  5
19
102
{ACAD_REACTORS
330
C
102
}
100
AcDbDictionary
281
1
  0
DICTIONARY
  5
1A
102
{ACAD_REACTORS
330
C
102
}
100
AcDbDictionary
281
1
  3
Model
350
373
  3
Layout1
350
374
  0
ACDBPLACEHOLDER
  5
F
102
{ACAD_REACTORS
330
E
102
}
  0
MLINESTYLE
  5
18
102
{ACAD_REACTORS
330
17
102
}
100
AcDbMlineStyle
  2
STANDARD
 70
0
  3

 62
256
 51
90.0
 52
90.0
 71
2
 49
0.5
 62
256
  6
BYLAYER
 49
-0.5
 62
256
  6
BYLAYER
  0
LAYOUT
  5
373
102
{ACAD_REACTORS
330
1A
102
}
100
AcDbPlotSettings
  1

  2
none_device
  4

  6

 40
0.0
 41
0.0
 42
0.0
 43
0.0
 44
210.0
 45
297.0
 46
0.0
 47
0.0
 48
0.0
 49
0.0
140
0.0
141
0.0
142
1.0
143
1.0
 70
1024
 72
1
 73
0
 74
0
  7

 75
0
147
1.0
148
0.0
149
0.0
100
AcDbLayout
  1
Model
 70
0
 71
0
 10
0.0
 20
0.0
 11
210.0
 21
297.0
 12
0.0
 22
0.0
 32
0.0
 14
0.0
 24
0.0
 34
0.0
 15
0.0
 25
0.0
 35
0.0
146
0.0
 13
0.0
 23
0.0
 33
0.0
 16
1.0
 26
0.0
 36
0.0
 17
0.0
 27
1.0
 37
0.0
 76
0
330
210
345
0
346
0
  0
LAYOUT
  5
374
102
{ACAD_REACTORS
330
1A
102
}
100
AcDbPlotSettings
  1

  2
none_device
  4

  6

 40
0.0
 41
0.0
 42
0.0
 43
0.0
 44
210.0
 45
297.0
 46
0.0
 47
0.0
 48
0.0
 49
0.0
140
0.0
141
0.0
142
1.0
143
1.0
 70
0
 72
1
 73
0
 74
0
  7

 75
0
147
1.0
148
0.0
149
0.0
100
AcDbLayout
  1
Layout1
 70
0
 71
1
 10
0.0
 20
0.0
 11
210.0
 21
297.0
 12
0.0
 22
0.0
 32
0.0
 14
0.0
 24
0.0
 34
0.0
 15
0.0
 25
0.0
 35
0.0
146
0.0
 13
0.0
 23
0.0
 33
0.0
 16
1.0
 26
0.0
 36
0.0
 17
0.0
 27
1.0
 37
0.0
 76
0
330
211
345
0
346
0
  0
ENDSEC
  0
EOF
