999
DXF file: C:\Users\sesa63760\Dev\_Creo\CAD\MCADID0005231_3D-CAD\drw0001_2.dxf
999
Pro/ENGINEER 2019471 by Parametric Technology Corporation
  0
SECTION
  2
HEADER
  9
$ACADVER
  1
AC1024
  9
$DWGCODEPAGE
  3
ANSI_1252
  9
$EXTMAX
 10
124.5487499114
 20
176.1475177319
 30
0.0
  9
$EXTMIN
 10
0.0
 20
0.0
 30
0.0
  9
$LIMMIN
 10
0.0
 20
0.0
  9
$LIMMAX
 10
124.5487499114
 20
176.1475177319
  9
$VIEWCTR
 10
62.2743749557
 20
88.0737588659
  9
$VIEWSIZE
 40
176.1475177319
  9
$CLAYER
  8
0
  9
$LTSCALE
 40
11.4822085633
  9
$CELTYPE
  6
BYLAYER
  9
$DIMSCALE
 40
1.0
  9
$DIMASZ
 40
1.4827232132
  9
$DIMEXO
 40
1.0
  9
$DIMDLI
 40
7.9331622801
  9
$DIMEXE
 40
1.0
  9
$DIMCEN
 40
1.8789068558
  9
$DIMLFAC
 40
1.0
  9
$DIMBLK
  1
_FILLED
  9
$DIMALT
 70
0
  9
$DIMALTF
 40
0.0393700787
  9
$DIMTXT
 40
2.0758124985
  9
$DIMTOL
 70
1
  9
$DIMLIM
 70
0
  9
$DIMTFAC
 40
1.0
  9
$DIMTP
 40
0.01
  9
$DIMTM
 40
0.01
  9
$DIMGAP
 40
0.625
  9
$DIMDSEP
 70
46
  9
$AUNITS
 70
0
  9
$PDMODE
 70
3
  9
$PDSIZE
 40
0.3125
  9
$HANDSEED
  5
2BA
  9
$TILEMODE
 70
1
  9
$MEASUREMENT
 70
1
  9
$INSUNITS
 70
4
  0
ENDSEC
  0
SECTION
  2
CLASSES
  0
CLASS
  1
ACDBDICTIONARYWDFLT
  2
AcDbDictionaryWithDefault
  3
AutoCAD 2000
 90
0
 91
1
280
0
281
0
  0
CLASS
  1
ACDBPLACEHOLDER
  2
AcDbPlaceHolder
  3
AutoCAD 2000
 90
0
 91
1
280
0
281
0
  0
CLASS
  1
LAYOUT
  2
AcDbLayout
  3
AutoCAD 2000
 90
0
 91
0
280
0
281
0
  0
ENDSEC
  0
SECTION
  2
TABLES
  0
TABLE
  2
VPORT
  5
8
100
AcDbSymbolTable
 70
2
  0
VPORT
  5
1F4
100
AcDbSymbolTableRecord
100
AcDbViewportTableRecord
  2
*ACTIVE
 70
0
 10
0.0
 20
0.0
 11
1.0
 21
1.0
 12
62.2743749557
 22
88.0737588659
 13
0.0
 23
0.0
 14
1.0
 24
1.0
 15
0.0
 25
0.0
 16
0.0
 26
0.0
 36
1.0
 17
0.0
 27
0.0
 37
0.0
 40
176.1475177319
 41
0.7070707071
 42
50.0
 43
0.0
 44
0.0
 50
0.0
 51
0.0
 71
0
 72
100
 73
1
 74
1
 75
0
 76
0
 77
0
 78
0
  0
ENDTAB
  0
TABLE
  2
LTYPE
  5
5
100
AcDbSymbolTable
 70
6
  0
LTYPE
  5
14
100
AcDbSymbolTableRecord
100
AcDbLinetypeTableRecord
  2
BYBLOCK
 70
0
  3

 72
65
 73
0
 40
0.0
  0
LTYPE
  5
15
100
AcDbSymbolTableRecord
100
AcDbLinetypeTableRecord
  2
BYLAYER
 70
0
  3

 72
65
 73
0
 40
0.0
  0
LTYPE
  5
16
100
AcDbSymbolTableRecord
100
AcDbLinetypeTableRecord
  2
CONTINUOUS
 70
64
  3
Solid line
 72
65
 73
0
 40
0.0
  0
LTYPE
  5
1F5
100
AcDbSymbolTableRecord
100
AcDbLinetypeTableRecord
  2
CENTER
 70
64
  3
____ _ ____ _ ____ _ ____ _ ____ _ ____ _ ____
 72
65
 73
4
 40
0.6
 49
0.375
 74
0
 49
-0.075
 74
0
 49
0.075
 74
0
 49
-0.075
 74
0
  0
LTYPE
  5
1F6
100
AcDbSymbolTableRecord
100
AcDbLinetypeTableRecord
  2
HIDDEN
 70
64
  3
- - - - - - - - - - - - - - - - - - - -
 72
65
 73
2
 40
0.2
 49
0.1
 74
0
 49
-0.1
 74
0
  0
LTYPE
  5
1F7
100
AcDbSymbolTableRecord
100
AcDbLinetypeTableRecord
  2
PHANTOM
 70
64
  3
_____ _ _ _____ _ _ _____ _ _ _____
 72
65
 73
6
 40
0.8
 49
0.45
 74
0
 49
-0.05
 74
0
 49
0.1
 74
0
 49
-0.05
 74
0
 49
0.1
 74
0
 49
-0.05
 74
0
  0
LTYPE
  5
1F8
100
AcDbSymbolTableRecord
100
AcDbLinetypeTableRecord
  2
DOT
 70
64
  3
. . . . . . . . . . . . . . . . . . . .
 72
65
 73
2
 40
0.2
 49
0.1
 74
0
 49
-0.1
 74
0
  0
LTYPE
  5
1F9
100
AcDbSymbolTableRecord
100
AcDbLinetypeTableRecord
  2
DASHED
 70
64
  3
- - - - - - - - - - - - - - - - - - - -
 72
65
 73
2
 40
0.2
 49
0.1
 74
0
 49
-0.1
 74
0
  0
ENDTAB
  0
TABLE
  2
LAYER
  5
2
100
AcDbSymbolTable
 70
36
  0
LAYER
  5
10
100
AcDbSymbolTableRecord
100
AcDbLayerTableRecord
  2
0
 70
0
 62
7
  6
CONTINUOUS
370
-3
390
F
  0
LAYER
  5
1FA
100
AcDbSymbolTableRecord
100
AcDbLayerTableRecord
  2
DEFAULT_1
 70
0
 62
7
  6
CENTER
370
-3
390
F
  0
LAYER
  5
1FB
100
AcDbSymbolTableRecord
100
AcDbLayerTableRecord
  2
DEFAULT_2
 70
0
 62
7
  6
HIDDEN
370
-3
390
F
  0
LAYER
  5
1FC
100
AcDbSymbolTableRecord
100
AcDbLayerTableRecord
  2
DEFAULT_3
 70
0
 62
7
  6
PHANTOM
370
-3
390
F
  0
LAYER
  5
1FD
100
AcDbSymbolTableRecord
100
AcDbLayerTableRecord
  2
00_COMPONENTS
 70
0
 62
7
  6
CONTINUOUS
370
-3
390
F
  0
LAYER
  5
1FE
100
AcDbSymbolTableRecord
100
AcDbLayerTableRecord
  2
00_COMPONENTS_1
 70
0
 62
7
  6
CONTINUOUS
370
-3
390
F
  0
LAYER
  5
1FF
100
AcDbSymbolTableRecord
100
AcDbLayerTableRecord
  2
00_COMPONENTS_3
 70
0
 62
7
  6
CONTINUOUS
370
-3
390
F
  0
LAYER
  5
200
100
AcDbSymbolTableRecord
100
AcDbLayerTableRecord
  2
00_COMPONENTS_4
 70
0
 62
7
  6
CONTINUOUS
370
-3
390
F
  0
LAYER
  5
201
100
AcDbSymbolTableRecord
100
AcDbLayerTableRecord
  2
01_1_DEFAULT_DATUMS
 70
0
 62
7
  6
CONTINUOUS
370
-3
390
F
  0
LAYER
  5
202
100
AcDbSymbolTableRecord
100
AcDbLayerTableRecord
  2
01_PLANES
 70
0
 62
7
  6
CONTINUOUS
370
-3
390
F
  0
LAYER
  5
203
100
AcDbSymbolTableRecord
100
AcDbLayerTableRecord
  2
02_COORD_SYS
 70
0
 62
7
  6
CONTINUOUS
370
-3
390
F
  0
LAYER
  5
204
100
AcDbSymbolTableRecord
100
AcDbLayerTableRecord
  2
03_AXES
 70
0
 62
7
  6
CONTINUOUS
370
-3
390
F
  0
LAYER
  5
205
100
AcDbSymbolTableRecord
100
AcDbLayerTableRecord
  2
04_POINTS
 70
0
 62
7
  6
CONTINUOUS
370
-3
390
F
  0
LAYER
  5
206
100
AcDbSymbolTableRecord
100
AcDbLayerTableRecord
  2
05_CURVES
 70
0
 62
7
  6
CONTINUOUS
370
-3
390
F
  0
LAYER
  5
207
100
AcDbSymbolTableRecord
100
AcDbLayerTableRecord
  2
06_SURFS
 70
0
 62
7
  6
CONTINUOUS
370
-3
390
F
  0
LAYER
  5
208
100
AcDbSymbolTableRecord
100
AcDbLayerTableRecord
  2
07_COSMETICS
 70
0
 62
7
  6
CONTINUOUS
370
-3
390
F
  0
LAYER
  5
209
100
AcDbSymbolTableRecord
100
AcDbLayerTableRecord
  2
10_NOTES
 70
0
 62
7
  6
CONTINUOUS
370
-3
390
F
  0
LAYER
  5
20A
100
AcDbSymbolTableRecord
100
AcDbLayerTableRecord
  2
11_NOTES_PUB
 70
0
 62
7
  6
CONTINUOUS
370
-3
390
F
  0
LAYER
  5
20B
100
AcDbSymbolTableRecord
100
AcDbLayerTableRecord
  2
13_REF_GTOL
 70
0
 62
7
  6
CONTINUOUS
370
-3
390
F
  0
LAYER
  5
20C
100
AcDbSymbolTableRecord
100
AcDbLayerTableRecord
  2
16_MISC
 70
0
 62
7
  6
CONTINUOUS
370
-3
390
F
  0
LAYER
  5
20D
100
AcDbSymbolTableRecord
100
AcDbLayerTableRecord
  2
17_NO_PRINT
 70
0
 62
7
  6
CONTINUOUS
370
-3
390
F
  0
LAYER
  5
20E
100
AcDbSymbolTableRecord
100
AcDbLayerTableRecord
  2
18_DATUM_CAMS_JOINTS
 70
0
 62
7
  6
CONTINUOUS
370
-3
390
F
  0
LAYER
  5
20F
100
AcDbSymbolTableRecord
100
AcDbLayerTableRecord
  2
19_DATUM_FUNCTIONAL
 70
0
 62
7
  6
CONTINUOUS
370
-3
390
F
  0
LAYER
  5
210
100
AcDbSymbolTableRecord
100
AcDbLayerTableRecord
  2
20_DATUM_KINEMATIC_SCHEME
 70
0
 62
7
  6
CONTINUOUS
370
-3
390
F
  0
LAYER
  5
211
100
AcDbSymbolTableRecord
100
AcDbLayerTableRecord
  2
INTF_BLANK
 70
0
 62
7
  6
CONTINUOUS
370
-3
390
F
  0
LAYER
  5
212
100
AcDbSymbolTableRecord
100
AcDbLayerTableRecord
  2
SHELL1
 70
0
 62
7
  6
CONTINUOUS
370
-3
390
F
  0
LAYER
  5
213
100
AcDbSymbolTableRecord
100
AcDbLayerTableRecord
  2
SHELL508
 70
0
 62
7
  6
CONTINUOUS
370
-3
390
F
  0
LAYER
  5
214
100
AcDbSymbolTableRecord
100
AcDbLayerTableRecord
  2
SHELL509
 70
0
 62
7
  6
CONTINUOUS
370
-3
390
F
  0
LAYER
  5
215
100
AcDbSymbolTableRecord
100
AcDbLayerTableRecord
  2
_BLACK_HOLE
 70
0
 62
7
  6
CONTINUOUS
370
-3
390
F
  0
LAYER
  5
216
100
AcDbSymbolTableRecord
100
AcDbLayerTableRecord
  2
black
 70
0
 62
7
  6
CONTINUOUS
370
-3
390
F
  0
ENDTAB
  0
TABLE
  2
STYLE
  5
3
100
AcDbSymbolTable
 70
1
  0
STYLE
  5
11
100
AcDbSymbolTableRecord
100
AcDbTextStyleTableRecord
  2
STANDARD
 70
0
 40
0.0
 41
1.0
 50
0.0
 71
0
 42
0.2
  3
ARIAL.TTF
  4

  0
STYLE
  5
217
100
AcDbSymbolTableRecord
100
AcDbTextStyleTableRecord
  2
TEXTSTYLE_1
 70
0
 40
0.0
 41
0.8
 50
0.0
 71
0
 42
0.2
  3
gdt
  4

  0
ENDTAB
  0
TABLE
  2
VIEW
  5
6
100
AcDbSymbolTable
 70
0
  0
ENDTAB
  0
TABLE
  2
UCS
  5
7
100
AcDbSymbolTable
 70
0
  0
ENDTAB
  0
TABLE
  2
APPID
  5
9
100
AcDbSymbolTable
 70
1
  0
APPID
  5
218
100
AcDbSymbolTableRecord
100
AcDbRegAppTableRecord
  2
ACAD
 70
0
  0
ENDTAB
  0
TABLE
  2
BLOCK_RECORD
  5
1
100
AcDbSymbolTable
 70
0
  0
BLOCK_RECORD
  5
219
100
AcDbSymbolTableRecord
100
AcDbBlockTableRecord
  2
*Model_Space
  0
BLOCK_RECORD
  5
21A
100
AcDbSymbolTableRecord
100
AcDbBlockTableRecord
  2
*Paper_Space
  0
BLOCK_RECORD
  5
21B
100
AcDbSymbolTableRecord
100
AcDbBlockTableRecord
  2
_FILLED
  0
ENDTAB
  0
TABLE
  2
DIMSTYLE
  5
A
100
AcDbSymbolTable
 70
1
100
AcDbDimStyleTable
 71
0
  0
DIMSTYLE
105
21C
100
AcDbSymbolTableRecord
100
AcDbDimStyleTableRecord
  2
STANDARD
 70
0
  3

  4

 40
1.0
 41
1.4827232132
 42
1.0
 43
0.38
 44
1.0
 45
0.0
 46
0.0
 47
0.01
 48
0.01
140
2.0758124985
141
0.09
142
0.0
143
25.4
144
1.0
145
0.0
146
1.0
147
0.625
 71
1
 72
0
 73
0
 74
0
 75
0
 76
0
 77
1
 78
8
 79
2
170
0
171
1
172
0
173
0
174
0
175
0
176
0
177
0
178
0
270
2
179
2
271
2
272
2
273
2
274
2
275
0
280
0
281
0
282
0
283
1
284
8
285
0
286
0
287
3
288
0
340
11
278
46
341
21B
342
21B
343
21B
344
21B
  0
ENDTAB
  0
ENDSEC
  0
SECTION
  2
BLOCKS
  0
BLOCK
  5
20
100
AcDbEntity
  8
0
100
AcDbBlockBegin
  2
*Model_Space
 70
0
 10
0.0
 20
0.0
 30
0.0
  3
*Model_Space
  1

  0
ENDBLK
  5
21
100
AcDbEntity
  8
0
100
AcDbBlockEnd
  0
BLOCK
  5
1C
100
AcDbEntity
  8
0
100
AcDbBlockBegin
  2
*Paper_Space
 70
0
 10
0.0
 20
0.0
 30
0.0
  3
*Paper_Space
  1

  0
ENDBLK
  5
1D
100
AcDbEntity
  8
0
100
AcDbBlockEnd
  0
BLOCK
  5
21D
100
AcDbEntity
  8
0
100
AcDbBlockBegin
  2
_FILLED
 70
64
 10
0.0
 20
0.0
  3
_FILLED
  1

  0
SOLID
  5
21E
100
AcDbEntity
  8
0
  6
BYBLOCK
 62
0
100
AcDbTrace
 10
0.0
 20
0.0
 11
-1.0
 21
0.25
 12
-1.0
 22
-0.25
 13
-1.0
 23
-0.25
  0
ENDBLK
  5
21F
100
AcDbEntity
  8
0
  6
BYBLOCK
 62
0
100
AcDbBlockEnd
  0
ENDSEC
  0
SECTION
  2
ENTITIES
  0
LINE
  5
220
100
AcDbEntity
  8
00_COMPONENTS_1
100
AcDbLine
 62
7
  6
BYLAYER
 10
45.7123863032
 20
146.6086771564
 11
42.9983507028
 21
145.2116771564
  0
LINE
  5
221
100
AcDbEntity
  8
00_COMPONENTS
100
AcDbLine
 62
7
  6
BYLAYER
 10
57.9399863032
 20
35.7067938474
 11
67.9399863032
 21
35.7067938474
  0
LINE
  5
222
100
AcDbEntity
  8
00_COMPONENTS
100
AcDbLine
 62
7
  6
BYLAYER
 10
50.4399863033
 20
58.4971546113
 11
75.4399863032
 21
58.4971546113
  0
LINE
  5
223
100
AcDbEntity
  8
00_COMPONENTS
100
AcDbLine
 62
7
  6
BYLAYER
 10
75.4399863032
 20
61.4971546112
 11
50.4399863033
 21
61.4971546112
  0
LINE
  5
224
100
AcDbEntity
  8
00_COMPONENTS_3
100
AcDbLine
 62
7
  6
BYLAYER
 10
37.9399863032
 20
102.3089546112
 11
37.9399863032
 21
100.6878546112
  0
LINE
  5
225
100
AcDbEntity
  8
00_COMPONENTS_1
100
AcDbLine
 62
7
  6
BYLAYER
 10
37.9399863032
 20
137.4347753556
 11
37.9399863032
 21
161.9469546112
  0
LINE
  5
226
100
AcDbEntity
  8
00_COMPONENTS_3
100
AcDbLine
 62
7
  6
BYLAYER
 10
38.9399863032
 20
137.3089546112
 11
38.9399863032
 21
127.3089546112
  0
LINE
  5
227
100
AcDbEntity
  8
00_COMPONENTS_3
100
AcDbLine
 62
7
  6
BYLAYER
 10
38.9399863032
 20
104.8089546112
 11
38.9399863032
 21
102.3089546112
  0
LINE
  5
228
100
AcDbEntity
  8
00_COMPONENTS_3
100
AcDbLine
 62
7
  6
BYLAYER
 10
38.9653863032
 20
127.3089546112
 11
38.9653863032
 21
104.8089546112
  0
LINE
  5
229
100
AcDbEntity
  8
00_COMPONENTS_1
100
AcDbLine
 62
7
  6
BYLAYER
 10
39.2099863032
 20
155.5049430978
 11
39.2099863032
 21
156.8731099028
  0
LINE
  5
22A
100
AcDbEntity
  8
00_COMPONENTS_1
100
AcDbLine
 62
7
  6
BYLAYER
 10
39.4639863032
 20
161.9469546112
 11
39.4639863032
 21
163.7503546112
  0
LINE
  5
22B
100
AcDbEntity
  8
00_COMPONENTS_1
100
AcDbLine
 62
7
  6
BYLAYER
 10
41.4997248342
 20
155.6124669893
 11
41.4997248342
 21
156.2590454301
  0
LINE
  5
22C
100
AcDbEntity
  8
00_COMPONENTS
100
AcDbLine
 62
7
  6
BYLAYER
 10
47.1939862992
 20
73.4971546112
 11
46.9399862992
 21
73.7511546112
  0
LINE
  5
22D
100
AcDbEntity
  8
00_COMPONENTS_1
100
AcDbLine
 62
7
  6
BYLAYER
 10
42.9183863032
 20
161.9469546112
 11
42.9183863032
 21
163.7503546112
  0
LINE
  5
22E
100
AcDbEntity
  8
00_COMPONENTS_3
100
AcDbLine
 62
7
  6
BYLAYER
 10
43.0962363032
 20
99.1003546112
 11
43.0962363032
 21
100.6878546112
  0
LINE
  5
22F
100
AcDbEntity
  8
00_COMPONENTS
100
AcDbLine
 62
7
  6
BYLAYER
 10
43.8899863032
 20
91.2263546112
 11
43.8899863032
 21
92.7503546112
  0
LINE
  5
230
100
AcDbEntity
  8
00_COMPONENTS
100
AcDbLine
 62
7
  6
BYLAYER
 10
44.5249863032
 20
89.9563546112
 11
44.5249863032
 21
91.2263546112
  0
LINE
  5
231
100
AcDbEntity
  8
00_COMPONENTS
100
AcDbLine
 62
7
  6
BYLAYER
 10
45.4774863032
 20
83.6633293776
 11
45.4774863032
 21
89.9563546112
  0
LINE
  5
232
100
AcDbEntity
  8
00_COMPONENTS_1
100
AcDbLine
 62
7
  6
BYLAYER
 10
45.7123863032
 20
161.9469546112
 11
45.7123863032
 21
158.8905932337
  0
LINE
  5
233
100
AcDbEntity
  8
00_COMPONENTS_1
100
AcDbLine
 62
7
  6
BYLAYER
 10
45.7123863032
 20
157.9987162143
 11
45.7123863032
 21
155.8763014734
  0
LINE
  5
234
100
AcDbEntity
  8
00_COMPONENTS_1
100
AcDbLine
 62
7
  6
BYLAYER
 10
45.7123863032
 20
153.397750784
 11
45.7123863032
 21
146.6086771564
  0
LINE
  5
235
100
AcDbEntity
  8
00_COMPONENTS
100
AcDbLine
 62
7
  6
BYLAYER
 10
46.9399862992
 20
73.7511546112
 11
46.9399862992
 21
82.3643490093
  0
LINE
  5
236
100
AcDbEntity
  8
00_COMPONENTS_1
100
AcDbLine
 62
7
  6
BYLAYER
 10
80.6126811257
 20
158.812845225
 11
80.5033785
 21
158.6004964653
  0
LINE
  5
237
100
AcDbEntity
  8
00_COMPONENTS
100
AcDbLine
 62
7
  6
BYLAYER
 10
48.9399863032
 20
73.4971546112
 11
50.4399863033
 21
61.4971546112
  0
LINE
  5
238
100
AcDbEntity
  8
00_COMPONENTS_3
100
AcDbLine
 62
7
  6
BYLAYER
 10
47.9539863032
 20
92.7503546112
 11
47.9539863032
 21
99.1003546112
  0
LINE
  5
239
100
AcDbEntity
  8
00_COMPONENTS
100
AcDbLine
 62
7
  6
BYLAYER
 10
50.4399863033
 20
58.4971546113
 11
50.4399863033
 21
61.4971546112
  0
LINE
  5
23A
100
AcDbEntity
  8
00_COMPONENTS_1
100
AcDbLine
 62
7
  6
BYLAYER
 10
50.6399863032
 20
137.3089546112
 11
50.6399863032
 21
144.8578511514
  0
LINE
  5
23B
100
AcDbEntity
  8
00_COMPONENTS_1
100
AcDbLine
 62
7
  6
BYLAYER
 10
50.6399863032
 20
146.9625031614
 11
50.6399863032
 21
161.9469546112
  0
LINE
  5
23C
100
AcDbEntity
  8
00_COMPONENTS_3
100
AcDbLine
 62
7
  6
BYLAYER
 10
52.9399863032
 20
127.3089546112
 11
52.9399863032
 21
132.3089546112
  0
LINE
  5
23D
100
AcDbEntity
  8
00_COMPONENTS_1
100
AcDbLine
 62
7
  6
BYLAYER
 10
80.6650444579
 20
159.1531521679
 11
80.5611863032
 21
158.8905932337
  0
LINE
  5
23E
100
AcDbEntity
  8
00_COMPONENTS_1
100
AcDbLine
 62
7
  6
BYLAYER
 10
85.2923639392
 20
156.8731099028
 11
86.0287389075
 21
158.3037096733
  0
LINE
  5
23F
100
AcDbEntity
  8
00_COMPONENTS
100
AcDbLine
 62
7
  6
BYLAYER
 10
47.1939862992
 20
73.4971546112
 11
78.6859863072
 21
73.4971546112
  0
LINE
  5
240
100
AcDbEntity
  8
00_COMPONENTS
100
AcDbLine
 62
7
  6
BYLAYER
 10
46.9399862992
 20
73.7511546112
 11
78.9399863072
 21
73.7511546112
  0
LINE
  5
241
100
AcDbEntity
  8
00_COMPONENTS
100
AcDbLine
 62
7
  6
BYLAYER
 10
46.5462862992
 20
83.0462574122
 11
45.4774863032
 21
83.6633293776
  0
LINE
  5
242
100
AcDbEntity
  8
00_COMPONENTS_1
100
AcDbLine
 62
7
  6
BYLAYER
 10
53.1799863032
 20
137.3089546112
 11
53.1799863032
 21
161.9469546112
  0
LINE
  5
243
100
AcDbEntity
  8
00_COMPONENTS_1
100
AcDbLine
 62
7
  6
BYLAYER
 10
53.2053863032
 20
161.9469546112
 11
53.2053863032
 21
137.3089546112
  0
LINE
  5
244
100
AcDbEntity
  8
00_COMPONENTS
100
AcDbLine
 62
7
  6
BYLAYER
 10
55.7067819703
 20
89.9563546112
 11
55.7067819703
 21
84.494005817
  0
LINE
  5
245
100
AcDbEntity
  8
00_COMPONENTS
100
AcDbLine
 62
7
  6
BYLAYER
 10
57.9399863032
 20
35.7067938474
 11
57.9399863032
 21
58.4971546113
  0
LINE
  5
246
100
AcDbEntity
  8
00_COMPONENTS
100
AcDbLine
 62
7
  6
BYLAYER
 10
78.9399863072
 20
82.3643490093
 11
46.9399862992
 21
82.3643490093
  0
LINE
  5
247
100
AcDbEntity
  8
00_COMPONENTS
100
AcDbLine
 62
7
  6
BYLAYER
 10
46.5462862992
 20
83.0462574122
 11
79.3336863072
 21
83.0462574122
  0
LINE
  5
248
100
AcDbEntity
  8
00_COMPONENTS_1
100
AcDbLine
 62
7
  6
BYLAYER
 10
59.8220863032
 20
137.3089546112
 11
59.8220863032
 21
161.9469546112
  0
LINE
  5
249
100
AcDbEntity
  8
00_COMPONENTS_1
100
AcDbLine
 62
7
  6
BYLAYER
 10
59.8347863032
 20
137.3089546112
 11
59.8347863032
 21
161.9469546112
  0
LINE
  5
24A
100
AcDbEntity
  8
00_COMPONENTS
100
AcDbLine
 62
7
  6
BYLAYER
 10
67.9399863032
 20
58.4971546113
 11
67.9399863032
 21
35.7067938474
  0
LINE
  5
24B
100
AcDbEntity
  8
00_COMPONENTS
100
AcDbLine
 62
7
  6
BYLAYER
 10
44.5249863032
 20
89.9563546112
 11
81.3549863032
 21
89.9563546112
  0
LINE
  5
24C
100
AcDbEntity
  8
00_COMPONENTS
100
AcDbLine
 62
7
  6
BYLAYER
 10
43.8899863032
 20
91.2263546112
 11
81.9899863032
 21
91.2263546112
  0
LINE
  5
24D
100
AcDbEntity
  8
00_COMPONENTS
100
AcDbLine
 62
7
  6
BYLAYER
 10
81.9899863032
 20
92.7503546112
 11
43.8899863032
 21
92.7503546112
  0
LINE
  5
24E
100
AcDbEntity
  8
00_COMPONENTS
100
AcDbLine
 62
7
  6
BYLAYER
 10
70.1731906362
 20
89.9563546112
 11
70.1731906362
 21
84.494005817
  0
LINE
  5
24F
100
AcDbEntity
  8
00_COMPONENTS_3
100
AcDbLine
 62
7
  6
BYLAYER
 10
72.9399863032
 20
132.3089546112
 11
72.9399863032
 21
127.3089546112
  0
LINE
  5
250
100
AcDbEntity
  8
00_COMPONENTS_1
100
AcDbLine
 62
7
  6
BYLAYER
 10
73.0681863032
 20
137.3089546112
 11
73.0681863032
 21
161.9469546112
  0
LINE
  5
251
100
AcDbEntity
  8
00_COMPONENTS_1
100
AcDbLine
 62
7
  6
BYLAYER
 10
73.0935863032
 20
137.3089546112
 11
73.0935863032
 21
161.9469546112
  0
LINE
  5
252
100
AcDbEntity
  8
00_COMPONENTS_3
100
AcDbLine
 62
7
  6
BYLAYER
 10
43.0962363032
 20
99.1003546112
 11
82.7837363032
 21
99.1003546112
  0
LINE
  5
253
100
AcDbEntity
  8
00_COMPONENTS_1
100
AcDbLine
 62
7
  6
BYLAYER
 10
45.7123863032
 20
158.8905932337
 11
45.6085281485
 21
159.1531521679
  0
LINE
  5
254
100
AcDbEntity
  8
00_COMPONENTS
100
AcDbLine
 62
7
  6
BYLAYER
 10
75.4399863032
 20
61.4971546112
 11
75.4399863032
 21
58.4971546113
  0
LINE
  5
255
100
AcDbEntity
  8
00_COMPONENTS_1
100
AcDbLine
 62
7
  6
BYLAYER
 10
75.6335863032
 20
161.9469546112
 11
75.6335863032
 21
146.9625031614
  0
LINE
  5
256
100
AcDbEntity
  8
00_COMPONENTS_1
100
AcDbLine
 62
7
  6
BYLAYER
 10
75.6335863032
 20
144.8578511514
 11
75.6335863032
 21
137.3089546112
  0
LINE
  5
257
100
AcDbEntity
  8
00_COMPONENTS_3
100
AcDbLine
 62
7
  6
BYLAYER
 10
77.9259863032
 20
99.1003546112
 11
77.9259863032
 21
92.7503546112
  0
LINE
  5
258
100
AcDbEntity
  8
00_COMPONENTS
100
AcDbLine
 62
7
  6
BYLAYER
 10
78.9399863072
 20
82.3643490093
 11
78.9399863072
 21
73.7511546112
  0
LINE
  5
259
100
AcDbEntity
  8
00_COMPONENTS
100
AcDbLine
 62
7
  6
BYLAYER
 10
75.4399863032
 20
61.4971546112
 11
76.9399863032
 21
73.4971546112
  0
LINE
  5
25A
100
AcDbEntity
  8
00_COMPONENTS
100
AcDbLine
 62
7
  6
BYLAYER
 10
80.4024863032
 20
83.6633293776
 11
79.3336863072
 21
83.0462574122
  0
LINE
  5
25B
100
AcDbEntity
  8
00_COMPONENTS_3
100
AcDbLine
 62
7
  6
BYLAYER
 10
37.9399863032
 20
100.6878546112
 11
87.9399863032
 21
100.6878546112
  0
LINE
  5
25C
100
AcDbEntity
  8
00_COMPONENTS_3
100
AcDbLine
 62
7
  6
BYLAYER
 10
87.9399863032
 20
102.3089546112
 11
37.9399863032
 21
102.3089546112
  0
LINE
  5
25D
100
AcDbEntity
  8
00_COMPONENTS_1
100
AcDbLine
 62
7
  6
BYLAYER
 10
40.244833699
 20
158.3037096733
 11
40.9812086673
 21
156.8731099028
  0
LINE
  5
25E
100
AcDbEntity
  8
00_COMPONENTS
100
AcDbLine
 62
7
  6
BYLAYER
 10
80.4024863032
 20
89.9563546112
 11
80.4024863032
 21
83.6633293776
  0
LINE
  5
25F
100
AcDbEntity
  8
00_COMPONENTS_1
100
AcDbLine
 62
7
  6
BYLAYER
 10
80.5611863032
 20
146.6086771564
 11
80.5611863032
 21
153.397750784
  0
LINE
  5
260
100
AcDbEntity
  8
00_COMPONENTS_1
100
AcDbLine
 62
7
  6
BYLAYER
 10
80.5611863032
 20
155.8763014734
 11
80.5611863032
 21
157.9987162143
  0
LINE
  5
261
100
AcDbEntity
  8
00_COMPONENTS_1
100
AcDbLine
 62
7
  6
BYLAYER
 10
80.5611863032
 20
158.8905932337
 11
80.5611863032
 21
161.9469546112
  0
LINE
  5
262
100
AcDbEntity
  8
00_COMPONENTS
100
AcDbLine
 62
7
  6
BYLAYER
 10
81.3549863032
 20
91.2263546112
 11
81.3549863032
 21
89.9563546112
  0
LINE
  5
263
100
AcDbEntity
  8
00_COMPONENTS
100
AcDbLine
 62
7
  6
BYLAYER
 10
81.9899863032
 20
92.7503546112
 11
81.9899863032
 21
91.2263546112
  0
LINE
  5
264
100
AcDbEntity
  8
00_COMPONENTS_3
100
AcDbLine
 62
7
  6
BYLAYER
 10
82.7837363032
 20
100.6878546112
 11
82.7837363032
 21
99.1003546112
  0
LINE
  5
265
100
AcDbEntity
  8
00_COMPONENTS_1
100
AcDbLine
 62
7
  6
BYLAYER
 10
83.3551863032
 20
161.9469546112
 11
83.3551863032
 21
163.7503546112
  0
LINE
  5
266
100
AcDbEntity
  8
00_COMPONENTS
100
AcDbLine
 62
7
  6
BYLAYER
 10
78.9399863072
 20
73.7511546112
 11
78.6859863072
 21
73.4971546112
  0
LINE
  5
267
100
AcDbEntity
  8
00_COMPONENTS_3
100
AcDbLine
 62
7
  6
BYLAYER
 10
86.9399863032
 20
104.8089546112
 11
38.9399863032
 21
104.8089546112
  0
LINE
  5
268
100
AcDbEntity
  8
00_COMPONENTS_1
100
AcDbLine
 62
7
  6
BYLAYER
 10
45.7701941065
 20
158.6004964653
 11
45.6608914808
 21
158.812845225
  0
LINE
  5
269
100
AcDbEntity
  8
00_COMPONENTS_1
100
AcDbLine
 62
7
  6
BYLAYER
 10
86.8095863032
 20
161.9469546112
 11
86.8095863032
 21
163.7503546112
  0
LINE
  5
26A
100
AcDbEntity
  8
00_COMPONENTS_3
100
AcDbLine
 62
7
  6
BYLAYER
 10
86.9145863032
 20
104.8089546112
 11
86.9145863032
 21
127.3089546112
  0
LINE
  5
26B
100
AcDbEntity
  8
00_COMPONENTS_3
100
AcDbLine
 62
7
  6
BYLAYER
 10
86.9399863032
 20
102.3089546112
 11
86.9399863032
 21
104.8089546112
  0
LINE
  5
26C
100
AcDbEntity
  8
00_COMPONENTS_3
100
AcDbLine
 62
7
  6
BYLAYER
 10
86.9399863032
 20
127.3089546112
 11
86.9399863032
 21
137.3089546112
  0
LINE
  5
26D
100
AcDbEntity
  8
00_COMPONENTS_1
100
AcDbLine
 62
7
  6
BYLAYER
 10
87.0635863032
 20
156.8731099028
 11
87.0635863032
 21
155.5049430978
  0
LINE
  5
26E
100
AcDbEntity
  8
00_COMPONENTS_3
100
AcDbLine
 62
7
  6
BYLAYER
 10
87.9399863032
 20
100.6878546112
 11
87.9399863032
 21
102.3089546112
  0
LINE
  5
26F
100
AcDbEntity
  8
00_COMPONENTS_1
100
AcDbLine
 62
7
  6
BYLAYER
 10
88.3335863032
 20
137.4347753556
 11
88.3335863032
 21
161.9469546112
  0
LINE
  5
270
100
AcDbEntity
  8
00_COMPONENTS_3
100
AcDbLine
 62
7
  6
BYLAYER
 10
38.9399863032
 20
127.3089546112
 11
52.9399863032
 21
127.3089546112
  0
LINE
  5
271
100
AcDbEntity
  8
00_COMPONENTS_3
100
AcDbLine
 62
7
  6
BYLAYER
 10
72.9399863032
 20
127.3089546112
 11
86.9399863032
 21
127.3089546112
  0
LINE
  5
272
100
AcDbEntity
  8
00_COMPONENTS_3
100
AcDbLine
 62
7
  6
BYLAYER
 10
52.9399863032
 20
132.3089546112
 11
72.9399863032
 21
132.3089546112
  0
LINE
  5
273
100
AcDbEntity
  8
00_COMPONENTS_1
100
AcDbLine
 62
7
  6
BYLAYER
 10
75.6335863032
 20
137.3089546112
 11
73.0935863032
 21
137.3089546112
  0
LINE
  5
274
100
AcDbEntity
  8
00_COMPONENTS_3
100
AcDbLine
 62
7
  6
BYLAYER
 10
86.9399863032
 20
137.3089546112
 11
38.9399863032
 21
137.3089546112
  0
LINE
  5
275
100
AcDbEntity
  8
00_COMPONENTS_1
100
AcDbLine
 62
7
  6
BYLAYER
 10
50.6399863032
 20
137.3089546112
 11
53.1799863032
 21
137.3089546112
  0
LINE
  5
276
100
AcDbEntity
  8
00_COMPONENTS_1
100
AcDbLine
 62
7
  6
BYLAYER
 10
53.2053863032
 20
137.3089546112
 11
59.8220863032
 21
137.3089546112
  0
LINE
  5
277
100
AcDbEntity
  8
00_COMPONENTS_1
100
AcDbLine
 62
7
  6
BYLAYER
 10
59.8347863032
 20
137.3089546112
 11
73.0681863032
 21
137.3089546112
  0
LINE
  5
278
100
AcDbEntity
  8
00_COMPONENTS_1
100
AcDbLine
 62
7
  6
BYLAYER
 10
53.1799863032
 20
137.3343546112
 11
53.2053863032
 21
137.3343546112
  0
LINE
  5
279
100
AcDbEntity
  8
00_COMPONENTS_1
100
AcDbLine
 62
7
  6
BYLAYER
 10
73.0681863032
 20
137.3343546112
 11
73.0935863032
 21
137.3343546112
  0
LINE
  5
27A
100
AcDbEntity
  8
00_COMPONENTS_1
100
AcDbLine
 62
7
  6
BYLAYER
 10
50.6399863032
 20
137.4347753556
 11
37.9399863032
 21
137.4347753556
  0
LINE
  5
27B
100
AcDbEntity
  8
00_COMPONENTS_1
100
AcDbLine
 62
7
  6
BYLAYER
 10
75.6335863032
 20
137.4347753556
 11
88.3335863032
 21
137.4347753556
  0
LINE
  5
27C
100
AcDbEntity
  8
00_COMPONENTS_1
100
AcDbLine
 62
7
  6
BYLAYER
 10
75.6335863032
 20
144.8578511514
 11
73.0935863032
 21
144.8578511514
  0
LINE
  5
27D
100
AcDbEntity
  8
00_COMPONENTS_1
100
AcDbLine
 62
7
  6
BYLAYER
 10
53.1799863032
 20
144.8578511514
 11
50.6399863032
 21
144.8578511514
  0
LINE
  5
27E
100
AcDbEntity
  8
00_COMPONENTS_1
100
AcDbLine
 62
7
  6
BYLAYER
 10
53.1799863032
 20
145.2116771564
 11
42.9983507028
 21
145.2116771564
  0
LINE
  5
27F
100
AcDbEntity
  8
00_COMPONENTS_1
100
AcDbLine
 62
7
  6
BYLAYER
 10
73.0935863032
 20
145.2116771564
 11
83.2752219037
 21
145.2116771564
  0
LINE
  5
280
100
AcDbEntity
  8
00_COMPONENTS_1
100
AcDbLine
 62
7
  6
BYLAYER
 10
53.1799863032
 20
146.6086771564
 11
45.7123863032
 21
146.6086771564
  0
LINE
  5
281
100
AcDbEntity
  8
00_COMPONENTS_1
100
AcDbLine
 62
7
  6
BYLAYER
 10
73.0935863032
 20
146.6086771564
 11
80.5611863032
 21
146.6086771564
  0
LINE
  5
282
100
AcDbEntity
  8
00_COMPONENTS_1
100
AcDbLine
 62
7
  6
BYLAYER
 10
50.6399863032
 20
146.9625031614
 11
53.1799863032
 21
146.9625031614
  0
LINE
  5
283
100
AcDbEntity
  8
00_COMPONENTS_1
100
AcDbLine
 62
7
  6
BYLAYER
 10
73.0935863032
 20
146.9625031614
 11
75.6335863032
 21
146.9625031614
  0
LINE
  5
284
100
AcDbEntity
  8
00_COMPONENTS_1
100
AcDbLine
 62
7
  6
BYLAYER
 10
41.7980852428
 20
155.3076797771
 11
40.9917248342
 21
155.6368750354
  0
LINE
  5
285
100
AcDbEntity
  8
00_COMPONENTS_1
100
AcDbLine
 62
7
  6
BYLAYER
 10
41.4997248342
 20
155.6124669893
 11
42.1525213099
 21
155.3459639441
  0
LINE
  5
286
100
AcDbEntity
  8
00_COMPONENTS_1
100
AcDbLine
 62
7
  6
BYLAYER
 10
41.4997248342
 20
156.2590454301
 11
43.2074976029
 21
155.5618501167
  0
LINE
  5
287
100
AcDbEntity
  8
00_COMPONENTS_1
100
AcDbLine
 62
7
  6
BYLAYER
 10
42.9983507028
 20
145.2116771564
 11
37.9399863032
 21
143.9098270509
  0
LINE
  5
288
100
AcDbEntity
  8
00_COMPONENTS_1
100
AcDbLine
 62
7
  6
BYLAYER
 10
88.3335863032
 20
143.9098270508
 11
83.2752219037
 21
145.2116771564
  0
LINE
  5
289
100
AcDbEntity
  8
00_COMPONENTS_1
100
AcDbLine
 62
7
  6
BYLAYER
 10
83.2752219037
 20
145.2116771564
 11
80.5611863032
 21
146.6086771564
  0
LINE
  5
28A
100
AcDbEntity
  8
00_COMPONENTS_1
100
AcDbLine
 62
7
  6
BYLAYER
 10
37.9399863032
 20
151.3974006784
 11
45.7123863032
 21
153.397750784
  0
LINE
  5
28B
100
AcDbEntity
  8
00_COMPONENTS_1
100
AcDbLine
 62
7
  6
BYLAYER
 10
50.6399863032
 20
153.397750784
 11
45.7123863032
 21
153.397750784
  0
LINE
  5
28C
100
AcDbEntity
  8
00_COMPONENTS_1
100
AcDbLine
 62
7
  6
BYLAYER
 10
75.6335863032
 20
153.397750784
 11
80.5611863032
 21
153.397750784
  0
LINE
  5
28D
100
AcDbEntity
  8
00_COMPONENTS_1
100
AcDbLine
 62
7
  6
BYLAYER
 10
50.6399863032
 20
155.8763014734
 11
45.7123863032
 21
155.8763014734
  0
LINE
  5
28E
100
AcDbEntity
  8
00_COMPONENTS_1
100
AcDbLine
 62
7
  6
BYLAYER
 10
75.6335863032
 20
155.8763014734
 11
80.5611863032
 21
155.8763014734
  0
LINE
  5
28F
100
AcDbEntity
  8
00_COMPONENTS_1
100
AcDbLine
 62
7
  6
BYLAYER
 10
39.2099863032
 20
156.8731099028
 11
40.9812086673
 21
156.8731099028
  0
LINE
  5
290
100
AcDbEntity
  8
00_COMPONENTS_1
100
AcDbLine
 62
7
  6
BYLAYER
 10
85.2923639392
 20
156.8731099028
 11
87.0635863032
 21
156.8731099028
  0
LINE
  5
291
100
AcDbEntity
  8
00_COMPONENTS_1
100
AcDbLine
 62
7
  6
BYLAYER
 10
88.3335863032
 20
151.3974006784
 11
80.5611863032
 21
153.397750784
  0
LINE
  5
292
100
AcDbEntity
  8
00_COMPONENTS_1
100
AcDbLine
 62
7
  6
BYLAYER
 10
45.7123863032
 20
155.8763014734
 11
37.9399863032
 21
153.8759513678
  0
LINE
  5
293
100
AcDbEntity
  8
00_COMPONENTS_1
100
AcDbLine
 62
7
  6
BYLAYER
 10
40.244833699
 20
155.7712774472
 11
37.9399863032
 21
155.1780885054
  0
LINE
  5
294
100
AcDbEntity
  8
00_COMPONENTS_1
100
AcDbLine
 62
7
  6
BYLAYER
 10
37.9399863032
 20
157.7105207315
 11
40.244833699
 21
158.3037096733
  0
LINE
  5
295
100
AcDbEntity
  8
00_COMPONENTS_1
100
AcDbLine
 62
7
  6
BYLAYER
 10
73.0935863032
 20
161.9215546112
 11
73.0681863032
 21
161.9215546112
  0
LINE
  5
296
100
AcDbEntity
  8
00_COMPONENTS_1
100
AcDbLine
 62
7
  6
BYLAYER
 10
53.2053863032
 20
161.9215546112
 11
53.1799863032
 21
161.9215546112
  0
LINE
  5
297
100
AcDbEntity
  8
00_COMPONENTS_1
100
AcDbLine
 62
7
  6
BYLAYER
 10
37.9399863032
 20
161.9469546112
 11
59.8220863032
 21
161.9469546112
  0
LINE
  5
298
100
AcDbEntity
  8
00_COMPONENTS_1
100
AcDbLine
 62
7
  6
BYLAYER
 10
59.8347863032
 20
161.9469546112
 11
88.3335863032
 21
161.9469546112
  0
LINE
  5
299
100
AcDbEntity
  8
00_COMPONENTS_1
100
AcDbLine
 62
7
  6
BYLAYER
 10
86.8095863032
 20
163.7503546112
 11
83.3551863032
 21
163.7503546112
  0
LINE
  5
29A
100
AcDbEntity
  8
00_COMPONENTS_1
100
AcDbLine
 62
7
  6
BYLAYER
 10
42.9183863032
 20
163.7503546112
 11
39.4639863032
 21
163.7503546112
  0
LINE
  5
29B
100
AcDbEntity
  8
00_COMPONENTS_1
100
AcDbLine
 62
7
  6
BYLAYER
 10
88.3335863032
 20
153.8759513678
 11
80.5611863032
 21
155.8763014734
  0
LINE
  5
29C
100
AcDbEntity
  8
00_COMPONENTS_1
100
AcDbLine
 62
7
  6
BYLAYER
 10
88.3335863032
 20
155.1780885054
 11
86.0287389075
 21
155.7712774472
  0
LINE
  5
29D
100
AcDbEntity
  8
00_COMPONENTS_1
100
AcDbLine
 62
7
  6
BYLAYER
 10
86.0287389075
 20
158.3037096733
 11
88.3335863032
 21
157.7105207315
  0
ARC
  5
29E
100
AcDbEntity
  8
00_COMPONENTS
100
AcDbCircle
 62
7
  6
BYLAYER
 10
62.9399863032
 20
24.25035461
 40
12.5
100
AcDbArc
 50
113.5781784782
 51
66.4218215218
  0
ARC
  5
29F
100
AcDbEntity
  8
00_COMPONENTS_1
100
AcDbCircle
 62
7
  6
BYLAYER
 10
42.7954926825
 20
153.9858174363
 40
2.079664176
100
AcDbArc
 50
128.5403706278
 51
133.7507702358
  0
ARC
  5
2A0
100
AcDbEntity
  8
00_COMPONENTS
100
AcDbCircle
 62
7
  6
BYLAYER
 10
79.7273863072
 20
82.3643490093
 40
0.7874
100
AcDbArc
 50
120.0
 51
180.0
  0
ARC
  5
2A1
100
AcDbEntity
  8
00_COMPONENTS
100
AcDbCircle
 62
7
  6
BYLAYER
 10
46.1525862992
 20
82.3643490093
 40
0.7874
100
AcDbArc
 50
0.0
 51
60.0
  0
SPLINE
  5
2A2
100
AcDbEntity
  8
00_COMPONENTS_1
100
AcDbSpline
 62
7
  6
BYLAYER
 70
0
 71
3
 72
10
 73
6
 74
0
 42
0.0000001
 43
0.0000001
 44
0.0000000001
 40
0.0
 40
0.0
 40
0.0
 40
0.0
 40
0.4779224232
 40
0.7360717239
 40
1.0
 40
1.0
 40
1.0
 40
1.0
 10
41.4997248342
 20
156.2590454301
 30
0.0
 10
41.7519268122
 20
156.460353233
 30
0.0
 10
42.2104151953
 20
156.6869298247
 30
0.0
 10
42.8693957334
 20
156.8378227714
 30
0.0
 10
43.2227821409
 20
156.8641296467
 30
0.0
 10
43.4009863032
 20
156.8641296467
 30
0.0
  0
SPLINE
  5
2A3
100
AcDbEntity
  8
00_COMPONENTS_1
100
AcDbSpline
 62
7
  6
BYLAYER
 70
0
 71
3
 72
9
 73
5
 74
0
 42
0.0000001
 43
0.0000001
 44
0.0000000001
 40
0.0
 40
0.0
 40
0.0
 40
0.0
 40
0.2573487613
 40
1.0
 40
1.0
 40
1.0
 40
1.0
 10
43.4009863032
 20
156.8641296467
 30
0.0
 10
43.5250420694
 20
156.8641296467
 30
0.0
 10
44.0064788838
 20
156.839275339
 30
0.0
 10
44.4851051355
 20
156.7154169025
 30
0.0
 10
44.80899406
 20
156.5629110014
 30
0.0
  0
SPLINE
  5
2A4
100
AcDbEntity
  8
00_COMPONENTS_1
100
AcDbSpline
 62
7
  6
BYLAYER
 70
0
 71
3
 72
9
 73
5
 74
0
 42
0.0000001
 43
0.0000001
 44
0.0000000001
 40
0.0
 40
0.0
 40
0.0
 40
0.0
 40
0.2477717144
 40
1.0
 40
1.0
 40
1.0
 40
1.0
 10
40.9135507998
 20
155.431473351
 30
0.0
 10
40.9186449481
 20
155.4489061717
 30
0.0
 10
40.9406172959
 20
155.5188457824
 30
0.0
 10
40.9681820743
 20
155.5870148015
 30
0.0
 10
40.9917248342
 20
155.6368750354
 30
0.0
  0
SPLINE
  5
2A5
100
AcDbEntity
  8
00_COMPONENTS_1
100
AcDbSpline
 62
7
  6
BYLAYER
 70
0
 71
3
 72
13
 73
9
 74
0
 42
0.0000001
 43
0.0000001
 44
0.0000000001
 40
0.0
 40
0.0
 40
0.0
 40
0.0
 40
0.2659883478
 40
0.4000212187
 40
0.5317123818
 40
0.6590447555
 40
0.7803329525
 40
1.0
 40
1.0
 40
1.0
 40
1.0
 10
42.7517893988
 20
155.410693473
 30
0.0
 10
43.1036898421
 20
155.5012606194
 30
0.0
 10
43.6185721722
 20
155.7028423544
 30
0.0
 10
44.2419912172
 20
156.0775651917
 30
0.0
 10
44.6683694628
 20
156.4060433091
 30
0.0
 10
45.0395325424
 20
156.7719798853
 30
0.0
 10
45.4327549945
 20
157.2772932305
 30
0.0
 10
45.6398878977
 20
157.7075170517
 30
0.0
 10
45.7123863032
 20
157.9987162143
 30
0.0
  0
SPLINE
  5
2A6
100
AcDbEntity
  8
00_COMPONENTS_1
100
AcDbSpline
 62
7
  6
BYLAYER
 70
0
 71
3
 72
11
 73
7
 74
0
 42
0.0000001
 43
0.0000001
 44
0.0000000001
 40
0.0
 40
0.0
 40
0.0
 40
0.0
 40
0.2158638926
 40
0.4543697446
 40
0.7170239112
 40
1.0
 40
1.0
 40
1.0
 40
1.0
 10
40.244833699
 20
155.7712774472
 30
0.0
 10
40.3876222637
 20
155.6479487216
 30
0.0
 10
40.7359619185
 20
155.4414597601
 30
0.0
 10
41.3491186966
 20
155.2844707025
 30
0.0
 10
42.0391806292
 20
155.2683599916
 30
0.0
 10
42.5122599176
 20
155.3490467715
 30
0.0
 10
42.7517893988
 20
155.410693473
 30
0.0
  0
SPLINE
  5
2A7
100
AcDbEntity
  8
00_COMPONENTS_1
100
AcDbSpline
 62
7
  6
BYLAYER
 70
0
 71
3
 72
14
 73
10
 74
0
 42
0.0000001
 43
0.0000001
 44
0.0000000001
 40
0.0
 40
0.0
 40
0.0
 40
0.0
 40
0.1041780387
 40
0.211354019
 40
0.3241053906
 40
0.4441074141
 40
0.5721406982
 40
0.7081228727
 40
1.0
 40
1.0
 40
1.0
 40
1.0
 10
45.6086187286
 20
159.1531987862
 30
0.0
 10
45.5579413435
 20
159.2516823665
 30
0.0
 10
45.4309405418
 20
159.4399730691
 30
0.0
 10
45.1763611687
 20
159.6761034017
 30
0.0
 10
44.8640189976
 20
159.862621793
 30
0.0
 10
44.5022014459
 20
159.9956122248
 30
0.0
 10
44.0996168503
 20
160.0727723332
 30
0.0
 10
43.5078035303
 20
160.100159698
 30
0.0
 10
43.0523070115
 20
160.0320460323
 30
0.0
 10
42.7517893988
 20
159.9547030703
 30
0.0
  0
SPLINE
  5
2A8
100
AcDbEntity
  8
00_COMPONENTS_1
100
AcDbSpline
 62
7
  6
BYLAYER
 70
0
 71
3
 72
11
 73
7
 74
0
 42
0.0000001
 43
0.0000001
 44
0.0000000001
 40
0.0
 40
0.0
 40
0.0
 40
0.0
 40
0.2538815877
 40
0.510686144
 40
0.7619495882
 40
1.0
 40
1.0
 40
1.0
 40
1.0
 10
42.7517893988
 20
159.9547030703
 30
0.0
 10
42.5013896988
 20
159.8902587459
 30
0.0
 10
42.008198655
 20
159.71642247
 30
0.0
 10
41.3244640002
 20
159.3426765767
 30
0.0
 10
40.7227723029
 20
158.8731505164
 30
0.0
 10
40.3871945837
 20
158.4999466569
 30
0.0
 10
40.244833699
 20
158.3037096733
 30
0.0
  0
SPLINE
  5
2A9
100
AcDbEntity
  8
00_COMPONENTS_1
100
AcDbSpline
 62
7
  6
BYLAYER
 70
0
 71
3
 72
13
 73
9
 74
0
 42
0.0000001
 43
0.0000001
 44
0.0000000001
 40
0.0
 40
0.0
 40
0.0
 40
0.0
 40
0.2807582328
 40
0.5459521906
 40
0.6694868764
 40
0.7859469383
 40
0.8956906808
 40
1.0
 40
1.0
 40
1.0
 40
1.0
 10
82.8725863032
 20
156.8641296467
 30
0.0
 10
83.1588418725
 20
156.8641296467
 30
0.0
 10
83.7176630871
 20
156.7981197809
 30
0.0
 10
84.3631364868
 20
156.5489763594
 30
0.0
 10
84.7909790555
 20
156.2585628934
 30
0.0
 10
85.0496247324
 20
156.0102455891
 30
0.0
 10
85.245438255
 20
155.7333402692
 30
0.0
 10
85.3314109872
 20
155.5303623871
 30
0.0
 10
85.3609802311
 20
155.4282039312
 30
0.0
  0
SPLINE
  5
2AA
100
AcDbEntity
  8
00_COMPONENTS_1
100
AcDbSpline
 62
7
  6
BYLAYER
 70
0
 71
3
 72
9
 73
5
 74
0
 42
0.0000001
 43
0.0000001
 44
0.0000000001
 40
0.0
 40
0.0
 40
0.0
 40
0.0
 40
0.24161918
 40
1.0
 40
1.0
 40
1.0
 40
1.0
 10
81.4646005389
 20
156.5629299934
 30
0.0
 10
81.569993719
 20
156.6125590909
 30
0.0
 10
82.0187673171
 20
156.7907282249
 30
0.0
 10
82.5069425356
 20
156.8641296467
 30
0.0
 10
82.8725863032
 20
156.8641296467
 30
0.0
  0
SPLINE
  5
2AB
100
AcDbEntity
  8
00_COMPONENTS_1
100
AcDbSpline
 62
7
  6
BYLAYER
 70
0
 71
3
 72
13
 73
9
 74
0
 42
0.0000001
 43
0.0000001
 44
0.0000000001
 40
0.0
 40
0.0
 40
0.0
 40
0.0
 40
0.2196670475
 40
0.3409552445
 40
0.4682876182
 40
0.5999787813
 40
0.7340116522
 40
1.0
 40
1.0
 40
1.0
 40
1.0
 10
80.5611863032
 20
157.9987162143
 30
0.0
 10
80.6336847088
 20
157.7075170517
 30
0.0
 10
80.840817612
 20
157.2772932305
 30
0.0
 10
81.2340400641
 20
156.7719798853
 30
0.0
 10
81.6052031437
 20
156.4060433091
 30
0.0
 10
82.0315813892
 20
156.0775651917
 30
0.0
 10
82.6550004343
 20
155.7028423544
 30
0.0
 10
83.1698827644
 20
155.5012606194
 30
0.0
 10
83.5217832077
 20
155.410693473
 30
0.0
  0
SPLINE
  5
2AC
100
AcDbEntity
  8
00_COMPONENTS_1
100
AcDbSpline
 62
7
  6
BYLAYER
 70
0
 71
3
 72
11
 73
7
 74
0
 42
0.0000001
 43
0.0000001
 44
0.0000000001
 40
0.0
 40
0.0
 40
0.0
 40
0.0
 40
0.2829760888
 40
0.5456302554
 40
0.7841361074
 40
1.0
 40
1.0
 40
1.0
 40
1.0
 10
83.5217832077
 20
155.410693473
 30
0.0
 10
83.7613126889
 20
155.3490467715
 30
0.0
 10
84.2343919772
 20
155.2683599916
 30
0.0
 10
84.9244539099
 20
155.2844707025
 30
0.0
 10
85.537610688
 20
155.4414597601
 30
0.0
 10
85.8859503428
 20
155.6479487216
 30
0.0
 10
86.0287389075
 20
155.7712774472
 30
0.0
  0
SPLINE
  5
2AD
100
AcDbEntity
  8
00_COMPONENTS_1
100
AcDbSpline
 62
7
  6
BYLAYER
 70
0
 71
3
 72
14
 73
10
 74
0
 42
0.0000001
 43
0.0000001
 44
0.0000000001
 40
0.0
 40
0.0
 40
0.0
 40
0.0
 40
0.2918771273
 40
0.4278593018
 40
0.5558925859
 40
0.6758946094
 40
0.788645981
 40
0.8958219613
 40
1.0
 40
1.0
 40
1.0
 40
1.0
 10
83.5217832077
 20
159.9547030703
 30
0.0
 10
83.221265595
 20
160.0320460323
 30
0.0
 10
82.7657690762
 20
160.100159698
 30
0.0
 10
82.1739557562
 20
160.0727723332
 30
0.0
 10
81.7713711606
 20
159.9956122248
 30
0.0
 10
81.4095536089
 20
159.862621793
 30
0.0
 10
81.0972114378
 20
159.6761034017
 30
0.0
 10
80.8426320647
 20
159.4399730691
 30
0.0
 10
80.715631263
 20
159.2516823665
 30
0.0
 10
80.6649538779
 20
159.1531987862
 30
0.0
  0
SPLINE
  5
2AE
100
AcDbEntity
  8
00_COMPONENTS_1
100
AcDbSpline
 62
7
  6
BYLAYER
 70
0
 71
3
 72
11
 73
7
 74
0
 42
0.0000001
 43
0.0000001
 44
0.0000000001
 40
0.0
 40
0.0
 40
0.0
 40
0.0
 40
0.2380504118
 40
0.489313856
 40
0.7461184123
 40
1.0
 40
1.0
 40
1.0
 40
1.0
 10
86.0287389075
 20
158.3037096733
 30
0.0
 10
85.8863780228
 20
158.4999466569
 30
0.0
 10
85.5508003036
 20
158.8731505164
 30
0.0
 10
84.9491086063
 20
159.3426765767
 30
0.0
 10
84.2653739515
 20
159.71642247
 30
0.0
 10
83.7721829077
 20
159.8902587459
 30
0.0
 10
83.5217832077
 20
159.9547030703
 30
0.0
  0
SPLINE
  5
2AF
100
AcDbEntity
  8
00_COMPONENTS
100
AcDbSpline
 62
7
  6
BYLAYER
 70
0
 71
3
 72
13
 73
9
 74
0
 42
0.0000001
 43
0.0000001
 44
0.0000000001
 40
0.0
 40
0.0
 40
0.0
 40
0.0
 40
0.2514376165
 40
0.3759332228
 40
0.5
 40
0.6240667772
 40
0.7485623835
 40
1.0
 40
1.0
 40
1.0
 40
1.0
 10
45.4774863032
 20
84.494005817
 30
0.0
 10
46.3093258831
 20
84.2340894596
 30
0.0
 10
47.5793552445
 20
83.9188311191
 30
0.0
 10
49.3001523026
 20
83.7003185674
 30
0.0
 10
50.5921341368
 20
83.6448332551
 30
0.0
 10
51.8841159709
 20
83.7003185674
 30
0.0
 10
53.604913029
 20
83.9188311191
 30
0.0
 10
54.8749423904
 20
84.2340894596
 30
0.0
 10
55.7067819703
 20
84.494005817
 30
0.0
  0
SPLINE
  5
2B0
100
AcDbEntity
  8
00_COMPONENTS
100
AcDbSpline
 62
7
  6
BYLAYER
 70
0
 71
3
 72
13
 73
9
 74
0
 42
0.0000001
 43
0.0000001
 44
0.0000000001
 40
0.0
 40
0.0
 40
0.0
 40
0.0
 40
0.2499628565
 40
0.3749801887
 40
0.5
 40
0.6250198113
 40
0.7500371435
 40
1.0
 40
1.0
 40
1.0
 40
1.0
 10
55.7067819703
 20
84.494005817
 30
0.0
 10
56.8935318101
 20
84.2318024797
 30
0.0
 10
58.6935935731
 20
83.9173270803
 30
0.0
 10
61.1160774389
 20
83.7001595337
 30
0.0
 10
62.9399863032
 20
83.6448806624
 30
0.0
 10
64.7638951676
 20
83.7001595337
 30
0.0
 10
67.1863790334
 20
83.9173270803
 30
0.0
 10
68.9864407964
 20
84.2318024797
 30
0.0
 10
70.1731906362
 20
84.494005817
 30
0.0
  0
SPLINE
  5
2B1
100
AcDbEntity
  8
00_COMPONENTS
100
AcDbSpline
 62
7
  6
BYLAYER
 70
0
 71
3
 72
13
 73
9
 74
0
 42
0.0000001
 43
0.0000001
 44
0.0000000001
 40
0.0
 40
0.0
 40
0.0
 40
0.0
 40
0.2514376165
 40
0.3759332228
 40
0.5
 40
0.6240667772
 40
0.7485623835
 40
1.0
 40
1.0
 40
1.0
 40
1.0
 10
70.1731906362
 20
84.494005817
 30
0.0
 10
71.005030216
 20
84.2340894596
 30
0.0
 10
72.2750595775
 20
83.9188311191
 30
0.0
 10
73.9958566356
 20
83.7003185674
 30
0.0
 10
75.2878384697
 20
83.6448332551
 30
0.0
 10
76.5798203039
 20
83.7003185674
 30
0.0
 10
78.300617362
 20
83.9188311191
 30
0.0
 10
79.5706467234
 20
84.2340894596
 30
0.0
 10
80.4024863032
 20
84.494005817
 30
0.0
  0
ELLIPSE
  5
2B2
100
AcDbEntity
  8
00_COMPONENTS_1
100
AcDbEllipse
 62
7
  6
BYLAYER
 10
42.8218285008
 20
157.5466291119
 30
0.0
 11
3.4193096007
 21
0.0
 31
0.0
 40
0.6644630244
 41
0.5315947947
 42
0.5911452022
  0
ELLIPSE
  5
2B3
100
AcDbEntity
  8
00_COMPONENTS_1
100
AcDbEllipse
 62
7
  6
BYLAYER
 10
42.3595863032
 20
158.444654724
 30
0.0
 11
3.4193096007
 21
0.0
 31
0.0
 40
0.6644630244
 41
-0.1975579181
 42
0.1975579181
  0
ELLIPSE
  5
2B4
100
AcDbEntity
  8
00_COMPONENTS_1
100
AcDbEllipse
 62
7
  6
BYLAYER
 10
43.8202716474
 20
155.6068937898
 30
0.0
 11
3.4193096007
 21
-0.0
 31
0.0
 40
0.6644630244
 41
7.3215210918
 42
8.8336327586
  0
ELLIPSE
  5
2B5
100
AcDbEntity
  8
00_COMPONENTS_1
100
AcDbEllipse
 62
7
  6
BYLAYER
 10
83.9139863032
 20
158.444654724
 30
0.0
 11
3.4193096007
 21
-0.0
 31
0.0
 40
0.6644630244
 41
2.9440347355
 42
3.3391505717
  0
ELLIPSE
  5
2B6
100
AcDbEntity
  8
00_COMPONENTS_1
100
AcDbEllipse
 62
7
  6
BYLAYER
 10
83.4517441057
 20
157.5466291119
 30
0.0
 11
3.4193096007
 21
0.0
 31
0.0
 40
0.6644630244
 41
2.5504474514
 42
2.6099721559
  0
ELLIPSE
  5
2B7
100
AcDbEntity
  8
00_COMPONENTS_1
100
AcDbEllipse
 62
7
  6
BYLAYER
 10
82.4533009591
 20
155.6068937898
 30
0.0
 11
3.4193096007
 21
-0.0
 31
0.0
 40
0.6644630244
 41
0.5911452022
 42
2.1032571002
  0
ENDSEC
  0
SECTION
  2
OBJECTS
  0
DICTIONARY
  5
C
100
AcDbDictionary
280
0
281
1
  3
ACAD_GROUP
350
D
  3
ACAD_MLINESTYLE
350
17
  3
ACAD_LAYOUT
350
1A
  3
ACAD_PLOTSETTINGS
350
19
  3
ACAD_PLOTSTYLENAME
350
E
  0
DICTIONARY
  5
D
102
{ACAD_REACTORS
330
C
102
}
100
AcDbDictionary
280
0
281
1
  0
ACDBDICTIONARYWDFLT
  5
E
102
{ACAD_REACTORS
330
C
102
}
100
AcDbDictionary
281
1
  3
Normal
350
F
100
AcDbDictionaryWithDefault
340
F
  0
DICTIONARY
  5
17
102
{ACAD_REACTORS
330
C
102
}
100
AcDbDictionary
280
0
281
1
  3
Standard
350
18
  0
DICTIONARY
  5
19
102
{ACAD_REACTORS
330
C
102
}
100
AcDbDictionary
281
1
  0
DICTIONARY
  5
1A
102
{ACAD_REACTORS
330
C
102
}
100
AcDbDictionary
281
1
  3
Model
350
2B8
  3
Layout1
350
2B9
  0
ACDBPLACEHOLDER
  5
F
102
{ACAD_REACTORS
330
E
102
}
  0
MLINESTYLE
  5
18
102
{ACAD_REACTORS
330
17
102
}
100
AcDbMlineStyle
  2
STANDARD
 70
0
  3

 62
256
 51
90.0
 52
90.0
 71
2
 49
0.5
 62
256
  6
BYLAYER
 49
-0.5
 62
256
  6
BYLAYER
  0
LAYOUT
  5
2B8
102
{ACAD_REACTORS
330
1A
102
}
100
AcDbPlotSettings
  1

  2
none_device
  4

  6

 40
0.0
 41
0.0
 42
0.0
 43
0.0
 44
210.0
 45
297.0
 46
0.0
 47
0.0
 48
0.0
 49
0.0
140
0.0
141
0.0
142
1.0
143
1.0
 70
1024
 72
1
 73
0
 74
0
  7

 75
0
147
1.0
148
0.0
149
0.0
100
AcDbLayout
  1
Model
 70
0
 71
0
 10
0.0
 20
0.0
 11
210.0
 21
297.0
 12
0.0
 22
0.0
 32
0.0
 14
0.0
 24
0.0
 34
0.0
 15
0.0
 25
0.0
 35
0.0
146
0.0
 13
0.0
 23
0.0
 33
0.0
 16
1.0
 26
0.0
 36
0.0
 17
0.0
 27
1.0
 37
0.0
 76
0
330
219
345
0
346
0
  0
LAYOUT
  5
2B9
102
{ACAD_REACTORS
330
1A
102
}
100
AcDbPlotSettings
  1

  2
none_device
  4

  6

 40
0.0
 41
0.0
 42
0.0
 43
0.0
 44
210.0
 45
297.0
 46
0.0
 47
0.0
 48
0.0
 49
0.0
140
0.0
141
0.0
142
1.0
143
1.0
 70
0
 72
1
 73
0
 74
0
  7

 75
0
147
1.0
148
0.0
149
0.0
100
AcDbLayout
  1
Layout1
 70
0
 71
1
 10
0.0
 20
0.0
 11
210.0
 21
297.0
 12
0.0
 22
0.0
 32
0.0
 14
0.0
 24
0.0
 34
0.0
 15
0.0
 25
0.0
 35
0.0
146
0.0
 13
0.0
 23
0.0
 33
0.0
 16
1.0
 26
0.0
 36
0.0
 17
0.0
 27
1.0
 37
0.0
 76
0
330
21A
345
0
346
0
  0
ENDSEC
  0
EOF
