999
DXF file: C:\Users\sesa63760\Dev\_Creo\CAD\MCADID0004053_3D-CAD\drw0001_5.dxf
999
Pro/ENGINEER 2019471 by Parametric Technology Corporation
  0
SECTION
  2
HEADER
  9
$ACADVER
  1
AC1024
  9
$DWGCODEPAGE
  3
ANSI_1252
  9
$EXTMAX
 10
50.3422019762
 20
71.1982570806
 30
0.0
  9
$EXTMIN
 10
0.0
 20
0.0
 30
0.0
  9
$LIMMIN
 10
0.0
 20
0.0
  9
$LIMMAX
 10
50.3422019762
 20
71.1982570806
  9
$VIEWCTR
 10
25.1711009881
 20
35.5991285403
  9
$VIEWSIZE
 40
71.1982570806
  9
$CLAYER
  8
0
  9
$LTSCALE
 40
4.6410715727
  9
$CELTYPE
  6
BYLAYER
  9
$DIMSCALE
 40
1.0
  9
$DIMASZ
 40
0.5993119283
  9
$DIMEXO
 40
1.0
  9
$DIMDLI
 40
3.2065585411
  9
$DIMEXE
 40
1.0
  9
$DIMCEN
 40
0.7594480755
  9
$DIMLFAC
 40
1.0
  9
$DIMBLK
  1
_FILLED
  9
$DIMALT
 70
0
  9
$DIMALTF
 40
0.0393700787
  9
$DIMTXT
 40
0.8390366996
  9
$DIMTOL
 70
1
  9
$DIMLIM
 70
0
  9
$DIMTFAC
 40
1.0
  9
$DIMTP
 40
0.01
  9
$DIMTM
 40
0.01
  9
$DIMGAP
 40
0.625
  9
$DIMDSEP
 70
46
  9
$AUNITS
 70
0
  9
$PDMODE
 70
3
  9
$PDSIZE
 40
0.3125
  9
$HANDSEED
  5
24C
  9
$TILEMODE
 70
1
  9
$MEASUREMENT
 70
1
  9
$INSUNITS
 70
4
  0
ENDSEC
  0
SECTION
  2
CLASSES
  0
CLASS
  1
ACDBDICTIONARYWDFLT
  2
AcDbDictionaryWithDefault
  3
AutoCAD 2000
 90
0
 91
1
280
0
281
0
  0
CLASS
  1
ACDBPLACEHOLDER
  2
AcDbPlaceHolder
  3
AutoCAD 2000
 90
0
 91
1
280
0
281
0
  0
CLASS
  1
LAYOUT
  2
AcDbLayout
  3
AutoCAD 2000
 90
0
 91
0
280
0
281
0
  0
ENDSEC
  0
SECTION
  2
TABLES
  0
TABLE
  2
VPORT
  5
8
100
AcDbSymbolTable
 70
2
  0
VPORT
  5
1F4
100
AcDbSymbolTableRecord
100
AcDbViewportTableRecord
  2
*ACTIVE
 70
0
 10
0.0
 20
0.0
 11
1.0
 21
1.0
 12
25.1711009881
 22
35.5991285403
 13
0.0
 23
0.0
 14
1.0
 24
1.0
 15
0.0
 25
0.0
 16
0.0
 26
0.0
 36
1.0
 17
0.0
 27
0.0
 37
0.0
 40
71.1982570806
 41
0.7070707071
 42
50.0
 43
0.0
 44
0.0
 50
0.0
 51
0.0
 71
0
 72
100
 73
1
 74
1
 75
0
 76
0
 77
0
 78
0
  0
ENDTAB
  0
TABLE
  2
LTYPE
  5
5
100
AcDbSymbolTable
 70
6
  0
LTYPE
  5
14
100
AcDbSymbolTableRecord
100
AcDbLinetypeTableRecord
  2
BYBLOCK
 70
0
  3

 72
65
 73
0
 40
0.0
  0
LTYPE
  5
15
100
AcDbSymbolTableRecord
100
AcDbLinetypeTableRecord
  2
BYLAYER
 70
0
  3

 72
65
 73
0
 40
0.0
  0
LTYPE
  5
16
100
AcDbSymbolTableRecord
100
AcDbLinetypeTableRecord
  2
CONTINUOUS
 70
64
  3
Solid line
 72
65
 73
0
 40
0.0
  0
LTYPE
  5
1F5
100
AcDbSymbolTableRecord
100
AcDbLinetypeTableRecord
  2
CENTER
 70
64
  3
____ _ ____ _ ____ _ ____ _ ____ _ ____ _ ____
 72
65
 73
4
 40
0.6
 49
0.375
 74
0
 49
-0.075
 74
0
 49
0.075
 74
0
 49
-0.075
 74
0
  0
LTYPE
  5
1F6
100
AcDbSymbolTableRecord
100
AcDbLinetypeTableRecord
  2
HIDDEN
 70
64
  3
- - - - - - - - - - - - - - - - - - - -
 72
65
 73
2
 40
0.2
 49
0.1
 74
0
 49
-0.1
 74
0
  0
LTYPE
  5
1F7
100
AcDbSymbolTableRecord
100
AcDbLinetypeTableRecord
  2
PHANTOM
 70
64
  3
_____ _ _ _____ _ _ _____ _ _ _____
 72
65
 73
6
 40
0.8
 49
0.45
 74
0
 49
-0.05
 74
0
 49
0.1
 74
0
 49
-0.05
 74
0
 49
0.1
 74
0
 49
-0.05
 74
0
  0
LTYPE
  5
1F8
100
AcDbSymbolTableRecord
100
AcDbLinetypeTableRecord
  2
DOT
 70
64
  3
. . . . . . . . . . . . . . . . . . . .
 72
65
 73
2
 40
0.2
 49
0.1
 74
0
 49
-0.1
 74
0
  0
LTYPE
  5
1F9
100
AcDbSymbolTableRecord
100
AcDbLinetypeTableRecord
  2
DASHED
 70
64
  3
- - - - - - - - - - - - - - - - - - - -
 72
65
 73
2
 40
0.2
 49
0.1
 74
0
 49
-0.1
 74
0
  0
ENDTAB
  0
TABLE
  2
LAYER
  5
2
100
AcDbSymbolTable
 70
36
  0
LAYER
  5
10
100
AcDbSymbolTableRecord
100
AcDbLayerTableRecord
  2
0
 70
0
 62
7
  6
CONTINUOUS
370
-3
390
F
  0
LAYER
  5
1FA
100
AcDbSymbolTableRecord
100
AcDbLayerTableRecord
  2
DEFAULT_1
 70
0
 62
7
  6
CENTER
370
-3
390
F
  0
LAYER
  5
1FB
100
AcDbSymbolTableRecord
100
AcDbLayerTableRecord
  2
DEFAULT_2
 70
0
 62
7
  6
HIDDEN
370
-3
390
F
  0
LAYER
  5
1FC
100
AcDbSymbolTableRecord
100
AcDbLayerTableRecord
  2
DEFAULT_3
 70
0
 62
7
  6
PHANTOM
370
-3
390
F
  0
LAYER
  5
1FD
100
AcDbSymbolTableRecord
100
AcDbLayerTableRecord
  2
00_COMPONENTS
 70
0
 62
7
  6
CONTINUOUS
370
-3
390
F
  0
LAYER
  5
1FE
100
AcDbSymbolTableRecord
100
AcDbLayerTableRecord
  2
01_1_DEFAULT_DATUMS
 70
0
 62
7
  6
CONTINUOUS
370
-3
390
F
  0
LAYER
  5
1FF
100
AcDbSymbolTableRecord
100
AcDbLayerTableRecord
  2
01_PLANES
 70
0
 62
7
  6
CONTINUOUS
370
-3
390
F
  0
LAYER
  5
200
100
AcDbSymbolTableRecord
100
AcDbLayerTableRecord
  2
02_COORD_SYS
 70
0
 62
7
  6
CONTINUOUS
370
-3
390
F
  0
LAYER
  5
201
100
AcDbSymbolTableRecord
100
AcDbLayerTableRecord
  2
03_AXES
 70
0
 62
7
  6
CONTINUOUS
370
-3
390
F
  0
LAYER
  5
202
100
AcDbSymbolTableRecord
100
AcDbLayerTableRecord
  2
04_POINTS
 70
0
 62
7
  6
CONTINUOUS
370
-3
390
F
  0
LAYER
  5
203
100
AcDbSymbolTableRecord
100
AcDbLayerTableRecord
  2
05_CURVES
 70
0
 62
7
  6
CONTINUOUS
370
-3
390
F
  0
LAYER
  5
204
100
AcDbSymbolTableRecord
100
AcDbLayerTableRecord
  2
06_SURFS
 70
0
 62
7
  6
CONTINUOUS
370
-3
390
F
  0
LAYER
  5
205
100
AcDbSymbolTableRecord
100
AcDbLayerTableRecord
  2
07_COSMETICS
 70
0
 62
7
  6
CONTINUOUS
370
-3
390
F
  0
LAYER
  5
206
100
AcDbSymbolTableRecord
100
AcDbLayerTableRecord
  2
10_NOTES
 70
0
 62
7
  6
CONTINUOUS
370
-3
390
F
  0
LAYER
  5
207
100
AcDbSymbolTableRecord
100
AcDbLayerTableRecord
  2
11_NOTES_PUB
 70
0
 62
7
  6
CONTINUOUS
370
-3
390
F
  0
LAYER
  5
208
100
AcDbSymbolTableRecord
100
AcDbLayerTableRecord
  2
13_REF_GTOL
 70
0
 62
7
  6
CONTINUOUS
370
-3
390
F
  0
LAYER
  5
209
100
AcDbSymbolTableRecord
100
AcDbLayerTableRecord
  2
16_MISC
 70
0
 62
7
  6
CONTINUOUS
370
-3
390
F
  0
LAYER
  5
20A
100
AcDbSymbolTableRecord
100
AcDbLayerTableRecord
  2
17_NO_PRINT
 70
0
 62
7
  6
CONTINUOUS
370
-3
390
F
  0
LAYER
  5
20B
100
AcDbSymbolTableRecord
100
AcDbLayerTableRecord
  2
18_DATUM_CAMS_JOINTS
 70
0
 62
7
  6
CONTINUOUS
370
-3
390
F
  0
LAYER
  5
20C
100
AcDbSymbolTableRecord
100
AcDbLayerTableRecord
  2
19_DATUM_FUNCTIONAL
 70
0
 62
7
  6
CONTINUOUS
370
-3
390
F
  0
LAYER
  5
20D
100
AcDbSymbolTableRecord
100
AcDbLayerTableRecord
  2
20_DATUM_KINEMATIC_SCHEME
 70
0
 62
7
  6
CONTINUOUS
370
-3
390
F
  0
ENDTAB
  0
TABLE
  2
STYLE
  5
3
100
AcDbSymbolTable
 70
1
  0
STYLE
  5
11
100
AcDbSymbolTableRecord
100
AcDbTextStyleTableRecord
  2
STANDARD
 70
0
 40
0.0
 41
1.0
 50
0.0
 71
0
 42
0.2
  3
ARIAL.TTF
  4

  0
STYLE
  5
20E
100
AcDbSymbolTableRecord
100
AcDbTextStyleTableRecord
  2
TEXTSTYLE_1
 70
0
 40
0.0
 41
0.8
 50
0.0
 71
0
 42
0.2
  3
gdt
  4

  0
ENDTAB
  0
TABLE
  2
VIEW
  5
6
100
AcDbSymbolTable
 70
0
  0
ENDTAB
  0
TABLE
  2
UCS
  5
7
100
AcDbSymbolTable
 70
0
  0
ENDTAB
  0
TABLE
  2
APPID
  5
9
100
AcDbSymbolTable
 70
1
  0
APPID
  5
20F
100
AcDbSymbolTableRecord
100
AcDbRegAppTableRecord
  2
ACAD
 70
0
  0
ENDTAB
  0
TABLE
  2
BLOCK_RECORD
  5
1
100
AcDbSymbolTable
 70
0
  0
BLOCK_RECORD
  5
210
100
AcDbSymbolTableRecord
100
AcDbBlockTableRecord
  2
*Model_Space
  0
BLOCK_RECORD
  5
211
100
AcDbSymbolTableRecord
100
AcDbBlockTableRecord
  2
*Paper_Space
  0
BLOCK_RECORD
  5
212
100
AcDbSymbolTableRecord
100
AcDbBlockTableRecord
  2
_FILLED
  0
ENDTAB
  0
TABLE
  2
DIMSTYLE
  5
A
100
AcDbSymbolTable
 70
1
100
AcDbDimStyleTable
 71
0
  0
DIMSTYLE
105
213
100
AcDbSymbolTableRecord
100
AcDbDimStyleTableRecord
  2
STANDARD
 70
0
  3

  4

 40
1.0
 41
0.5993119283
 42
1.0
 43
0.38
 44
1.0
 45
0.0
 46
0.0
 47
0.01
 48
0.01
140
0.8390366996
141
0.09
142
0.0
143
25.4
144
1.0
145
0.0
146
1.0
147
0.625
 71
1
 72
0
 73
0
 74
0
 75
0
 76
0
 77
1
 78
8
 79
2
170
0
171
1
172
0
173
0
174
0
175
0
176
0
177
0
178
0
270
2
179
2
271
2
272
2
273
2
274
2
275
0
280
0
281
0
282
0
283
1
284
8
285
0
286
0
287
3
288
0
340
11
278
46
341
212
342
212
343
212
344
212
  0
ENDTAB
  0
ENDSEC
  0
SECTION
  2
BLOCKS
  0
BLOCK
  5
20
100
AcDbEntity
  8
0
100
AcDbBlockBegin
  2
*Model_Space
 70
0
 10
0.0
 20
0.0
 30
0.0
  3
*Model_Space
  1

  0
ENDBLK
  5
21
100
AcDbEntity
  8
0
100
AcDbBlockEnd
  0
BLOCK
  5
1C
100
AcDbEntity
  8
0
100
AcDbBlockBegin
  2
*Paper_Space
 70
0
 10
0.0
 20
0.0
 30
0.0
  3
*Paper_Space
  1

  0
ENDBLK
  5
1D
100
AcDbEntity
  8
0
100
AcDbBlockEnd
  0
BLOCK
  5
214
100
AcDbEntity
  8
0
100
AcDbBlockBegin
  2
_FILLED
 70
64
 10
0.0
 20
0.0
  3
_FILLED
  1

  0
SOLID
  5
215
100
AcDbEntity
  8
0
  6
BYBLOCK
 62
0
100
AcDbTrace
 10
0.0
 20
0.0
 11
-1.0
 21
0.25
 12
-1.0
 22
-0.25
 13
-1.0
 23
-0.25
  0
ENDBLK
  5
216
100
AcDbEntity
  8
0
  6
BYBLOCK
 62
0
100
AcDbBlockEnd
  0
ENDSEC
  0
SECTION
  2
ENTITIES
  0
LINE
  5
217
100
AcDbEntity
  8
0
100
AcDbLine
 62
7
  6
BYLAYER
 10
5.8682687441
 20
28.3862745077
 11
5.8682687441
 21
28.1862745098
  0
LINE
  5
218
100
AcDbEntity
  8
0
100
AcDbLine
 62
7
  6
BYLAYER
 10
5.9713125074
 20
42.1937372056
 11
5.8682687441
 21
28.3862745077
  0
LINE
  5
219
100
AcDbEntity
  8
0
100
AcDbLine
 62
7
  6
BYLAYER
 10
7.8682687441
 20
28.1862745098
 11
7.8682687441
 21
28.3862745098
  0
LINE
  5
21A
100
AcDbEntity
  8
0
100
AcDbLine
 62
7
  6
BYLAYER
 10
10.2209459257
 20
43.1862745098
 11
10.2209459257
 21
37.9862745098
  0
LINE
  5
21B
100
AcDbEntity
  8
0
100
AcDbLine
 62
7
  6
BYLAYER
 10
10.7221196987
 20
42.6862745098
 11
10.7221196987
 21
43.1862745098
  0
LINE
  5
21C
100
AcDbEntity
  8
0
100
AcDbLine
 62
7
  6
BYLAYER
 10
11.1089271727
 20
43.1862745098
 11
11.1089271727
 21
42.6862745098
  0
LINE
  5
21D
100
AcDbEntity
  8
0
100
AcDbLine
 62
7
  6
BYLAYER
 10
11.9333956637
 20
43.1862745098
 11
11.9333956637
 21
42.6862745098
  0
LINE
  5
21E
100
AcDbEntity
  8
0
100
AcDbLine
 62
7
  6
BYLAYER
 10
12.6165233705
 20
28.3862745098
 11
12.6165233705
 21
28.1862745098
  0
LINE
  5
21F
100
AcDbEntity
  8
0
100
AcDbLine
 62
7
  6
BYLAYER
 10
13.1717562546
 20
37.9862745098
 11
13.1717562546
 21
43.1862745098
  0
LINE
  5
220
100
AcDbEntity
  8
0
100
AcDbLine
 62
7
  6
BYLAYER
 10
14.3941696274
 20
37.9862745098
 11
14.3835235496
 21
42.9877654031
  0
LINE
  5
221
100
AcDbEntity
  8
0
100
AcDbLine
 62
7
  6
BYLAYER
 10
45.8682687441
 20
28.1862745098
 11
39.1200141176
 21
28.1862745098
  0
LINE
  5
222
100
AcDbEntity
  8
0
100
AcDbLine
 62
7
  6
BYLAYER
 10
12.6165233705
 20
28.1862745098
 11
5.8682687441
 21
28.1862745098
  0
LINE
  5
223
100
AcDbEntity
  8
0
100
AcDbLine
 62
7
  6
BYLAYER
 10
7.8680428464
 20
28.3862745098
 11
43.8684946417
 21
28.3862745098
  0
LINE
  5
224
100
AcDbEntity
  8
0
100
AcDbLine
 62
7
  6
BYLAYER
 10
20.418437215
 20
35.0662745098
 11
20.418437215
 21
32.4262745098
  0
LINE
  5
225
100
AcDbEntity
  8
0
100
AcDbLine
 62
7
  6
BYLAYER
 10
20.6186249901
 20
35.0662745098
 11
20.6186249901
 21
32.4262745098
  0
LINE
  5
226
100
AcDbEntity
  8
0
100
AcDbLine
 62
7
  6
BYLAYER
 10
20.8186249881
 20
32.4262745098
 11
20.8186249881
 21
35.0662745098
  0
LINE
  5
227
100
AcDbEntity
  8
0
100
AcDbLine
 62
7
  6
BYLAYER
 10
31.3181002732
 20
32.4262745098
 11
30.2801730948
 21
32.4262745098
  0
LINE
  5
228
100
AcDbEntity
  8
0
100
AcDbLine
 62
7
  6
BYLAYER
 10
21.4563643934
 20
32.4262745098
 11
20.418437215
 21
32.4262745098
  0
LINE
  5
229
100
AcDbEntity
  8
0
100
AcDbLine
 62
7
  6
BYLAYER
 10
20.418437215
 20
35.0662745098
 11
21.2004962561
 21
35.0662745098
  0
LINE
  5
22A
100
AcDbEntity
  8
0
100
AcDbLine
 62
7
  6
BYLAYER
 10
30.5360412321
 20
35.0662745098
 11
31.3181002732
 21
35.0662745098
  0
LINE
  5
22B
100
AcDbEntity
  8
0
100
AcDbLine
 62
7
  6
BYLAYER
 10
5.9399126188
 20
37.9862745098
 11
14.3941696274
 21
37.9862745098
  0
LINE
  5
22C
100
AcDbEntity
  8
0
100
AcDbLine
 62
7
  6
BYLAYER
 10
37.3423678608
 20
37.9862745098
 11
45.7966248693
 21
37.9862745098
  0
LINE
  5
22D
100
AcDbEntity
  8
0
100
AcDbLine
 62
7
  6
BYLAYER
 10
30.9179125001
 20
35.0662745098
 11
30.9179125001
 21
32.4262745098
  0
LINE
  5
22E
100
AcDbEntity
  8
0
100
AcDbLine
 62
7
  6
BYLAYER
 10
31.1179124981
 20
32.4262745098
 11
31.1179124981
 21
35.0662745098
  0
LINE
  5
22F
100
AcDbEntity
  8
0
100
AcDbLine
 62
7
  6
BYLAYER
 10
31.3181002732
 20
32.4262745098
 11
31.3181002732
 21
35.0662745098
  0
LINE
  5
230
100
AcDbEntity
  8
0
100
AcDbLine
 62
7
  6
BYLAYER
 10
10.7221196987
 20
42.6862745098
 11
11.9333956637
 21
42.6862745098
  0
LINE
  5
231
100
AcDbEntity
  8
0
100
AcDbLine
 62
7
  6
BYLAYER
 10
39.8031418245
 20
42.6862745098
 11
41.0144177895
 21
42.6862745098
  0
LINE
  5
232
100
AcDbEntity
  8
0
100
AcDbLine
 62
7
  6
BYLAYER
 10
14.3835235496
 20
42.9877654031
 11
37.3530139386
 21
42.9877654031
  0
LINE
  5
233
100
AcDbEntity
  8
0
100
AcDbLine
 62
7
  6
BYLAYER
 10
6.9712846611
 20
43.1862745098
 11
44.7652528271
 21
43.1862745098
  0
LINE
  5
234
100
AcDbEntity
  8
0
100
AcDbLine
 62
7
  6
BYLAYER
 10
37.3530139386
 20
42.9877654031
 11
37.3423678608
 21
37.9862745098
  0
LINE
  5
235
100
AcDbEntity
  8
0
100
AcDbLine
 62
7
  6
BYLAYER
 10
38.5647812336
 20
43.1862745098
 11
38.5647812336
 21
37.9862745098
  0
LINE
  5
236
100
AcDbEntity
  8
0
100
AcDbLine
 62
7
  6
BYLAYER
 10
39.1200141176
 20
28.1862745098
 11
39.1200141176
 21
28.3862745098
  0
LINE
  5
237
100
AcDbEntity
  8
0
100
AcDbLine
 62
7
  6
BYLAYER
 10
39.8031418245
 20
42.6862745098
 11
39.8031418245
 21
43.1862745098
  0
LINE
  5
238
100
AcDbEntity
  8
0
100
AcDbLine
 62
7
  6
BYLAYER
 10
40.6276103154
 20
42.6862745098
 11
40.6276103154
 21
43.1862745098
  0
LINE
  5
239
100
AcDbEntity
  8
0
100
AcDbLine
 62
7
  6
BYLAYER
 10
41.0144177895
 20
43.1862745098
 11
41.0144177895
 21
42.6862745098
  0
LINE
  5
23A
100
AcDbEntity
  8
0
100
AcDbLine
 62
7
  6
BYLAYER
 10
41.5155915625
 20
37.9862745098
 11
41.5155915625
 21
43.1862745098
  0
LINE
  5
23B
100
AcDbEntity
  8
0
100
AcDbLine
 62
7
  6
BYLAYER
 10
43.8682687441
 20
28.3862745098
 11
43.8682687441
 21
28.1862745098
  0
LINE
  5
23C
100
AcDbEntity
  8
0
100
AcDbLine
 62
7
  6
BYLAYER
 10
45.8682687441
 20
28.3862745098
 11
45.7652249808
 21
42.1937372056
  0
LINE
  5
23D
100
AcDbEntity
  8
0
100
AcDbLine
 62
7
  6
BYLAYER
 10
45.8682687441
 20
28.1862745098
 11
45.8682687441
 21
28.3862745098
  0
CIRCLE
  5
23E
100
AcDbEntity
  8
0
100
AcDbCircle
 62
7
  6
BYLAYER
 10
25.8682687441
 20
34.1862745098
 40
4.75
  0
CIRCLE
  5
23F
100
AcDbEntity
  8
0
100
AcDbCircle
 62
7
  6
BYLAYER
 10
25.8682687441
 20
34.1862745098
 40
4.25
  0
CIRCLE
  5
240
100
AcDbEntity
  8
0
100
AcDbCircle
 62
7
  6
BYLAYER
 10
25.8682687441
 20
34.1862745098
 40
3.9921015913
  0
CIRCLE
  5
241
100
AcDbEntity
  8
0
100
AcDbCircle
 62
7
  6
BYLAYER
 10
25.8682687441
 20
34.1862745098
 40
3.45
  0
CIRCLE
  5
242
100
AcDbEntity
  8
0
100
AcDbCircle
 62
7
  6
BYLAYER
 10
25.8682687441
 20
34.1862745098
 40
3.2207749251
  0
CIRCLE
  5
243
100
AcDbEntity
  8
0
100
AcDbCircle
 62
7
  6
BYLAYER
 10
25.8682687441
 20
34.1862745098
 40
3.0207749251
  0
ARC
  5
244
100
AcDbEntity
  8
0
100
AcDbCircle
 62
7
  6
BYLAYER
 10
44.7652528271
 20
42.1862745098
 40
1.0
100
AcDbArc
 50
0.4275849423
 51
90.0
  0
ARC
  5
245
100
AcDbEntity
  8
0
100
AcDbCircle
 62
7
  6
BYLAYER
 10
6.9712846611
 20
42.1862745098
 40
1.0
100
AcDbArc
 50
90.0
 51
179.5724150577
  0
SPLINE
  5
246
100
AcDbEntity
  8
0
100
AcDbSpline
 62
7
  6
BYLAYER
 70
0
 71
3
 72
43
 73
39
 74
0
 42
0.0000001
 43
0.0000001
 44
0.0000000001
 40
0.0
 40
0.0
 40
0.0
 40
0.0
 40
0.1250002799
 40
0.2500005506
 40
0.3125006966
 40
0.3750008415
 40
0.4375009846
 40
0.5000011249
 40
0.5625012601
 40
0.6250013863
 40
0.65625146
 40
0.6875015327
 40
0.7187516037
 40
0.7500016718
 40
0.7812517351
 40
0.8125017893
 40
0.8437518258
 40
0.8593768611
 40
0.8750018936
 40
0.8906269215
 40
0.9062519405
 40
0.9218769418
 40
0.9375019036
 40
0.9453144149
 40
0.9531269182
 40
0.9609394038
 40
0.9687518498
 40
0.9765641878
 40
0.9804704214
 40
0.9843766188
 40
0.9882827102
 40
0.9921883864
 40
0.9941414372
 40
0.996094371
 40
0.9970707708
 40
0.9980476283
 40
0.9990250829
 40
1.0
 40
1.0
 40
1.0
 40
1.0
 10
7.3380425659
 20
37.9862745098
 30
0.0
 10
7.3489407683
 20
37.584962252
 30
0.0
 10
7.3713911615
 20
36.7823552658
 30
0.0
 10
7.4016766514
 20
35.7791606682
 30
0.0
 10
7.4275385849
 20
34.9766566024
 30
0.0
 10
7.4478752186
 20
34.3748094513
 30
0.0
 10
7.4692917665
 20
33.7729996968
 30
0.0
 10
7.4919712552
 20
33.1712360789
 30
0.0
 10
7.5161552588
 20
32.5695309369
 30
0.0
 10
7.5378348115
 20
32.0681731264
 30
0.0
 10
7.5563334072
 20
31.6671391028
 30
0.0
 10
7.5708678933
 20
31.3663946505
 30
0.0
 10
7.5861631768
 20
31.0656878575
 30
0.0
 10
7.6023493153
 20
30.7650275925
 30
0.0
 10
7.6195971674
 20
30.4644261529
 30
0.0
 10
7.6381421389
 20
30.163901776
 30
0.0
 10
7.6549538318
 20
29.9135512884
 30
0.0
 10
7.6694778334
 20
29.7133469733
 30
0.0
 10
7.6810043155
 20
29.5632407901
 30
0.0
 10
7.6932860347
 20
29.4131943573
 30
0.0
 10
7.7064909308
 20
29.2632259637
 30
0.0
 10
7.7208608417
 20
29.1133644495
 30
0.0
 10
7.7341073105
 20
28.9886062347
 30
0.0
 10
7.7457792876
 20
28.8889214767
 30
0.0
 10
7.755197385
 20
28.8142381813
 30
0.0
 10
7.7654520548
 20
28.7396643252
 30
0.0
 10
7.7768123487
 20
28.6652506608
 30
0.0
 10
7.7875589126
 20
28.6034422177
 30
0.0
 10
7.7973588186
 20
28.5542242787
 30
0.0
 10
7.8055126868
 20
28.5174769086
 30
0.0
 10
7.8148012301
 20
28.4810019854
 30
0.0
 10
7.8239691665
 20
28.4509801336
 30
0.0
 10
7.8329226237
 20
28.4275328461
 30
0.0
 10
7.8395632882
 20
28.4132980491
 30
0.0
 10
7.846010879
 20
28.4025089902
 30
0.0
 10
7.8517230133
 20
28.3950222967
 30
0.0
 10
7.8586399151
 20
28.3884373329
 30
0.0
 10
7.8649164539
 20
28.3864464354
 30
0.0
 10
7.8680428464
 20
28.3862745098
 30
0.0
  0
SPLINE
  5
247
100
AcDbEntity
  8
0
100
AcDbSpline
 62
7
  6
BYLAYER
 70
0
 71
3
 72
43
 73
39
 74
0
 42
0.0000001
 43
0.0000001
 44
0.0000000001
 40
0.0
 40
0.0
 40
0.0
 40
0.0
 40
0.1250002799
 40
0.2500005506
 40
0.3125006966
 40
0.3750008415
 40
0.4375009846
 40
0.5000011249
 40
0.5625012601
 40
0.6250013863
 40
0.65625146
 40
0.6875015327
 40
0.7187516037
 40
0.7500016718
 40
0.7812517351
 40
0.8125017893
 40
0.8437518258
 40
0.8593768611
 40
0.8750018936
 40
0.8906269215
 40
0.9062519405
 40
0.9218769418
 40
0.9375019036
 40
0.9453144149
 40
0.9531269182
 40
0.9609394038
 40
0.9687518498
 40
0.9765641878
 40
0.9804704214
 40
0.9843766188
 40
0.9882827102
 40
0.9921883864
 40
0.9941414372
 40
0.996094371
 40
0.9970707708
 40
0.9980476283
 40
0.9990250829
 40
1.0
 40
1.0
 40
1.0
 40
1.0
 10
44.3984949223
 20
37.9862745098
 30
0.0
 10
44.3875967199
 20
37.584962252
 30
0.0
 10
44.3651463267
 20
36.7823552658
 30
0.0
 10
44.3348608368
 20
35.7791606682
 30
0.0
 10
44.3089989033
 20
34.9766566024
 30
0.0
 10
44.2886622696
 20
34.3748094513
 30
0.0
 10
44.2672457216
 20
33.7729996968
 30
0.0
 10
44.2445662329
 20
33.1712360789
 30
0.0
 10
44.2203822294
 20
32.5695309369
 30
0.0
 10
44.1987026767
 20
32.0681731264
 30
0.0
 10
44.180204081
 20
31.6671391028
 30
0.0
 10
44.1656695949
 20
31.3663946505
 30
0.0
 10
44.1503743114
 20
31.0656878575
 30
0.0
 10
44.1341881729
 20
30.7650275925
 30
0.0
 10
44.1169403208
 20
30.4644261529
 30
0.0
 10
44.0983953493
 20
30.163901776
 30
0.0
 10
44.0815836563
 20
29.9135512884
 30
0.0
 10
44.0670596548
 20
29.7133469733
 30
0.0
 10
44.0555331726
 20
29.5632407901
 30
0.0
 10
44.0432514535
 20
29.4131943573
 30
0.0
 10
44.0300465574
 20
29.2632259637
 30
0.0
 10
44.0156766464
 20
29.1133644495
 30
0.0
 10
44.0024301777
 20
28.9886062347
 30
0.0
 10
43.9907582005
 20
28.8889214767
 30
0.0
 10
43.9813401031
 20
28.8142381813
 30
0.0
 10
43.9710854334
 20
28.7396643252
 30
0.0
 10
43.9597251395
 20
28.6652506608
 30
0.0
 10
43.9489785756
 20
28.6034422178
 30
0.0
 10
43.9391786696
 20
28.5542242787
 30
0.0
 10
43.9310248014
 20
28.5174769086
 30
0.0
 10
43.9217362581
 20
28.4810019855
 30
0.0
 10
43.9125683217
 20
28.4509801337
 30
0.0
 10
43.9036148644
 20
28.4275328461
 30
0.0
 10
43.8969742
 20
28.4132980491
 30
0.0
 10
43.8905266092
 20
28.4025089902
 30
0.0
 10
43.8848144749
 20
28.3950222967
 30
0.0
 10
43.8778975731
 20
28.388437333
 30
0.0
 10
43.8716210343
 20
28.3864464354
 30
0.0
 10
43.8684946417
 20
28.3862745098
 30
0.0
  0
ELLIPSE
  5
248
100
AcDbEntity
  8
0
100
AcDbEllipse
 62
7
  6
BYLAYER
 10
37.4101196371
 20
42.9862745098
 30
0.0
 11
-0.0
 21
0.2
 31
0.0
 40
0.2855364262
 41
-0.0
 42
1.5633417913
  0
ELLIPSE
  5
249
100
AcDbEntity
  8
0
100
AcDbEllipse
 62
7
  6
BYLAYER
 10
14.3264178511
 20
42.9862745098
 30
0.0
 11
-0.0
 21
0.2
 31
0.0
 40
0.2855364262
 41
-1.5633417913
 42
0.0
  0
ENDSEC
  0
SECTION
  2
OBJECTS
  0
DICTIONARY
  5
C
100
AcDbDictionary
280
0
281
1
  3
ACAD_GROUP
350
D
  3
ACAD_MLINESTYLE
350
17
  3
ACAD_LAYOUT
350
1A
  3
ACAD_PLOTSETTINGS
350
19
  3
ACAD_PLOTSTYLENAME
350
E
  0
DICTIONARY
  5
D
102
{ACAD_REACTORS
330
C
102
}
100
AcDbDictionary
280
0
281
1
  0
ACDBDICTIONARYWDFLT
  5
E
102
{ACAD_REACTORS
330
C
102
}
100
AcDbDictionary
281
1
  3
Normal
350
F
100
AcDbDictionaryWithDefault
340
F
  0
DICTIONARY
  5
17
102
{ACAD_REACTORS
330
C
102
}
100
AcDbDictionary
280
0
281
1
  3
Standard
350
18
  0
DICTIONARY
  5
19
102
{ACAD_REACTORS
330
C
102
}
100
AcDbDictionary
281
1
  0
DICTIONARY
  5
1A
102
{ACAD_REACTORS
330
C
102
}
100
AcDbDictionary
281
1
  3
Model
350
24A
  3
Layout1
350
24B
  0
ACDBPLACEHOLDER
  5
F
102
{ACAD_REACTORS
330
E
102
}
  0
MLINESTYLE
  5
18
102
{ACAD_REACTORS
330
17
102
}
100
AcDbMlineStyle
  2
STANDARD
 70
0
  3

 62
256
 51
90.0
 52
90.0
 71
2
 49
0.5
 62
256
  6
BYLAYER
 49
-0.5
 62
256
  6
BYLAYER
  0
LAYOUT
  5
24A
102
{ACAD_REACTORS
330
1A
102
}
100
AcDbPlotSettings
  1

  2
none_device
  4

  6

 40
0.0
 41
0.0
 42
0.0
 43
0.0
 44
210.0
 45
297.0
 46
0.0
 47
0.0
 48
0.0
 49
0.0
140
0.0
141
0.0
142
1.0
143
1.0
 70
1024
 72
1
 73
0
 74
0
  7

 75
0
147
1.0
148
0.0
149
0.0
100
AcDbLayout
  1
Model
 70
0
 71
0
 10
0.0
 20
0.0
 11
210.0
 21
297.0
 12
0.0
 22
0.0
 32
0.0
 14
0.0
 24
0.0
 34
0.0
 15
0.0
 25
0.0
 35
0.0
146
0.0
 13
0.0
 23
0.0
 33
0.0
 16
1.0
 26
0.0
 36
0.0
 17
0.0
 27
1.0
 37
0.0
 76
0
330
210
345
0
346
0
  0
LAYOUT
  5
24B
102
{ACAD_REACTORS
330
1A
102
}
100
AcDbPlotSettings
  1

  2
none_device
  4

  6

 40
0.0
 41
0.0
 42
0.0
 43
0.0
 44
210.0
 45
297.0
 46
0.0
 47
0.0
 48
0.0
 49
0.0
140
0.0
141
0.0
142
1.0
143
1.0
 70
0
 72
1
 73
0
 74
0
  7

 75
0
147
1.0
148
0.0
149
0.0
100
AcDbLayout
  1
Layout1
 70
0
 71
1
 10
0.0
 20
0.0
 11
210.0
 21
297.0
 12
0.0
 22
0.0
 32
0.0
 14
0.0
 24
0.0
 34
0.0
 15
0.0
 25
0.0
 35
0.0
146
0.0
 13
0.0
 23
0.0
 33
0.0
 16
1.0
 26
0.0
 36
0.0
 17
0.0
 27
1.0
 37
0.0
 76
0
330
211
345
0
346
0
  0
ENDSEC
  0
EOF
