999
DXF file: C:\Users\sesa63760\Dev\_Creo\CAD\MCADID0004803_3D-CAD\drw0001_4.dxf
999
Pro/ENGINEER 2019471 by Parametric Technology Corporation
  0
SECTION
  2
HEADER
  9
$ACADVER
  1
AC1024
  9
$DWGCODEPAGE
  3
ANSI_1252
  9
$EXTMAX
 10
80.1184067505
 20
113.3103181186
 30
0.0
  9
$EXTMIN
 10
0.0
 20
0.0
 30
0.0
  9
$LIMMIN
 10
0.0
 20
0.0
  9
$LIMMAX
 10
80.1184067505
 20
113.3103181186
  9
$VIEWCTR
 10
40.0592033753
 20
56.6551590593
  9
$VIEWSIZE
 40
113.3103181186
  9
$CLAYER
  8
0
  9
$LTSCALE
 40
7.38615407
  9
$CELTYPE
  6
BYLAYER
  9
$DIMSCALE
 40
1.0
  9
$DIMASZ
 40
0.9537905566
  9
$DIMEXO
 40
1.0
  9
$DIMDLI
 40
5.1031609938
  9
$DIMEXE
 40
1.0
  9
$DIMCEN
 40
1.2086433933
  9
$DIMLFAC
 40
1.0
  9
$DIMBLK
  1
_FILLED
  9
$DIMALT
 70
0
  9
$DIMALTF
 40
0.0393700787
  9
$DIMTXT
 40
1.3353067792
  9
$DIMTOL
 70
1
  9
$DIMLIM
 70
0
  9
$DIMTFAC
 40
1.0
  9
$DIMTP
 40
0.01
  9
$DIMTM
 40
0.01
  9
$DIMGAP
 40
0.625
  9
$DIMDSEP
 70
46
  9
$AUNITS
 70
0
  9
$PDMODE
 70
3
  9
$PDSIZE
 40
0.3125
  9
$HANDSEED
  5
3EC
  9
$TILEMODE
 70
1
  9
$MEASUREMENT
 70
1
  9
$INSUNITS
 70
4
  0
ENDSEC
  0
SECTION
  2
CLASSES
  0
CLASS
  1
ACDBDICTIONARYWDFLT
  2
AcDbDictionaryWithDefault
  3
AutoCAD 2000
 90
0
 91
1
280
0
281
0
  0
CLASS
  1
ACDBPLACEHOLDER
  2
AcDbPlaceHolder
  3
AutoCAD 2000
 90
0
 91
1
280
0
281
0
  0
CLASS
  1
LAYOUT
  2
AcDbLayout
  3
AutoCAD 2000
 90
0
 91
0
280
0
281
0
  0
ENDSEC
  0
SECTION
  2
TABLES
  0
TABLE
  2
VPORT
  5
8
100
AcDbSymbolTable
 70
2
  0
VPORT
  5
1F4
100
AcDbSymbolTableRecord
100
AcDbViewportTableRecord
  2
*ACTIVE
 70
0
 10
0.0
 20
0.0
 11
1.0
 21
1.0
 12
40.0592033753
 22
56.6551590593
 13
0.0
 23
0.0
 14
1.0
 24
1.0
 15
0.0
 25
0.0
 16
0.0
 26
0.0
 36
1.0
 17
0.0
 27
0.0
 37
0.0
 40
113.3103181186
 41
0.7070707071
 42
50.0
 43
0.0
 44
0.0
 50
0.0
 51
0.0
 71
0
 72
100
 73
1
 74
1
 75
0
 76
0
 77
0
 78
0
  0
ENDTAB
  0
TABLE
  2
LTYPE
  5
5
100
AcDbSymbolTable
 70
6
  0
LTYPE
  5
14
100
AcDbSymbolTableRecord
100
AcDbLinetypeTableRecord
  2
BYBLOCK
 70
0
  3

 72
65
 73
0
 40
0.0
  0
LTYPE
  5
15
100
AcDbSymbolTableRecord
100
AcDbLinetypeTableRecord
  2
BYLAYER
 70
0
  3

 72
65
 73
0
 40
0.0
  0
LTYPE
  5
16
100
AcDbSymbolTableRecord
100
AcDbLinetypeTableRecord
  2
CONTINUOUS
 70
64
  3
Solid line
 72
65
 73
0
 40
0.0
  0
LTYPE
  5
1F5
100
AcDbSymbolTableRecord
100
AcDbLinetypeTableRecord
  2
CENTER
 70
64
  3
____ _ ____ _ ____ _ ____ _ ____ _ ____ _ ____
 72
65
 73
4
 40
0.6
 49
0.375
 74
0
 49
-0.075
 74
0
 49
0.075
 74
0
 49
-0.075
 74
0
  0
LTYPE
  5
1F6
100
AcDbSymbolTableRecord
100
AcDbLinetypeTableRecord
  2
HIDDEN
 70
64
  3
- - - - - - - - - - - - - - - - - - - -
 72
65
 73
2
 40
0.2
 49
0.1
 74
0
 49
-0.1
 74
0
  0
LTYPE
  5
1F7
100
AcDbSymbolTableRecord
100
AcDbLinetypeTableRecord
  2
PHANTOM
 70
64
  3
_____ _ _ _____ _ _ _____ _ _ _____
 72
65
 73
6
 40
0.8
 49
0.45
 74
0
 49
-0.05
 74
0
 49
0.1
 74
0
 49
-0.05
 74
0
 49
0.1
 74
0
 49
-0.05
 74
0
  0
LTYPE
  5
1F8
100
AcDbSymbolTableRecord
100
AcDbLinetypeTableRecord
  2
DOT
 70
64
  3
. . . . . . . . . . . . . . . . . . . .
 72
65
 73
2
 40
0.2
 49
0.1
 74
0
 49
-0.1
 74
0
  0
LTYPE
  5
1F9
100
AcDbSymbolTableRecord
100
AcDbLinetypeTableRecord
  2
DASHED
 70
64
  3
- - - - - - - - - - - - - - - - - - - -
 72
65
 73
2
 40
0.2
 49
0.1
 74
0
 49
-0.1
 74
0
  0
ENDTAB
  0
TABLE
  2
LAYER
  5
2
100
AcDbSymbolTable
 70
36
  0
LAYER
  5
10
100
AcDbSymbolTableRecord
100
AcDbLayerTableRecord
  2
0
 70
0
 62
7
  6
CONTINUOUS
370
-3
390
F
  0
LAYER
  5
1FA
100
AcDbSymbolTableRecord
100
AcDbLayerTableRecord
  2
DEFAULT_1
 70
0
 62
7
  6
CENTER
370
-3
390
F
  0
LAYER
  5
1FB
100
AcDbSymbolTableRecord
100
AcDbLayerTableRecord
  2
DEFAULT_2
 70
0
 62
7
  6
HIDDEN
370
-3
390
F
  0
LAYER
  5
1FC
100
AcDbSymbolTableRecord
100
AcDbLayerTableRecord
  2
DEFAULT_3
 70
0
 62
7
  6
PHANTOM
370
-3
390
F
  0
LAYER
  5
1FD
100
AcDbSymbolTableRecord
100
AcDbLayerTableRecord
  2
00_COMPONENTS
 70
0
 62
7
  6
CONTINUOUS
370
-3
390
F
  0
LAYER
  5
1FE
100
AcDbSymbolTableRecord
100
AcDbLayerTableRecord
  2
01_1_DEFAULT_DATUMS
 70
0
 62
7
  6
CONTINUOUS
370
-3
390
F
  0
LAYER
  5
1FF
100
AcDbSymbolTableRecord
100
AcDbLayerTableRecord
  2
01_PLANES
 70
0
 62
7
  6
CONTINUOUS
370
-3
390
F
  0
LAYER
  5
200
100
AcDbSymbolTableRecord
100
AcDbLayerTableRecord
  2
02_COORD_SYS
 70
0
 62
7
  6
CONTINUOUS
370
-3
390
F
  0
LAYER
  5
201
100
AcDbSymbolTableRecord
100
AcDbLayerTableRecord
  2
03_AXES
 70
0
 62
7
  6
CONTINUOUS
370
-3
390
F
  0
LAYER
  5
202
100
AcDbSymbolTableRecord
100
AcDbLayerTableRecord
  2
04_POINTS
 70
0
 62
7
  6
CONTINUOUS
370
-3
390
F
  0
LAYER
  5
203
100
AcDbSymbolTableRecord
100
AcDbLayerTableRecord
  2
05_CURVES
 70
0
 62
7
  6
CONTINUOUS
370
-3
390
F
  0
LAYER
  5
204
100
AcDbSymbolTableRecord
100
AcDbLayerTableRecord
  2
06_SURFS
 70
0
 62
7
  6
CONTINUOUS
370
-3
390
F
  0
LAYER
  5
205
100
AcDbSymbolTableRecord
100
AcDbLayerTableRecord
  2
07_COSMETICS
 70
0
 62
7
  6
CONTINUOUS
370
-3
390
F
  0
LAYER
  5
206
100
AcDbSymbolTableRecord
100
AcDbLayerTableRecord
  2
10_NOTES
 70
0
 62
7
  6
CONTINUOUS
370
-3
390
F
  0
LAYER
  5
207
100
AcDbSymbolTableRecord
100
AcDbLayerTableRecord
  2
11_NOTES_PUB
 70
0
 62
7
  6
CONTINUOUS
370
-3
390
F
  0
LAYER
  5
208
100
AcDbSymbolTableRecord
100
AcDbLayerTableRecord
  2
13_REF_GTOL
 70
0
 62
7
  6
CONTINUOUS
370
-3
390
F
  0
LAYER
  5
209
100
AcDbSymbolTableRecord
100
AcDbLayerTableRecord
  2
16_MISC
 70
0
 62
7
  6
CONTINUOUS
370
-3
390
F
  0
LAYER
  5
20A
100
AcDbSymbolTableRecord
100
AcDbLayerTableRecord
  2
17_NO_PRINT
 70
0
 62
7
  6
CONTINUOUS
370
-3
390
F
  0
LAYER
  5
20B
100
AcDbSymbolTableRecord
100
AcDbLayerTableRecord
  2
18_DATUM_CAMS_JOINTS
 70
0
 62
7
  6
CONTINUOUS
370
-3
390
F
  0
LAYER
  5
20C
100
AcDbSymbolTableRecord
100
AcDbLayerTableRecord
  2
19_DATUM_FUNCTIONAL
 70
0
 62
7
  6
CONTINUOUS
370
-3
390
F
  0
LAYER
  5
20D
100
AcDbSymbolTableRecord
100
AcDbLayerTableRecord
  2
20_DATUM_KINEMATIC_SCHEME
 70
0
 62
7
  6
CONTINUOUS
370
-3
390
F
  0
ENDTAB
  0
TABLE
  2
STYLE
  5
3
100
AcDbSymbolTable
 70
1
  0
STYLE
  5
11
100
AcDbSymbolTableRecord
100
AcDbTextStyleTableRecord
  2
STANDARD
 70
0
 40
0.0
 41
1.0
 50
0.0
 71
0
 42
0.2
  3
ARIAL.TTF
  4

  0
STYLE
  5
20E
100
AcDbSymbolTableRecord
100
AcDbTextStyleTableRecord
  2
TEXTSTYLE_1
 70
0
 40
0.0
 41
0.8
 50
0.0
 71
0
 42
0.2
  3
gdt
  4

  0
ENDTAB
  0
TABLE
  2
VIEW
  5
6
100
AcDbSymbolTable
 70
0
  0
ENDTAB
  0
TABLE
  2
UCS
  5
7
100
AcDbSymbolTable
 70
0
  0
ENDTAB
  0
TABLE
  2
APPID
  5
9
100
AcDbSymbolTable
 70
1
  0
APPID
  5
20F
100
AcDbSymbolTableRecord
100
AcDbRegAppTableRecord
  2
ACAD
 70
0
  0
ENDTAB
  0
TABLE
  2
BLOCK_RECORD
  5
1
100
AcDbSymbolTable
 70
0
  0
BLOCK_RECORD
  5
210
100
AcDbSymbolTableRecord
100
AcDbBlockTableRecord
  2
*Model_Space
  0
BLOCK_RECORD
  5
211
100
AcDbSymbolTableRecord
100
AcDbBlockTableRecord
  2
*Paper_Space
  0
BLOCK_RECORD
  5
212
100
AcDbSymbolTableRecord
100
AcDbBlockTableRecord
  2
_FILLED
  0
ENDTAB
  0
TABLE
  2
DIMSTYLE
  5
A
100
AcDbSymbolTable
 70
1
100
AcDbDimStyleTable
 71
0
  0
DIMSTYLE
105
213
100
AcDbSymbolTableRecord
100
AcDbDimStyleTableRecord
  2
STANDARD
 70
0
  3

  4

 40
1.0
 41
0.9537905566
 42
1.0
 43
0.38
 44
1.0
 45
0.0
 46
0.0
 47
0.01
 48
0.01
140
1.3353067792
141
0.09
142
0.0
143
25.4
144
1.0
145
0.0
146
1.0
147
0.625
 71
1
 72
0
 73
0
 74
0
 75
0
 76
0
 77
1
 78
8
 79
2
170
0
171
1
172
0
173
0
174
0
175
0
176
0
177
0
178
0
270
2
179
2
271
2
272
2
273
2
274
2
275
0
280
0
281
0
282
0
283
1
284
8
285
0
286
0
287
3
288
0
340
11
278
46
341
212
342
212
343
212
344
212
  0
ENDTAB
  0
ENDSEC
  0
SECTION
  2
BLOCKS
  0
BLOCK
  5
20
100
AcDbEntity
  8
0
100
AcDbBlockBegin
  2
*Model_Space
 70
0
 10
0.0
 20
0.0
 30
0.0
  3
*Model_Space
  1

  0
ENDBLK
  5
21
100
AcDbEntity
  8
0
100
AcDbBlockEnd
  0
BLOCK
  5
1C
100
AcDbEntity
  8
0
100
AcDbBlockBegin
  2
*Paper_Space
 70
0
 10
0.0
 20
0.0
 30
0.0
  3
*Paper_Space
  1

  0
ENDBLK
  5
1D
100
AcDbEntity
  8
0
100
AcDbBlockEnd
  0
BLOCK
  5
214
100
AcDbEntity
  8
0
100
AcDbBlockBegin
  2
_FILLED
 70
64
 10
0.0
 20
0.0
  3
_FILLED
  1

  0
SOLID
  5
215
100
AcDbEntity
  8
0
  6
BYBLOCK
 62
0
100
AcDbTrace
 10
0.0
 20
0.0
 11
-1.0
 21
0.25
 12
-1.0
 22
-0.25
 13
-1.0
 23
-0.25
  0
ENDBLK
  5
216
100
AcDbEntity
  8
0
  6
BYBLOCK
 62
0
100
AcDbBlockEnd
  0
ENDSEC
  0
SECTION
  2
ENTITIES
  0
LINE
  5
217
100
AcDbEntity
  8
0
100
AcDbLine
 62
7
  6
BYLAYER
 10
45.9274553344
 20
8.1134071113
 11
45.789799534
 21
8.1134071113
  0
LINE
  5
218
100
AcDbEntity
  8
0
100
AcDbLine
 62
7
  6
BYLAYER
 10
36.4089680143
 20
8.1134071113
 11
36.2713122139
 21
8.1134071113
  0
LINE
  5
219
100
AcDbEntity
  8
0
100
AcDbLine
 62
7
  6
BYLAYER
 10
32.2044282658
 20
20.0083626196
 11
32.5993837742
 21
19.6134071113
  0
LINE
  5
21A
100
AcDbEntity
  8
0
100
AcDbLine
 62
7
  6
BYLAYER
 10
32.2054497913
 20
21.0093841452
 11
32.493317757
 21
20.7215161795
  0
LINE
  5
21B
100
AcDbEntity
  8
0
100
AcDbLine
 62
7
  6
BYLAYER
 10
32.2054497913
 20
22.0093841452
 11
32.493317757
 21
21.7215161795
  0
LINE
  5
21C
100
AcDbEntity
  8
0
100
AcDbLine
 62
7
  6
BYLAYER
 10
32.2054497913
 20
23.0093841452
 11
32.493317757
 21
22.7215161795
  0
LINE
  5
21D
100
AcDbEntity
  8
0
100
AcDbLine
 62
7
  6
BYLAYER
 10
32.2054497913
 20
24.0093841452
 11
32.493317757
 21
23.7215161795
  0
LINE
  5
21E
100
AcDbEntity
  8
0
100
AcDbLine
 62
7
  6
BYLAYER
 10
32.2054497913
 20
25.0093841452
 11
32.493317757
 21
24.7215161795
  0
LINE
  5
21F
100
AcDbEntity
  8
0
100
AcDbLine
 62
7
  6
BYLAYER
 10
32.2054497913
 20
26.0093841452
 11
32.493317757
 21
25.7215161795
  0
LINE
  5
220
100
AcDbEntity
  8
0
100
AcDbLine
 62
7
  6
BYLAYER
 10
32.2054497913
 20
27.0093841452
 11
32.493317757
 21
26.7215161795
  0
LINE
  5
221
100
AcDbEntity
  8
0
100
AcDbLine
 62
7
  6
BYLAYER
 10
32.2054497913
 20
28.0093841452
 11
32.493317757
 21
27.7215161795
  0
LINE
  5
222
100
AcDbEntity
  8
0
100
AcDbLine
 62
7
  6
BYLAYER
 10
32.2054497913
 20
29.0093841452
 11
32.493317757
 21
28.7215161795
  0
LINE
  5
223
100
AcDbEntity
  8
0
100
AcDbLine
 62
7
  6
BYLAYER
 10
32.2054497913
 20
30.0093841452
 11
32.493317757
 21
29.7215161795
  0
LINE
  5
224
100
AcDbEntity
  8
0
100
AcDbLine
 62
7
  6
BYLAYER
 10
32.2054497913
 20
31.0093841452
 11
32.493317757
 21
30.7215161795
  0
LINE
  5
225
100
AcDbEntity
  8
0
100
AcDbLine
 62
7
  6
BYLAYER
 10
32.2054497913
 20
32.0093841452
 11
32.493317757
 21
31.7215161795
  0
LINE
  5
226
100
AcDbEntity
  8
0
100
AcDbLine
 62
7
  6
BYLAYER
 10
32.2054497913
 20
33.0093841452
 11
32.493317757
 21
32.7215161795
  0
LINE
  5
227
100
AcDbEntity
  8
0
100
AcDbLine
 62
7
  6
BYLAYER
 10
32.5993837742
 20
75.6134071113
 11
32.2064713169
 21
75.220494654
  0
LINE
  5
228
100
AcDbEntity
  8
0
100
AcDbLine
 62
7
  6
BYLAYER
 10
32.2054497913
 20
34.0093841452
 11
32.493317757
 21
33.7215161795
  0
LINE
  5
229
100
AcDbEntity
  8
0
100
AcDbLine
 62
7
  6
BYLAYER
 10
32.2054497913
 20
35.0093841452
 11
32.493317757
 21
34.7215161795
  0
LINE
  5
22A
100
AcDbEntity
  8
0
100
AcDbLine
 62
7
  6
BYLAYER
 10
32.2054497913
 20
36.0093841452
 11
32.493317757
 21
35.7215161795
  0
LINE
  5
22B
100
AcDbEntity
  8
0
100
AcDbLine
 62
7
  6
BYLAYER
 10
32.2054497913
 20
37.0093841452
 11
32.493317757
 21
36.7215161795
  0
LINE
  5
22C
100
AcDbEntity
  8
0
100
AcDbLine
 62
7
  6
BYLAYER
 10
49.9943392825
 20
20.220494654
 11
49.7054497913
 21
20.5093841452
  0
LINE
  5
22D
100
AcDbEntity
  8
0
100
AcDbLine
 62
7
  6
BYLAYER
 10
32.2054497913
 20
38.0093841452
 11
32.493317757
 21
37.7215161795
  0
LINE
  5
22E
100
AcDbEntity
  8
0
100
AcDbLine
 62
7
  6
BYLAYER
 10
32.493317757
 20
74.5093841452
 11
32.2054497913
 21
74.2215161795
  0
LINE
  5
22F
100
AcDbEntity
  8
0
100
AcDbLine
 62
7
  6
BYLAYER
 10
32.493317757
 20
73.5093841452
 11
32.2054497913
 21
73.2215161795
  0
LINE
  5
230
100
AcDbEntity
  8
0
100
AcDbLine
 62
7
  6
BYLAYER
 10
32.493317757
 20
72.5093841452
 11
32.2054497913
 21
72.2215161795
  0
LINE
  5
231
100
AcDbEntity
  8
0
100
AcDbLine
 62
7
  6
BYLAYER
 10
32.493317757
 20
71.5093841452
 11
32.2054497913
 21
71.2215161795
  0
LINE
  5
232
100
AcDbEntity
  8
0
100
AcDbLine
 62
7
  6
BYLAYER
 10
32.493317757
 20
70.5093841452
 11
32.2054497913
 21
70.2215161795
  0
LINE
  5
233
100
AcDbEntity
  8
0
100
AcDbLine
 62
7
  6
BYLAYER
 10
49.993317757
 20
21.2215161795
 11
49.7054497913
 21
21.5093841452
  0
LINE
  5
234
100
AcDbEntity
  8
0
100
AcDbLine
 62
7
  6
BYLAYER
 10
32.2054497913
 20
39.0093841452
 11
32.493317757
 21
38.7215161795
  0
LINE
  5
235
100
AcDbEntity
  8
0
100
AcDbLine
 62
7
  6
BYLAYER
 10
49.993317757
 20
22.2215161795
 11
49.7054497913
 21
22.5093841452
  0
LINE
  5
236
100
AcDbEntity
  8
0
100
AcDbLine
 62
7
  6
BYLAYER
 10
32.2054497913
 20
40.0093841452
 11
32.493317757
 21
39.7215161795
  0
LINE
  5
237
100
AcDbEntity
  8
0
100
AcDbLine
 62
7
  6
BYLAYER
 10
49.993317757
 20
23.2215161795
 11
49.7054497913
 21
23.5093841452
  0
LINE
  5
238
100
AcDbEntity
  8
0
100
AcDbLine
 62
7
  6
BYLAYER
 10
32.2054497913
 20
41.0093841452
 11
32.493317757
 21
40.7215161795
  0
LINE
  5
239
100
AcDbEntity
  8
0
100
AcDbLine
 62
7
  6
BYLAYER
 10
49.993317757
 20
24.2215161795
 11
49.7054497913
 21
24.5093841452
  0
LINE
  5
23A
100
AcDbEntity
  8
0
100
AcDbLine
 62
7
  6
BYLAYER
 10
32.2054497913
 20
42.0093841452
 11
32.493317757
 21
41.7215161795
  0
LINE
  5
23B
100
AcDbEntity
  8
0
100
AcDbLine
 62
7
  6
BYLAYER
 10
32.5993837742
 20
18.1403594451
 11
34.8158686245
 21
9.2505242679
  0
LINE
  5
23C
100
AcDbEntity
  8
0
100
AcDbLine
 62
7
  6
BYLAYER
 10
32.493317757
 20
69.5093841452
 11
32.2054497913
 21
69.2215161795
  0
LINE
  5
23D
100
AcDbEntity
  8
0
100
AcDbLine
 62
7
  6
BYLAYER
 10
32.493317757
 20
68.5093841452
 11
32.2054497913
 21
68.2215161795
  0
LINE
  5
23E
100
AcDbEntity
  8
0
100
AcDbLine
 62
7
  6
BYLAYER
 10
32.493317757
 20
67.5093841452
 11
32.2054497913
 21
67.2215161795
  0
LINE
  5
23F
100
AcDbEntity
  8
0
100
AcDbLine
 62
7
  6
BYLAYER
 10
32.493317757
 20
66.5093841452
 11
32.2054497913
 21
66.2215161795
  0
LINE
  5
240
100
AcDbEntity
  8
0
100
AcDbLine
 62
7
  6
BYLAYER
 10
49.993317757
 20
25.2215161795
 11
49.7054497913
 21
25.5093841452
  0
LINE
  5
241
100
AcDbEntity
  8
0
100
AcDbLine
 62
7
  6
BYLAYER
 10
32.2054497913
 20
43.0093841452
 11
32.493317757
 21
42.7215161795
  0
LINE
  5
242
100
AcDbEntity
  8
0
100
AcDbLine
 62
7
  6
BYLAYER
 10
49.993317757
 20
26.2215161795
 11
49.7054497913
 21
26.5093841452
  0
LINE
  5
243
100
AcDbEntity
  8
0
100
AcDbLine
 62
7
  6
BYLAYER
 10
32.2054497913
 20
44.0093841452
 11
32.493317757
 21
43.7215161795
  0
LINE
  5
244
100
AcDbEntity
  8
0
100
AcDbLine
 62
7
  6
BYLAYER
 10
49.993317757
 20
27.2215161795
 11
49.7054497913
 21
27.5093841452
  0
LINE
  5
245
100
AcDbEntity
  8
0
100
AcDbLine
 62
7
  6
BYLAYER
 10
32.2054497913
 20
45.0093841452
 11
32.493317757
 21
44.7215161795
  0
LINE
  5
246
100
AcDbEntity
  8
0
100
AcDbLine
 62
7
  6
BYLAYER
 10
49.993317757
 20
28.2215161795
 11
49.7054497913
 21
28.5093841452
  0
LINE
  5
247
100
AcDbEntity
  8
0
100
AcDbLine
 62
7
  6
BYLAYER
 10
32.2054497913
 20
46.0093841452
 11
32.493317757
 21
45.7215161795
  0
LINE
  5
248
100
AcDbEntity
  8
0
100
AcDbLine
 62
7
  6
BYLAYER
 10
49.993317757
 20
29.2215161795
 11
49.7054497913
 21
29.5093841452
  0
LINE
  5
249
100
AcDbEntity
  8
0
100
AcDbLine
 62
7
  6
BYLAYER
 10
32.2054497913
 20
47.0093841452
 11
32.493317757
 21
46.7215161795
  0
LINE
  5
24A
100
AcDbEntity
  8
0
100
AcDbLine
 62
7
  6
BYLAYER
 10
34.7904907275
 20
88.0397921407
 11
32.5993837742
 21
75.6134071113
  0
LINE
  5
24B
100
AcDbEntity
  8
0
100
AcDbLine
 62
7
  6
BYLAYER
 10
32.493317757
 20
65.5093841452
 11
32.2054497913
 21
65.2215161795
  0
LINE
  5
24C
100
AcDbEntity
  8
0
100
AcDbLine
 62
7
  6
BYLAYER
 10
32.493317757
 20
64.5093841452
 11
32.2054497913
 21
64.2215161795
  0
LINE
  5
24D
100
AcDbEntity
  8
0
100
AcDbLine
 62
7
  6
BYLAYER
 10
32.493317757
 20
63.5093841452
 11
32.2054497913
 21
63.2215161795
  0
LINE
  5
24E
100
AcDbEntity
  8
0
100
AcDbLine
 62
7
  6
BYLAYER
 10
32.493317757
 20
62.5093841452
 11
32.2054497913
 21
62.2215161795
  0
LINE
  5
24F
100
AcDbEntity
  8
0
100
AcDbLine
 62
7
  6
BYLAYER
 10
32.493317757
 20
61.5093841452
 11
32.2054497913
 21
61.2215161795
  0
LINE
  5
250
100
AcDbEntity
  8
0
100
AcDbLine
 62
7
  6
BYLAYER
 10
49.993317757
 20
30.2215161795
 11
49.7054497913
 21
30.5093841452
  0
LINE
  5
251
100
AcDbEntity
  8
0
100
AcDbLine
 62
7
  6
BYLAYER
 10
32.2054497913
 20
48.0093841452
 11
32.493317757
 21
47.7215161795
  0
LINE
  5
252
100
AcDbEntity
  8
0
100
AcDbLine
 62
7
  6
BYLAYER
 10
49.993317757
 20
31.2215161795
 11
49.7054497913
 21
31.5093841452
  0
LINE
  5
253
100
AcDbEntity
  8
0
100
AcDbLine
 62
7
  6
BYLAYER
 10
32.2054497913
 20
49.0093841452
 11
32.493317757
 21
48.7215161795
  0
LINE
  5
254
100
AcDbEntity
  8
0
100
AcDbLine
 62
7
  6
BYLAYER
 10
49.993317757
 20
32.2215161795
 11
49.7054497913
 21
32.5093841452
  0
LINE
  5
255
100
AcDbEntity
  8
0
100
AcDbLine
 62
7
  6
BYLAYER
 10
32.2054497913
 20
50.0093841452
 11
32.493317757
 21
49.7215161795
  0
LINE
  5
256
100
AcDbEntity
  8
0
100
AcDbLine
 62
7
  6
BYLAYER
 10
49.993317757
 20
33.2215161795
 11
49.7054497913
 21
33.5093841452
  0
LINE
  5
257
100
AcDbEntity
  8
0
100
AcDbLine
 62
7
  6
BYLAYER
 10
32.2054497913
 20
51.0093841452
 11
32.493317757
 21
50.7215161795
  0
LINE
  5
258
100
AcDbEntity
  8
0
100
AcDbLine
 62
7
  6
BYLAYER
 10
32.5993837742
 20
18.1403594451
 11
32.5993837742
 21
19.6134071113
  0
LINE
  5
259
100
AcDbEntity
  8
0
100
AcDbLine
 62
7
  6
BYLAYER
 10
32.493317757
 20
60.5093841452
 11
32.2054497913
 21
60.2215161795
  0
LINE
  5
25A
100
AcDbEntity
  8
0
100
AcDbLine
 62
7
  6
BYLAYER
 10
32.493317757
 20
59.5093841452
 11
32.2054497913
 21
59.2215161795
  0
LINE
  5
25B
100
AcDbEntity
  8
0
100
AcDbLine
 62
7
  6
BYLAYER
 10
32.493317757
 20
58.5093841452
 11
32.2054497913
 21
58.2215161795
  0
LINE
  5
25C
100
AcDbEntity
  8
0
100
AcDbLine
 62
7
  6
BYLAYER
 10
32.493317757
 20
57.5093841452
 11
32.2054497913
 21
57.2215161795
  0
LINE
  5
25D
100
AcDbEntity
  8
0
100
AcDbLine
 62
7
  6
BYLAYER
 10
49.7054497913
 20
74.7215161795
 11
49.9922962315
 21
75.0083626196
  0
LINE
  5
25E
100
AcDbEntity
  8
0
100
AcDbLine
 62
7
  6
BYLAYER
 10
32.493317757
 20
56.5093841452
 11
32.2054497913
 21
56.2215161795
  0
LINE
  5
25F
100
AcDbEntity
  8
0
100
AcDbLine
 62
7
  6
BYLAYER
 10
49.7054497913
 20
73.7215161795
 11
49.993317757
 21
74.0093841452
  0
LINE
  5
260
100
AcDbEntity
  8
0
100
AcDbLine
 62
7
  6
BYLAYER
 10
49.993317757
 20
34.2215161795
 11
49.7054497913
 21
34.5093841452
  0
LINE
  5
261
100
AcDbEntity
  8
0
100
AcDbLine
 62
7
  6
BYLAYER
 10
32.2054497913
 20
52.0093841452
 11
32.493317757
 21
51.7215161795
  0
LINE
  5
262
100
AcDbEntity
  8
0
100
AcDbLine
 62
7
  6
BYLAYER
 10
49.993317757
 20
35.2215161795
 11
49.7054497913
 21
35.5093841452
  0
LINE
  5
263
100
AcDbEntity
  8
0
100
AcDbLine
 62
7
  6
BYLAYER
 10
32.2054497913
 20
53.0093841452
 11
32.493317757
 21
52.7215161795
  0
LINE
  5
264
100
AcDbEntity
  8
0
100
AcDbLine
 62
7
  6
BYLAYER
 10
49.993317757
 20
36.2215161795
 11
49.7054497913
 21
36.5093841452
  0
LINE
  5
265
100
AcDbEntity
  8
0
100
AcDbLine
 62
7
  6
BYLAYER
 10
32.2054497913
 20
54.0093841452
 11
32.493317757
 21
53.7215161795
  0
LINE
  5
266
100
AcDbEntity
  8
0
100
AcDbLine
 62
7
  6
BYLAYER
 10
49.993317757
 20
37.2215161795
 11
49.7054497913
 21
37.5093841452
  0
LINE
  5
267
100
AcDbEntity
  8
0
100
AcDbLine
 62
7
  6
BYLAYER
 10
32.2054497913
 20
55.0093841452
 11
32.493317757
 21
54.7215161795
  0
LINE
  5
268
100
AcDbEntity
  8
0
100
AcDbLine
 62
7
  6
BYLAYER
 10
49.993317757
 20
38.2215161795
 11
49.7054497913
 21
38.5093841452
  0
LINE
  5
269
100
AcDbEntity
  8
0
100
AcDbLine
 62
7
  6
BYLAYER
 10
32.2054497913
 20
56.0093841452
 11
32.493317757
 21
55.7215161795
  0
LINE
  5
26A
100
AcDbEntity
  8
0
100
AcDbLine
 62
7
  6
BYLAYER
 10
35.9743837742
 20
75.1134071113
 11
35.9743837742
 21
20.1134071113
  0
LINE
  5
26B
100
AcDbEntity
  8
0
100
AcDbLine
 62
7
  6
BYLAYER
 10
32.493317757
 20
55.5093841452
 11
32.2054497913
 21
55.2215161795
  0
LINE
  5
26C
100
AcDbEntity
  8
0
100
AcDbLine
 62
7
  6
BYLAYER
 10
49.7054497913
 20
72.7215161795
 11
49.993317757
 21
73.0093841452
  0
LINE
  5
26D
100
AcDbEntity
  8
0
100
AcDbLine
 62
7
  6
BYLAYER
 10
32.493317757
 20
54.5093841452
 11
32.2054497913
 21
54.2215161795
  0
LINE
  5
26E
100
AcDbEntity
  8
0
100
AcDbLine
 62
7
  6
BYLAYER
 10
49.7054497913
 20
71.7215161795
 11
49.993317757
 21
72.0093841452
  0
LINE
  5
26F
100
AcDbEntity
  8
0
100
AcDbLine
 62
7
  6
BYLAYER
 10
32.493317757
 20
53.5093841452
 11
32.2054497913
 21
53.2215161795
  0
LINE
  5
270
100
AcDbEntity
  8
0
100
AcDbLine
 62
7
  6
BYLAYER
 10
49.7054497913
 20
70.7215161795
 11
49.993317757
 21
71.0093841452
  0
LINE
  5
271
100
AcDbEntity
  8
0
100
AcDbLine
 62
7
  6
BYLAYER
 10
32.493317757
 20
52.5093841452
 11
32.2054497913
 21
52.2215161795
  0
LINE
  5
272
100
AcDbEntity
  8
0
100
AcDbLine
 62
7
  6
BYLAYER
 10
49.7054497913
 20
69.7215161795
 11
49.993317757
 21
70.0093841452
  0
LINE
  5
273
100
AcDbEntity
  8
0
100
AcDbLine
 62
7
  6
BYLAYER
 10
49.993317757
 20
39.2215161795
 11
49.7054497913
 21
39.5093841452
  0
LINE
  5
274
100
AcDbEntity
  8
0
100
AcDbLine
 62
7
  6
BYLAYER
 10
32.2054497913
 20
57.0093841452
 11
32.493317757
 21
56.7215161795
  0
LINE
  5
275
100
AcDbEntity
  8
0
100
AcDbLine
 62
7
  6
BYLAYER
 10
49.993317757
 20
40.2215161795
 11
49.7054497913
 21
40.5093841452
  0
LINE
  5
276
100
AcDbEntity
  8
0
100
AcDbLine
 62
7
  6
BYLAYER
 10
32.2054497913
 20
58.0093841452
 11
32.493317757
 21
57.7215161795
  0
LINE
  5
277
100
AcDbEntity
  8
0
100
AcDbLine
 62
7
  6
BYLAYER
 10
49.993317757
 20
41.2215161795
 11
49.7054497913
 21
41.5093841452
  0
LINE
  5
278
100
AcDbEntity
  8
0
100
AcDbLine
 62
7
  6
BYLAYER
 10
32.2054497913
 20
59.0093841452
 11
32.493317757
 21
58.7215161795
  0
LINE
  5
279
100
AcDbEntity
  8
0
100
AcDbLine
 62
7
  6
BYLAYER
 10
49.993317757
 20
42.2215161795
 11
49.7054497913
 21
42.5093841452
  0
LINE
  5
27A
100
AcDbEntity
  8
0
100
AcDbLine
 62
7
  6
BYLAYER
 10
32.2054497913
 20
60.0093841452
 11
32.493317757
 21
59.7215161795
  0
LINE
  5
27B
100
AcDbEntity
  8
0
100
AcDbLine
 62
7
  6
BYLAYER
 10
49.993317757
 20
43.2215161795
 11
49.7054497913
 21
43.5093841452
  0
LINE
  5
27C
100
AcDbEntity
  8
0
100
AcDbLine
 62
7
  6
BYLAYER
 10
32.2054497913
 20
61.0093841452
 11
32.493317757
 21
60.7215161795
  0
LINE
  5
27D
100
AcDbEntity
  8
0
100
AcDbLine
 62
7
  6
BYLAYER
 10
32.493317757
 20
51.5093841452
 11
32.2054497913
 21
51.2215161795
  0
LINE
  5
27E
100
AcDbEntity
  8
0
100
AcDbLine
 62
7
  6
BYLAYER
 10
49.7054497913
 20
68.7215161795
 11
49.993317757
 21
69.0093841452
  0
LINE
  5
27F
100
AcDbEntity
  8
0
100
AcDbLine
 62
7
  6
BYLAYER
 10
32.493317757
 20
50.5093841452
 11
32.2054497913
 21
50.2215161795
  0
LINE
  5
280
100
AcDbEntity
  8
0
100
AcDbLine
 62
7
  6
BYLAYER
 10
49.7054497913
 20
67.7215161795
 11
49.993317757
 21
68.0093841452
  0
LINE
  5
281
100
AcDbEntity
  8
0
100
AcDbLine
 62
7
  6
BYLAYER
 10
32.493317757
 20
49.5093841452
 11
32.2054497913
 21
49.2215161795
  0
LINE
  5
282
100
AcDbEntity
  8
0
100
AcDbLine
 62
7
  6
BYLAYER
 10
49.7054497913
 20
66.7215161795
 11
49.993317757
 21
67.0093841452
  0
LINE
  5
283
100
AcDbEntity
  8
0
100
AcDbLine
 62
7
  6
BYLAYER
 10
32.493317757
 20
48.5093841452
 11
32.2054497913
 21
48.2215161795
  0
LINE
  5
284
100
AcDbEntity
  8
0
100
AcDbLine
 62
7
  6
BYLAYER
 10
49.7054497913
 20
65.7215161795
 11
49.993317757
 21
66.0093841452
  0
LINE
  5
285
100
AcDbEntity
  8
0
100
AcDbLine
 62
7
  6
BYLAYER
 10
32.493317757
 20
47.5093841452
 11
32.2054497913
 21
47.2215161795
  0
LINE
  5
286
100
AcDbEntity
  8
0
100
AcDbLine
 62
7
  6
BYLAYER
 10
49.7054497913
 20
64.7215161795
 11
49.993317757
 21
65.0093841452
  0
LINE
  5
287
100
AcDbEntity
  8
0
100
AcDbLine
 62
7
  6
BYLAYER
 10
49.993317757
 20
44.2215161795
 11
49.7054497913
 21
44.5093841452
  0
LINE
  5
288
100
AcDbEntity
  8
0
100
AcDbLine
 62
7
  6
BYLAYER
 10
32.2054497913
 20
62.0093841452
 11
32.493317757
 21
61.7215161795
  0
LINE
  5
289
100
AcDbEntity
  8
0
100
AcDbLine
 62
7
  6
BYLAYER
 10
49.993317757
 20
45.2215161795
 11
49.7054497913
 21
45.5093841452
  0
LINE
  5
28A
100
AcDbEntity
  8
0
100
AcDbLine
 62
7
  6
BYLAYER
 10
32.2054497913
 20
63.0093841452
 11
32.493317757
 21
62.7215161795
  0
LINE
  5
28B
100
AcDbEntity
  8
0
100
AcDbLine
 62
7
  6
BYLAYER
 10
49.993317757
 20
46.2215161795
 11
49.7054497913
 21
46.5093841452
  0
LINE
  5
28C
100
AcDbEntity
  8
0
100
AcDbLine
 62
7
  6
BYLAYER
 10
32.2054497913
 20
64.0093841452
 11
32.493317757
 21
63.7215161795
  0
LINE
  5
28D
100
AcDbEntity
  8
0
100
AcDbLine
 62
7
  6
BYLAYER
 10
49.993317757
 20
47.2215161795
 11
49.7054497913
 21
47.5093841452
  0
LINE
  5
28E
100
AcDbEntity
  8
0
100
AcDbLine
 62
7
  6
BYLAYER
 10
32.2054497913
 20
65.0093841452
 11
32.493317757
 21
64.7215161795
  0
LINE
  5
28F
100
AcDbEntity
  8
0
100
AcDbLine
 62
7
  6
BYLAYER
 10
32.493317757
 20
46.5093841452
 11
32.2054497913
 21
46.2215161795
  0
LINE
  5
290
100
AcDbEntity
  8
0
100
AcDbLine
 62
7
  6
BYLAYER
 10
49.7054497913
 20
63.7215161795
 11
49.993317757
 21
64.0093841452
  0
LINE
  5
291
100
AcDbEntity
  8
0
100
AcDbLine
 62
7
  6
BYLAYER
 10
32.493317757
 20
45.5093841452
 11
32.2054497913
 21
45.2215161795
  0
LINE
  5
292
100
AcDbEntity
  8
0
100
AcDbLine
 62
7
  6
BYLAYER
 10
49.7054497913
 20
62.7215161795
 11
49.993317757
 21
63.0093841452
  0
LINE
  5
293
100
AcDbEntity
  8
0
100
AcDbLine
 62
7
  6
BYLAYER
 10
32.493317757
 20
44.5093841452
 11
32.2054497913
 21
44.2215161795
  0
LINE
  5
294
100
AcDbEntity
  8
0
100
AcDbLine
 62
7
  6
BYLAYER
 10
49.7054497913
 20
61.7215161795
 11
49.993317757
 21
62.0093841452
  0
LINE
  5
295
100
AcDbEntity
  8
0
100
AcDbLine
 62
7
  6
BYLAYER
 10
32.493317757
 20
43.5093841452
 11
32.2054497913
 21
43.2215161795
  0
LINE
  5
296
100
AcDbEntity
  8
0
100
AcDbLine
 62
7
  6
BYLAYER
 10
49.7054497913
 20
60.7215161795
 11
49.993317757
 21
61.0093841452
  0
LINE
  5
297
100
AcDbEntity
  8
0
100
AcDbLine
 62
7
  6
BYLAYER
 10
32.493317757
 20
42.5093841452
 11
32.2054497913
 21
42.2215161795
  0
LINE
  5
298
100
AcDbEntity
  8
0
100
AcDbLine
 62
7
  6
BYLAYER
 10
49.7054497913
 20
59.7215161795
 11
49.993317757
 21
60.0093841452
  0
LINE
  5
299
100
AcDbEntity
  8
0
100
AcDbLine
 62
7
  6
BYLAYER
 10
49.993317757
 20
48.2215161795
 11
49.7054497913
 21
48.5093841452
  0
LINE
  5
29A
100
AcDbEntity
  8
0
100
AcDbLine
 62
7
  6
BYLAYER
 10
32.2054497913
 20
66.0093841452
 11
32.493317757
 21
65.7215161795
  0
LINE
  5
29B
100
AcDbEntity
  8
0
100
AcDbLine
 62
7
  6
BYLAYER
 10
49.993317757
 20
49.2215161795
 11
49.7054497913
 21
49.5093841452
  0
LINE
  5
29C
100
AcDbEntity
  8
0
100
AcDbLine
 62
7
  6
BYLAYER
 10
32.2054497913
 20
67.0093841452
 11
32.493317757
 21
66.7215161795
  0
LINE
  5
29D
100
AcDbEntity
  8
0
100
AcDbLine
 62
7
  6
BYLAYER
 10
49.993317757
 20
50.2215161795
 11
49.7054497913
 21
50.5093841452
  0
LINE
  5
29E
100
AcDbEntity
  8
0
100
AcDbLine
 62
7
  6
BYLAYER
 10
32.2054497913
 20
68.0093841452
 11
32.493317757
 21
67.7215161795
  0
LINE
  5
29F
100
AcDbEntity
  8
0
100
AcDbLine
 62
7
  6
BYLAYER
 10
49.993317757
 20
51.2215161795
 11
49.7054497913
 21
51.5093841452
  0
LINE
  5
2A0
100
AcDbEntity
  8
0
100
AcDbLine
 62
7
  6
BYLAYER
 10
32.2054497913
 20
69.0093841452
 11
32.493317757
 21
68.7215161795
  0
LINE
  5
2A1
100
AcDbEntity
  8
0
100
AcDbLine
 62
7
  6
BYLAYER
 10
49.993317757
 20
52.2215161795
 11
49.7054497913
 21
52.5093841452
  0
LINE
  5
2A2
100
AcDbEntity
  8
0
100
AcDbLine
 62
7
  6
BYLAYER
 10
32.2054497913
 20
70.0093841452
 11
32.493317757
 21
69.7215161795
  0
LINE
  5
2A3
100
AcDbEntity
  8
0
100
AcDbLine
 62
7
  6
BYLAYER
 10
46.2243837742
 20
20.1134071113
 11
46.2243837742
 21
75.1134071113
  0
LINE
  5
2A4
100
AcDbEntity
  8
0
100
AcDbLine
 62
7
  6
BYLAYER
 10
32.493317757
 20
41.5093841452
 11
32.2054497913
 21
41.2215161795
  0
LINE
  5
2A5
100
AcDbEntity
  8
0
100
AcDbLine
 62
7
  6
BYLAYER
 10
49.7054497913
 20
58.7215161795
 11
49.993317757
 21
59.0093841452
  0
LINE
  5
2A6
100
AcDbEntity
  8
0
100
AcDbLine
 62
7
  6
BYLAYER
 10
32.493317757
 20
40.5093841452
 11
32.2054497913
 21
40.2215161795
  0
LINE
  5
2A7
100
AcDbEntity
  8
0
100
AcDbLine
 62
7
  6
BYLAYER
 10
49.7054497913
 20
57.7215161795
 11
49.993317757
 21
58.0093841452
  0
LINE
  5
2A8
100
AcDbEntity
  8
0
100
AcDbLine
 62
7
  6
BYLAYER
 10
32.493317757
 20
39.5093841452
 11
32.2054497913
 21
39.2215161795
  0
LINE
  5
2A9
100
AcDbEntity
  8
0
100
AcDbLine
 62
7
  6
BYLAYER
 10
49.7054497913
 20
56.7215161795
 11
49.993317757
 21
57.0093841452
  0
LINE
  5
2AA
100
AcDbEntity
  8
0
100
AcDbLine
 62
7
  6
BYLAYER
 10
32.493317757
 20
38.5093841452
 11
32.2054497913
 21
38.2215161795
  0
LINE
  5
2AB
100
AcDbEntity
  8
0
100
AcDbLine
 62
7
  6
BYLAYER
 10
49.7054497913
 20
55.7215161795
 11
49.993317757
 21
56.0093841452
  0
LINE
  5
2AC
100
AcDbEntity
  8
0
100
AcDbLine
 62
7
  6
BYLAYER
 10
49.993317757
 20
53.2215161795
 11
49.7054497913
 21
53.5093841452
  0
LINE
  5
2AD
100
AcDbEntity
  8
0
100
AcDbLine
 62
7
  6
BYLAYER
 10
32.2054497913
 20
71.0093841452
 11
32.493317757
 21
70.7215161795
  0
LINE
  5
2AE
100
AcDbEntity
  8
0
100
AcDbLine
 62
7
  6
BYLAYER
 10
49.993317757
 20
54.2215161795
 11
49.7054497913
 21
54.5093841452
  0
LINE
  5
2AF
100
AcDbEntity
  8
0
100
AcDbLine
 62
7
  6
BYLAYER
 10
32.2054497913
 20
72.0093841452
 11
32.493317757
 21
71.7215161795
  0
LINE
  5
2B0
100
AcDbEntity
  8
0
100
AcDbLine
 62
7
  6
BYLAYER
 10
49.993317757
 20
55.2215161795
 11
49.7054497913
 21
55.5093841452
  0
LINE
  5
2B1
100
AcDbEntity
  8
0
100
AcDbLine
 62
7
  6
BYLAYER
 10
32.2054497913
 20
73.0093841452
 11
32.493317757
 21
72.7215161795
  0
LINE
  5
2B2
100
AcDbEntity
  8
0
100
AcDbLine
 62
7
  6
BYLAYER
 10
49.993317757
 20
56.2215161795
 11
49.7054497913
 21
56.5093841452
  0
LINE
  5
2B3
100
AcDbEntity
  8
0
100
AcDbLine
 62
7
  6
BYLAYER
 10
32.2054497913
 20
74.0093841452
 11
32.493317757
 21
73.7215161795
  0
LINE
  5
2B4
100
AcDbEntity
  8
0
100
AcDbLine
 62
7
  6
BYLAYER
 10
49.993317757
 20
57.2215161795
 11
49.7054497913
 21
57.5093841452
  0
LINE
  5
2B5
100
AcDbEntity
  8
0
100
AcDbLine
 62
7
  6
BYLAYER
 10
32.2064713169
 20
75.0083626196
 11
32.493317757
 21
74.7215161795
  0
LINE
  5
2B6
100
AcDbEntity
  8
0
100
AcDbLine
 62
7
  6
BYLAYER
 10
49.5993837742
 20
19.6134071113
 11
49.5993837742
 21
18.1403594451
  0
LINE
  5
2B7
100
AcDbEntity
  8
0
100
AcDbLine
 62
7
  6
BYLAYER
 10
32.493317757
 20
37.5093841452
 11
32.2054497913
 21
37.2215161795
  0
LINE
  5
2B8
100
AcDbEntity
  8
0
100
AcDbLine
 62
7
  6
BYLAYER
 10
49.7054497913
 20
54.7215161795
 11
49.993317757
 21
55.0093841452
  0
LINE
  5
2B9
100
AcDbEntity
  8
0
100
AcDbLine
 62
7
  6
BYLAYER
 10
32.493317757
 20
36.5093841452
 11
32.2054497913
 21
36.2215161795
  0
LINE
  5
2BA
100
AcDbEntity
  8
0
100
AcDbLine
 62
7
  6
BYLAYER
 10
49.7054497913
 20
53.7215161795
 11
49.993317757
 21
54.0093841452
  0
LINE
  5
2BB
100
AcDbEntity
  8
0
100
AcDbLine
 62
7
  6
BYLAYER
 10
32.493317757
 20
35.5093841452
 11
32.2054497913
 21
35.2215161795
  0
LINE
  5
2BC
100
AcDbEntity
  8
0
100
AcDbLine
 62
7
  6
BYLAYER
 10
49.7054497913
 20
52.7215161795
 11
49.993317757
 21
53.0093841452
  0
LINE
  5
2BD
100
AcDbEntity
  8
0
100
AcDbLine
 62
7
  6
BYLAYER
 10
32.493317757
 20
34.5093841452
 11
32.2054497913
 21
34.2215161795
  0
LINE
  5
2BE
100
AcDbEntity
  8
0
100
AcDbLine
 62
7
  6
BYLAYER
 10
49.7054497913
 20
51.7215161795
 11
49.993317757
 21
52.0093841452
  0
LINE
  5
2BF
100
AcDbEntity
  8
0
100
AcDbLine
 62
7
  6
BYLAYER
 10
32.493317757
 20
33.5093841452
 11
32.2054497913
 21
33.2215161795
  0
LINE
  5
2C0
100
AcDbEntity
  8
0
100
AcDbLine
 62
7
  6
BYLAYER
 10
49.7054497913
 20
50.7215161795
 11
49.993317757
 21
51.0093841452
  0
LINE
  5
2C1
100
AcDbEntity
  8
0
100
AcDbLine
 62
7
  6
BYLAYER
 10
49.993317757
 20
58.2215161795
 11
49.7054497913
 21
58.5093841452
  0
LINE
  5
2C2
100
AcDbEntity
  8
0
100
AcDbLine
 62
7
  6
BYLAYER
 10
49.993317757
 20
59.2215161795
 11
49.7054497913
 21
59.5093841452
  0
LINE
  5
2C3
100
AcDbEntity
  8
0
100
AcDbLine
 62
7
  6
BYLAYER
 10
49.993317757
 20
60.2215161795
 11
49.7054497913
 21
60.5093841452
  0
LINE
  5
2C4
100
AcDbEntity
  8
0
100
AcDbLine
 62
7
  6
BYLAYER
 10
49.993317757
 20
61.2215161795
 11
49.7054497913
 21
61.5093841452
  0
LINE
  5
2C5
100
AcDbEntity
  8
0
100
AcDbLine
 62
7
  6
BYLAYER
 10
32.493317757
 20
32.5093841452
 11
32.2054497913
 21
32.2215161795
  0
LINE
  5
2C6
100
AcDbEntity
  8
0
100
AcDbLine
 62
7
  6
BYLAYER
 10
49.7054497913
 20
49.7215161795
 11
49.993317757
 21
50.0093841452
  0
LINE
  5
2C7
100
AcDbEntity
  8
0
100
AcDbLine
 62
7
  6
BYLAYER
 10
32.493317757
 20
31.5093841452
 11
32.2054497913
 21
31.2215161795
  0
LINE
  5
2C8
100
AcDbEntity
  8
0
100
AcDbLine
 62
7
  6
BYLAYER
 10
49.7054497913
 20
48.7215161795
 11
49.993317757
 21
49.0093841452
  0
LINE
  5
2C9
100
AcDbEntity
  8
0
100
AcDbLine
 62
7
  6
BYLAYER
 10
32.493317757
 20
30.5093841452
 11
32.2054497913
 21
30.2215161795
  0
LINE
  5
2CA
100
AcDbEntity
  8
0
100
AcDbLine
 62
7
  6
BYLAYER
 10
49.7054497913
 20
47.7215161795
 11
49.993317757
 21
48.0093841452
  0
LINE
  5
2CB
100
AcDbEntity
  8
0
100
AcDbLine
 62
7
  6
BYLAYER
 10
32.493317757
 20
29.5093841452
 11
32.2054497913
 21
29.2215161795
  0
LINE
  5
2CC
100
AcDbEntity
  8
0
100
AcDbLine
 62
7
  6
BYLAYER
 10
49.7054497913
 20
46.7215161795
 11
49.993317757
 21
47.0093841452
  0
LINE
  5
2CD
100
AcDbEntity
  8
0
100
AcDbLine
 62
7
  6
BYLAYER
 10
49.993317757
 20
62.2215161795
 11
49.7054497913
 21
62.5093841452
  0
LINE
  5
2CE
100
AcDbEntity
  8
0
100
AcDbLine
 62
7
  6
BYLAYER
 10
49.993317757
 20
63.2215161795
 11
49.7054497913
 21
63.5093841452
  0
LINE
  5
2CF
100
AcDbEntity
  8
0
100
AcDbLine
 62
7
  6
BYLAYER
 10
49.993317757
 20
64.2215161795
 11
49.7054497913
 21
64.5093841452
  0
LINE
  5
2D0
100
AcDbEntity
  8
0
100
AcDbLine
 62
7
  6
BYLAYER
 10
49.993317757
 20
65.2215161795
 11
49.7054497913
 21
65.5093841452
  0
LINE
  5
2D1
100
AcDbEntity
  8
0
100
AcDbLine
 62
7
  6
BYLAYER
 10
49.993317757
 20
66.2215161795
 11
49.7054497913
 21
66.5093841452
  0
LINE
  5
2D2
100
AcDbEntity
  8
0
100
AcDbLine
 62
7
  6
BYLAYER
 10
49.5993837742
 20
75.6134071113
 11
47.4083120024
 21
88.0395926158
  0
LINE
  5
2D3
100
AcDbEntity
  8
0
100
AcDbLine
 62
7
  6
BYLAYER
 10
32.493317757
 20
28.5093841452
 11
32.2054497913
 21
28.2215161795
  0
LINE
  5
2D4
100
AcDbEntity
  8
0
100
AcDbLine
 62
7
  6
BYLAYER
 10
49.7054497913
 20
45.7215161795
 11
49.993317757
 21
46.0093841452
  0
LINE
  5
2D5
100
AcDbEntity
  8
0
100
AcDbLine
 62
7
  6
BYLAYER
 10
32.493317757
 20
27.5093841452
 11
32.2054497913
 21
27.2215161795
  0
LINE
  5
2D6
100
AcDbEntity
  8
0
100
AcDbLine
 62
7
  6
BYLAYER
 10
49.7054497913
 20
44.7215161795
 11
49.993317757
 21
45.0093841452
  0
LINE
  5
2D7
100
AcDbEntity
  8
0
100
AcDbLine
 62
7
  6
BYLAYER
 10
32.493317757
 20
26.5093841452
 11
32.2054497913
 21
26.2215161795
  0
LINE
  5
2D8
100
AcDbEntity
  8
0
100
AcDbLine
 62
7
  6
BYLAYER
 10
49.7054497913
 20
43.7215161795
 11
49.993317757
 21
44.0093841452
  0
LINE
  5
2D9
100
AcDbEntity
  8
0
100
AcDbLine
 62
7
  6
BYLAYER
 10
32.493317757
 20
25.5093841452
 11
32.2054497913
 21
25.2215161795
  0
LINE
  5
2DA
100
AcDbEntity
  8
0
100
AcDbLine
 62
7
  6
BYLAYER
 10
49.7054497913
 20
42.7215161795
 11
49.993317757
 21
43.0093841452
  0
LINE
  5
2DB
100
AcDbEntity
  8
0
100
AcDbLine
 62
7
  6
BYLAYER
 10
32.493317757
 20
24.5093841452
 11
32.2054497913
 21
24.2215161795
  0
LINE
  5
2DC
100
AcDbEntity
  8
0
100
AcDbLine
 62
7
  6
BYLAYER
 10
49.7054497913
 20
41.7215161795
 11
49.993317757
 21
42.0093841452
  0
LINE
  5
2DD
100
AcDbEntity
  8
0
100
AcDbLine
 62
7
  6
BYLAYER
 10
49.993317757
 20
67.2215161795
 11
49.7054497913
 21
67.5093841452
  0
LINE
  5
2DE
100
AcDbEntity
  8
0
100
AcDbLine
 62
7
  6
BYLAYER
 10
49.993317757
 20
68.2215161795
 11
49.7054497913
 21
68.5093841452
  0
LINE
  5
2DF
100
AcDbEntity
  8
0
100
AcDbLine
 62
7
  6
BYLAYER
 10
49.993317757
 20
69.2215161795
 11
49.7054497913
 21
69.5093841452
  0
LINE
  5
2E0
100
AcDbEntity
  8
0
100
AcDbLine
 62
7
  6
BYLAYER
 10
49.993317757
 20
70.2215161795
 11
49.7054497913
 21
70.5093841452
  0
LINE
  5
2E1
100
AcDbEntity
  8
0
100
AcDbLine
 62
7
  6
BYLAYER
 10
47.3828989238
 20
9.2505242679
 11
49.5993837742
 21
18.1403594451
  0
LINE
  5
2E2
100
AcDbEntity
  8
0
100
AcDbLine
 62
7
  6
BYLAYER
 10
32.493317757
 20
23.5093841452
 11
32.2054497913
 21
23.2215161795
  0
LINE
  5
2E3
100
AcDbEntity
  8
0
100
AcDbLine
 62
7
  6
BYLAYER
 10
49.7054497913
 20
40.7215161795
 11
49.993317757
 21
41.0093841452
  0
LINE
  5
2E4
100
AcDbEntity
  8
0
100
AcDbLine
 62
7
  6
BYLAYER
 10
32.493317757
 20
22.5093841452
 11
32.2054497913
 21
22.2215161795
  0
LINE
  5
2E5
100
AcDbEntity
  8
0
100
AcDbLine
 62
7
  6
BYLAYER
 10
49.7054497913
 20
39.7215161795
 11
49.993317757
 21
40.0093841452
  0
LINE
  5
2E6
100
AcDbEntity
  8
0
100
AcDbLine
 62
7
  6
BYLAYER
 10
32.493317757
 20
21.5093841452
 11
32.2054497913
 21
21.2215161795
  0
LINE
  5
2E7
100
AcDbEntity
  8
0
100
AcDbLine
 62
7
  6
BYLAYER
 10
49.7054497913
 20
38.7215161795
 11
49.993317757
 21
39.0093841452
  0
LINE
  5
2E8
100
AcDbEntity
  8
0
100
AcDbLine
 62
7
  6
BYLAYER
 10
32.493317757
 20
20.5093841452
 11
32.2044282658
 21
20.220494654
  0
LINE
  5
2E9
100
AcDbEntity
  8
0
100
AcDbLine
 62
7
  6
BYLAYER
 10
49.7054497913
 20
37.7215161795
 11
49.993317757
 21
38.0093841452
  0
LINE
  5
2EA
100
AcDbEntity
  8
0
100
AcDbLine
 62
7
  6
BYLAYER
 10
49.7054497913
 20
36.7215161795
 11
49.993317757
 21
37.0093841452
  0
LINE
  5
2EB
100
AcDbEntity
  8
0
100
AcDbLine
 62
7
  6
BYLAYER
 10
49.993317757
 20
71.2215161795
 11
49.7054497913
 21
71.5093841452
  0
LINE
  5
2EC
100
AcDbEntity
  8
0
100
AcDbLine
 62
7
  6
BYLAYER
 10
49.993317757
 20
72.2215161795
 11
49.7054497913
 21
72.5093841452
  0
LINE
  5
2ED
100
AcDbEntity
  8
0
100
AcDbLine
 62
7
  6
BYLAYER
 10
49.993317757
 20
73.2215161795
 11
49.7054497913
 21
73.5093841452
  0
LINE
  5
2EE
100
AcDbEntity
  8
0
100
AcDbLine
 62
7
  6
BYLAYER
 10
49.993317757
 20
74.2215161795
 11
49.7054497913
 21
74.5093841452
  0
LINE
  5
2EF
100
AcDbEntity
  8
0
100
AcDbLine
 62
7
  6
BYLAYER
 10
49.9922962315
 20
75.220494654
 11
49.5993837742
 21
75.6134071113
  0
LINE
  5
2F0
100
AcDbEntity
  8
0
100
AcDbLine
 62
7
  6
BYLAYER
 10
49.7054497913
 20
35.7215161795
 11
49.993317757
 21
36.0093841452
  0
LINE
  5
2F1
100
AcDbEntity
  8
0
100
AcDbLine
 62
7
  6
BYLAYER
 10
49.7054497913
 20
34.7215161795
 11
49.993317757
 21
35.0093841452
  0
LINE
  5
2F2
100
AcDbEntity
  8
0
100
AcDbLine
 62
7
  6
BYLAYER
 10
49.7054497913
 20
33.7215161795
 11
49.993317757
 21
34.0093841452
  0
LINE
  5
2F3
100
AcDbEntity
  8
0
100
AcDbLine
 62
7
  6
BYLAYER
 10
49.7054497913
 20
32.7215161795
 11
49.993317757
 21
33.0093841452
  0
LINE
  5
2F4
100
AcDbEntity
  8
0
100
AcDbLine
 62
7
  6
BYLAYER
 10
49.7054497913
 20
31.7215161795
 11
49.993317757
 21
32.0093841452
  0
LINE
  5
2F5
100
AcDbEntity
  8
0
100
AcDbLine
 62
7
  6
BYLAYER
 10
49.7054497913
 20
30.7215161795
 11
49.993317757
 21
31.0093841452
  0
LINE
  5
2F6
100
AcDbEntity
  8
0
100
AcDbLine
 62
7
  6
BYLAYER
 10
49.7054497913
 20
29.7215161795
 11
49.993317757
 21
30.0093841452
  0
LINE
  5
2F7
100
AcDbEntity
  8
0
100
AcDbLine
 62
7
  6
BYLAYER
 10
49.7054497913
 20
28.7215161795
 11
49.993317757
 21
29.0093841452
  0
LINE
  5
2F8
100
AcDbEntity
  8
0
100
AcDbLine
 62
7
  6
BYLAYER
 10
49.7054497913
 20
27.7215161795
 11
49.993317757
 21
28.0093841452
  0
LINE
  5
2F9
100
AcDbEntity
  8
0
100
AcDbLine
 62
7
  6
BYLAYER
 10
49.7054497913
 20
26.7215161795
 11
49.993317757
 21
27.0093841452
  0
LINE
  5
2FA
100
AcDbEntity
  8
0
100
AcDbLine
 62
7
  6
BYLAYER
 10
49.7054497913
 20
25.7215161795
 11
49.993317757
 21
26.0093841452
  0
LINE
  5
2FB
100
AcDbEntity
  8
0
100
AcDbLine
 62
7
  6
BYLAYER
 10
49.7054497913
 20
24.7215161795
 11
49.993317757
 21
25.0093841452
  0
LINE
  5
2FC
100
AcDbEntity
  8
0
100
AcDbLine
 62
7
  6
BYLAYER
 10
49.7054497913
 20
23.7215161795
 11
49.993317757
 21
24.0093841452
  0
LINE
  5
2FD
100
AcDbEntity
  8
0
100
AcDbLine
 62
7
  6
BYLAYER
 10
49.7054497913
 20
22.7215161795
 11
49.993317757
 21
23.0093841452
  0
LINE
  5
2FE
100
AcDbEntity
  8
0
100
AcDbLine
 62
7
  6
BYLAYER
 10
49.7054497913
 20
21.7215161795
 11
49.993317757
 21
22.0093841452
  0
LINE
  5
2FF
100
AcDbEntity
  8
0
100
AcDbLine
 62
7
  6
BYLAYER
 10
49.7054497913
 20
20.7215161795
 11
49.993317757
 21
21.0093841452
  0
LINE
  5
300
100
AcDbEntity
  8
0
100
AcDbLine
 62
7
  6
BYLAYER
 10
49.5993837742
 20
19.6134071113
 11
49.9943392825
 21
20.0083626196
  0
ARC
  5
301
100
AcDbEntity
  8
0
100
AcDbCircle
 62
7
  6
BYLAYER
 10
32.310494283
 20
20.1144286368
 40
0.15
100
AcDbArc
 50
135.000000008
 51
225.000000002
  0
ARC
  5
302
100
AcDbEntity
  8
0
100
AcDbCircle
 62
7
  6
BYLAYER
 10
32.3872517398
 20
20.6154501623
 40
0.15
100
AcDbArc
 50
314.999999998
 51
44.999999998
  0
ARC
  5
303
100
AcDbEntity
  8
0
100
AcDbCircle
 62
7
  6
BYLAYER
 10
32.3115158085
 20
21.1154501623
 40
0.15
100
AcDbArc
 50
135.000000002
 51
225.000000002
  0
ARC
  5
304
100
AcDbEntity
  8
0
100
AcDbCircle
 62
7
  6
BYLAYER
 10
32.3872517398
 20
21.6154501623
 40
0.15
100
AcDbArc
 50
314.999999998
 51
44.999999998
  0
ARC
  5
305
100
AcDbEntity
  8
0
100
AcDbCircle
 62
7
  6
BYLAYER
 10
32.3115158085
 20
22.1154501623
 40
0.15
100
AcDbArc
 50
135.000000002
 51
225.000000002
  0
ARC
  5
306
100
AcDbEntity
  8
0
100
AcDbCircle
 62
7
  6
BYLAYER
 10
32.3872517398
 20
22.6154501623
 40
0.15
100
AcDbArc
 50
314.999999998
 51
44.999999998
  0
ARC
  5
307
100
AcDbEntity
  8
0
100
AcDbCircle
 62
7
  6
BYLAYER
 10
32.3115158085
 20
23.1154501623
 40
0.15
100
AcDbArc
 50
135.000000002
 51
225.000000002
  0
ARC
  5
308
100
AcDbEntity
  8
0
100
AcDbCircle
 62
7
  6
BYLAYER
 10
32.3872517398
 20
23.6154501623
 40
0.15
100
AcDbArc
 50
314.999999998
 51
44.999999998
  0
ARC
  5
309
100
AcDbEntity
  8
0
100
AcDbCircle
 62
7
  6
BYLAYER
 10
32.3115158085
 20
24.1154501623
 40
0.15
100
AcDbArc
 50
135.000000002
 51
225.000000002
  0
ARC
  5
30A
100
AcDbEntity
  8
0
100
AcDbCircle
 62
7
  6
BYLAYER
 10
32.3872517398
 20
24.6154501623
 40
0.15
100
AcDbArc
 50
314.999999998
 51
44.999999998
  0
ARC
  5
30B
100
AcDbEntity
  8
0
100
AcDbCircle
 62
7
  6
BYLAYER
 10
32.3115158085
 20
25.1154501623
 40
0.15
100
AcDbArc
 50
135.000000002
 51
225.000000002
  0
ARC
  5
30C
100
AcDbEntity
  8
0
100
AcDbCircle
 62
7
  6
BYLAYER
 10
32.3872517398
 20
25.6154501623
 40
0.15
100
AcDbArc
 50
314.999999998
 51
44.999999998
  0
ARC
  5
30D
100
AcDbEntity
  8
0
100
AcDbCircle
 62
7
  6
BYLAYER
 10
32.3115158085
 20
26.1154501623
 40
0.15
100
AcDbArc
 50
135.000000002
 51
225.000000002
  0
ARC
  5
30E
100
AcDbEntity
  8
0
100
AcDbCircle
 62
7
  6
BYLAYER
 10
32.3872517398
 20
26.6154501623
 40
0.15
100
AcDbArc
 50
314.999999998
 51
44.999999998
  0
ARC
  5
30F
100
AcDbEntity
  8
0
100
AcDbCircle
 62
7
  6
BYLAYER
 10
32.3115158085
 20
27.1154501623
 40
0.15
100
AcDbArc
 50
135.000000002
 51
225.000000002
  0
ARC
  5
310
100
AcDbEntity
  8
0
100
AcDbCircle
 62
7
  6
BYLAYER
 10
32.3872517398
 20
27.6154501623
 40
0.15
100
AcDbArc
 50
314.999999998
 51
44.999999998
  0
ARC
  5
311
100
AcDbEntity
  8
0
100
AcDbCircle
 62
7
  6
BYLAYER
 10
32.3115158085
 20
28.1154501623
 40
0.15
100
AcDbArc
 50
135.000000002
 51
225.000000002
  0
ARC
  5
312
100
AcDbEntity
  8
0
100
AcDbCircle
 62
7
  6
BYLAYER
 10
32.3872517398
 20
28.6154501623
 40
0.15
100
AcDbArc
 50
314.999999998
 51
44.999999998
  0
ARC
  5
313
100
AcDbEntity
  8
0
100
AcDbCircle
 62
7
  6
BYLAYER
 10
32.3115158085
 20
29.1154501623
 40
0.15
100
AcDbArc
 50
135.000000002
 51
225.000000002
  0
ARC
  5
314
100
AcDbEntity
  8
0
100
AcDbCircle
 62
7
  6
BYLAYER
 10
32.3872517398
 20
29.6154501623
 40
0.15
100
AcDbArc
 50
314.999999998
 51
44.999999998
  0
ARC
  5
315
100
AcDbEntity
  8
0
100
AcDbCircle
 62
7
  6
BYLAYER
 10
32.3115158085
 20
30.1154501623
 40
0.15
100
AcDbArc
 50
135.000000002
 51
225.000000002
  0
ARC
  5
316
100
AcDbEntity
  8
0
100
AcDbCircle
 62
7
  6
BYLAYER
 10
32.3872517398
 20
30.6154501623
 40
0.15
100
AcDbArc
 50
314.999999998
 51
44.999999998
  0
ARC
  5
317
100
AcDbEntity
  8
0
100
AcDbCircle
 62
7
  6
BYLAYER
 10
32.3115158085
 20
31.1154501623
 40
0.15
100
AcDbArc
 50
135.000000002
 51
225.000000002
  0
ARC
  5
318
100
AcDbEntity
  8
0
100
AcDbCircle
 62
7
  6
BYLAYER
 10
32.3872517398
 20
31.6154501623
 40
0.15
100
AcDbArc
 50
314.999999998
 51
44.999999998
  0
ARC
  5
319
100
AcDbEntity
  8
0
100
AcDbCircle
 62
7
  6
BYLAYER
 10
32.3115158085
 20
32.1154501623
 40
0.15
100
AcDbArc
 50
135.000000002
 51
225.000000002
  0
ARC
  5
31A
100
AcDbEntity
  8
0
100
AcDbCircle
 62
7
  6
BYLAYER
 10
32.3872517398
 20
32.6154501623
 40
0.15
100
AcDbArc
 50
314.999999998
 51
44.999999998
  0
ARC
  5
31B
100
AcDbEntity
  8
0
100
AcDbCircle
 62
7
  6
BYLAYER
 10
32.3115158085
 20
33.1154501623
 40
0.15
100
AcDbArc
 50
135.000000002
 51
225.000000002
  0
ARC
  5
31C
100
AcDbEntity
  8
0
100
AcDbCircle
 62
7
  6
BYLAYER
 10
32.3872517398
 20
33.6154501623
 40
0.15
100
AcDbArc
 50
314.999999998
 51
44.999999998
  0
ARC
  5
31D
100
AcDbEntity
  8
0
100
AcDbCircle
 62
7
  6
BYLAYER
 10
32.3115158085
 20
34.1154501623
 40
0.15
100
AcDbArc
 50
135.000000002
 51
225.000000002
  0
ARC
  5
31E
100
AcDbEntity
  8
0
100
AcDbCircle
 62
7
  6
BYLAYER
 10
32.3872517398
 20
34.6154501623
 40
0.15
100
AcDbArc
 50
314.999999998
 51
44.999999998
  0
ARC
  5
31F
100
AcDbEntity
  8
0
100
AcDbCircle
 62
7
  6
BYLAYER
 10
32.3115158085
 20
35.1154501623
 40
0.15
100
AcDbArc
 50
135.000000002
 51
225.000000002
  0
ARC
  5
320
100
AcDbEntity
  8
0
100
AcDbCircle
 62
7
  6
BYLAYER
 10
32.3872517398
 20
35.6154501623
 40
0.15
100
AcDbArc
 50
314.999999998
 51
44.999999998
  0
ARC
  5
321
100
AcDbEntity
  8
0
100
AcDbCircle
 62
7
  6
BYLAYER
 10
32.3115158085
 20
36.1154501623
 40
0.15
100
AcDbArc
 50
135.000000002
 51
225.000000002
  0
ARC
  5
322
100
AcDbEntity
  8
0
100
AcDbCircle
 62
7
  6
BYLAYER
 10
32.3872517398
 20
36.6154501623
 40
0.15
100
AcDbArc
 50
314.999999998
 51
44.999999998
  0
ARC
  5
323
100
AcDbEntity
  8
0
100
AcDbCircle
 62
7
  6
BYLAYER
 10
32.3115158085
 20
37.1154501623
 40
0.15
100
AcDbArc
 50
135.000000002
 51
225.000000002
  0
ARC
  5
324
100
AcDbEntity
  8
0
100
AcDbCircle
 62
7
  6
BYLAYER
 10
32.3872517398
 20
37.6154501623
 40
0.15
100
AcDbArc
 50
314.999999998
 51
44.999999998
  0
ARC
  5
325
100
AcDbEntity
  8
0
100
AcDbCircle
 62
7
  6
BYLAYER
 10
32.3115158085
 20
38.1154501623
 40
0.15
100
AcDbArc
 50
135.000000002
 51
225.000000002
  0
ARC
  5
326
100
AcDbEntity
  8
0
100
AcDbCircle
 62
7
  6
BYLAYER
 10
32.3872517398
 20
38.6154501623
 40
0.15
100
AcDbArc
 50
314.999999998
 51
44.999999998
  0
ARC
  5
327
100
AcDbEntity
  8
0
100
AcDbCircle
 62
7
  6
BYLAYER
 10
32.3115158085
 20
39.1154501623
 40
0.15
100
AcDbArc
 50
135.000000002
 51
225.000000002
  0
ARC
  5
328
100
AcDbEntity
  8
0
100
AcDbCircle
 62
7
  6
BYLAYER
 10
32.3872517398
 20
39.6154501623
 40
0.15
100
AcDbArc
 50
314.999999998
 51
44.999999998
  0
ARC
  5
329
100
AcDbEntity
  8
0
100
AcDbCircle
 62
7
  6
BYLAYER
 10
32.3115158085
 20
40.1154501623
 40
0.15
100
AcDbArc
 50
135.000000002
 51
225.000000002
  0
ARC
  5
32A
100
AcDbEntity
  8
0
100
AcDbCircle
 62
7
  6
BYLAYER
 10
32.3872517398
 20
40.6154501623
 40
0.15
100
AcDbArc
 50
314.999999998
 51
44.999999998
  0
ARC
  5
32B
100
AcDbEntity
  8
0
100
AcDbCircle
 62
7
  6
BYLAYER
 10
32.3115158085
 20
41.1154501623
 40
0.15
100
AcDbArc
 50
135.000000002
 51
225.000000002
  0
ARC
  5
32C
100
AcDbEntity
  8
0
100
AcDbCircle
 62
7
  6
BYLAYER
 10
32.3872517398
 20
41.6154501623
 40
0.15
100
AcDbArc
 50
314.999999998
 51
44.999999998
  0
ARC
  5
32D
100
AcDbEntity
  8
0
100
AcDbCircle
 62
7
  6
BYLAYER
 10
32.3115158085
 20
42.1154501623
 40
0.15
100
AcDbArc
 50
135.000000002
 51
225.000000002
  0
ARC
  5
32E
100
AcDbEntity
  8
0
100
AcDbCircle
 62
7
  6
BYLAYER
 10
32.3872517398
 20
42.6154501623
 40
0.15
100
AcDbArc
 50
314.999999998
 51
44.999999998
  0
ARC
  5
32F
100
AcDbEntity
  8
0
100
AcDbCircle
 62
7
  6
BYLAYER
 10
32.3115158085
 20
43.1154501623
 40
0.15
100
AcDbArc
 50
135.000000002
 51
225.000000002
  0
ARC
  5
330
100
AcDbEntity
  8
0
100
AcDbCircle
 62
7
  6
BYLAYER
 10
32.3872517398
 20
43.6154501623
 40
0.15
100
AcDbArc
 50
314.999999998
 51
44.999999998
  0
ARC
  5
331
100
AcDbEntity
  8
0
100
AcDbCircle
 62
7
  6
BYLAYER
 10
32.3115158085
 20
44.1154501623
 40
0.15
100
AcDbArc
 50
135.0000000019
 51
225.0000000021
  0
ARC
  5
332
100
AcDbEntity
  8
0
100
AcDbCircle
 62
7
  6
BYLAYER
 10
32.3872517398
 20
44.6154501623
 40
0.15
100
AcDbArc
 50
314.999999998
 51
44.999999998
  0
ARC
  5
333
100
AcDbEntity
  8
0
100
AcDbCircle
 62
7
  6
BYLAYER
 10
32.3115158085
 20
45.1154501623
 40
0.15
100
AcDbArc
 50
135.0000000019
 51
225.0000000021
  0
ARC
  5
334
100
AcDbEntity
  8
0
100
AcDbCircle
 62
7
  6
BYLAYER
 10
32.3872517398
 20
45.6154501623
 40
0.15
100
AcDbArc
 50
314.999999998
 51
44.999999998
  0
ARC
  5
335
100
AcDbEntity
  8
0
100
AcDbCircle
 62
7
  6
BYLAYER
 10
32.3115158085
 20
46.1154501623
 40
0.15
100
AcDbArc
 50
135.000000002
 51
225.000000002
  0
ARC
  5
336
100
AcDbEntity
  8
0
100
AcDbCircle
 62
7
  6
BYLAYER
 10
32.3872517398
 20
46.6154501623
 40
0.15
100
AcDbArc
 50
314.9999999979
 51
44.999999998
  0
ARC
  5
337
100
AcDbEntity
  8
0
100
AcDbCircle
 62
7
  6
BYLAYER
 10
32.3115158085
 20
47.1154501623
 40
0.15
100
AcDbArc
 50
135.0000000019
 51
225.000000002
  0
ARC
  5
338
100
AcDbEntity
  8
0
100
AcDbCircle
 62
7
  6
BYLAYER
 10
32.3872517398
 20
47.6154501623
 40
0.15
100
AcDbArc
 50
314.9999999979
 51
44.999999998
  0
ARC
  5
339
100
AcDbEntity
  8
0
100
AcDbCircle
 62
7
  6
BYLAYER
 10
32.3115158085
 20
48.1154501623
 40
0.15
100
AcDbArc
 50
135.0000000019
 51
225.000000002
  0
ARC
  5
33A
100
AcDbEntity
  8
0
100
AcDbCircle
 62
7
  6
BYLAYER
 10
32.3872517398
 20
48.6154501623
 40
0.15
100
AcDbArc
 50
314.9999999979
 51
44.999999998
  0
ARC
  5
33B
100
AcDbEntity
  8
0
100
AcDbCircle
 62
7
  6
BYLAYER
 10
32.3115158085
 20
49.1154501623
 40
0.15
100
AcDbArc
 50
135.000000002
 51
225.000000002
  0
ARC
  5
33C
100
AcDbEntity
  8
0
100
AcDbCircle
 62
7
  6
BYLAYER
 10
32.3872517398
 20
49.6154501623
 40
0.15
100
AcDbArc
 50
314.999999998
 51
44.999999998
  0
ARC
  5
33D
100
AcDbEntity
  8
0
100
AcDbCircle
 62
7
  6
BYLAYER
 10
36.4089680143
 20
9.6134071113
 40
1.5
100
AcDbArc
 50
270.0
 51
316.1869385394
  0
ARC
  5
33E
100
AcDbEntity
  8
0
100
AcDbCircle
 62
7
  6
BYLAYER
 10
36.2713122139
 20
9.6134071113
 40
1.5
100
AcDbArc
 50
194.0000000001
 51
270.0
  0
ARC
  5
33F
100
AcDbEntity
  8
0
100
AcDbCircle
 62
7
  6
BYLAYER
 10
32.3115158085
 20
64.1154501623
 40
0.15
100
AcDbArc
 50
135.000000002
 51
225.000000002
  0
ARC
  5
340
100
AcDbEntity
  8
0
100
AcDbCircle
 62
7
  6
BYLAYER
 10
32.3872517398
 20
64.6154501623
 40
0.15
100
AcDbArc
 50
314.999999998
 51
44.9999999981
  0
ARC
  5
341
100
AcDbEntity
  8
0
100
AcDbCircle
 62
7
  6
BYLAYER
 10
32.3115158085
 20
65.1154501623
 40
0.15
100
AcDbArc
 50
134.9999999999
 51
225.0000000051
  0
ARC
  5
342
100
AcDbEntity
  8
0
100
AcDbCircle
 62
7
  6
BYLAYER
 10
32.3872517398
 20
65.6154501623
 40
0.15
100
AcDbArc
 50
315.0
 51
45.0000000001
  0
ARC
  5
343
100
AcDbEntity
  8
0
100
AcDbCircle
 62
7
  6
BYLAYER
 10
32.3115158085
 20
66.1154501623
 40
0.15
100
AcDbArc
 50
135.0
 51
225.0
  0
ARC
  5
344
100
AcDbEntity
  8
0
100
AcDbCircle
 62
7
  6
BYLAYER
 10
32.3872517398
 20
66.6154501623
 40
0.15
100
AcDbArc
 50
315.0
 51
45.0000000001
  0
ARC
  5
345
100
AcDbEntity
  8
0
100
AcDbCircle
 62
7
  6
BYLAYER
 10
32.3115158085
 20
67.1154501623
 40
0.15
100
AcDbArc
 50
135.0
 51
225.0
  0
ARC
  5
346
100
AcDbEntity
  8
0
100
AcDbCircle
 62
7
  6
BYLAYER
 10
32.3872517398
 20
67.6154501623
 40
0.15
100
AcDbArc
 50
315.0
 51
45.0000000001
  0
ARC
  5
347
100
AcDbEntity
  8
0
100
AcDbCircle
 62
7
  6
BYLAYER
 10
32.3115158085
 20
68.1154501623
 40
0.15
100
AcDbArc
 50
134.9999999999
 51
225.0
  0
ARC
  5
348
100
AcDbEntity
  8
0
100
AcDbCircle
 62
7
  6
BYLAYER
 10
32.3872517398
 20
68.6154501623
 40
0.15
100
AcDbArc
 50
315.0
 51
45.0000000001
  0
ARC
  5
349
100
AcDbEntity
  8
0
100
AcDbCircle
 62
7
  6
BYLAYER
 10
32.3115158085
 20
69.1154501623
 40
0.15
100
AcDbArc
 50
135.0
 51
225.0
  0
ARC
  5
34A
100
AcDbEntity
  8
0
100
AcDbCircle
 62
7
  6
BYLAYER
 10
32.3872517398
 20
69.6154501623
 40
0.15
100
AcDbArc
 50
315.0
 51
45.0000000001
  0
ARC
  5
34B
100
AcDbEntity
  8
0
100
AcDbCircle
 62
7
  6
BYLAYER
 10
32.3115158085
 20
70.1154501623
 40
0.15
100
AcDbArc
 50
135.0
 51
225.0
  0
ARC
  5
34C
100
AcDbEntity
  8
0
100
AcDbCircle
 62
7
  6
BYLAYER
 10
32.3872517398
 20
70.6154501623
 40
0.15
100
AcDbArc
 50
315.0
 51
45.0
  0
ARC
  5
34D
100
AcDbEntity
  8
0
100
AcDbCircle
 62
7
  6
BYLAYER
 10
32.3115158085
 20
71.1154501623
 40
0.15
100
AcDbArc
 50
135.0
 51
225.0
  0
ARC
  5
34E
100
AcDbEntity
  8
0
100
AcDbCircle
 62
7
  6
BYLAYER
 10
32.3872517398
 20
71.6154501623
 40
0.15
100
AcDbArc
 50
315.0
 51
45.0
  0
ARC
  5
34F
100
AcDbEntity
  8
0
100
AcDbCircle
 62
7
  6
BYLAYER
 10
32.3115158085
 20
72.1154501623
 40
0.15
100
AcDbArc
 50
135.0
 51
225.0
  0
ARC
  5
350
100
AcDbEntity
  8
0
100
AcDbCircle
 62
7
  6
BYLAYER
 10
32.3872517398
 20
72.6154501623
 40
0.15
100
AcDbArc
 50
315.0
 51
45.0
  0
ARC
  5
351
100
AcDbEntity
  8
0
100
AcDbCircle
 62
7
  6
BYLAYER
 10
32.3115158085
 20
73.1154501623
 40
0.15
100
AcDbArc
 50
135.0
 51
225.0
  0
ARC
  5
352
100
AcDbEntity
  8
0
100
AcDbCircle
 62
7
  6
BYLAYER
 10
32.3872517398
 20
73.6154501623
 40
0.15
100
AcDbArc
 50
315.0
 51
45.0000000001
  0
ARC
  5
353
100
AcDbEntity
  8
0
100
AcDbCircle
 62
7
  6
BYLAYER
 10
32.3115158085
 20
74.1154501623
 40
0.15
100
AcDbArc
 50
135.0
 51
224.9999999996
  0
ARC
  5
354
100
AcDbEntity
  8
0
100
AcDbCircle
 62
7
  6
BYLAYER
 10
32.3872517398
 20
74.6154501623
 40
0.15
100
AcDbArc
 50
315.0
 51
44.9999999998
  0
ARC
  5
355
100
AcDbEntity
  8
0
100
AcDbCircle
 62
7
  6
BYLAYER
 10
32.312537334
 20
75.1144286368
 40
0.15
100
AcDbArc
 50
135.0000000001
 51
225.0000000001
  0
ARC
  5
356
100
AcDbEntity
  8
0
100
AcDbCircle
 62
7
  6
BYLAYER
 10
32.3115158085
 20
50.1154501623
 40
0.15
100
AcDbArc
 50
135.000000002
 51
225.0000000021
  0
ARC
  5
357
100
AcDbEntity
  8
0
100
AcDbCircle
 62
7
  6
BYLAYER
 10
32.3872517398
 20
50.6154501623
 40
0.15
100
AcDbArc
 50
314.999999998
 51
44.999999998
  0
ARC
  5
358
100
AcDbEntity
  8
0
100
AcDbCircle
 62
7
  6
BYLAYER
 10
32.3115158085
 20
51.1154501623
 40
0.15
100
AcDbArc
 50
135.000000002
 51
225.0000000021
  0
ARC
  5
359
100
AcDbEntity
  8
0
100
AcDbCircle
 62
7
  6
BYLAYER
 10
32.3872517398
 20
51.6154501623
 40
0.15
100
AcDbArc
 50
314.999999998
 51
44.999999998
  0
ARC
  5
35A
100
AcDbEntity
  8
0
100
AcDbCircle
 62
7
  6
BYLAYER
 10
32.3115158085
 20
52.1154501623
 40
0.15
100
AcDbArc
 50
135.000000002
 51
225.000000002
  0
ARC
  5
35B
100
AcDbEntity
  8
0
100
AcDbCircle
 62
7
  6
BYLAYER
 10
32.3872517398
 20
52.6154501623
 40
0.15
100
AcDbArc
 50
314.999999998
 51
44.999999998
  0
ARC
  5
35C
100
AcDbEntity
  8
0
100
AcDbCircle
 62
7
  6
BYLAYER
 10
32.3115158085
 20
53.1154501623
 40
0.15
100
AcDbArc
 50
135.000000002
 51
225.000000002
  0
ARC
  5
35D
100
AcDbEntity
  8
0
100
AcDbCircle
 62
7
  6
BYLAYER
 10
32.3872517398
 20
53.6154501623
 40
0.15
100
AcDbArc
 50
314.9999999979
 51
44.999999998
  0
ARC
  5
35E
100
AcDbEntity
  8
0
100
AcDbCircle
 62
7
  6
BYLAYER
 10
32.3115158085
 20
54.1154501623
 40
0.15
100
AcDbArc
 50
135.000000002
 51
225.000000002
  0
ARC
  5
35F
100
AcDbEntity
  8
0
100
AcDbCircle
 62
7
  6
BYLAYER
 10
32.3872517398
 20
54.6154501623
 40
0.15
100
AcDbArc
 50
314.9999999979
 51
44.999999998
  0
ARC
  5
360
100
AcDbEntity
  8
0
100
AcDbCircle
 62
7
  6
BYLAYER
 10
32.3115158085
 20
55.1154501623
 40
0.15
100
AcDbArc
 50
135.000000002
 51
225.000000002
  0
ARC
  5
361
100
AcDbEntity
  8
0
100
AcDbCircle
 62
7
  6
BYLAYER
 10
32.3872517398
 20
55.6154501623
 40
0.15
100
AcDbArc
 50
314.999999998
 51
44.999999998
  0
ARC
  5
362
100
AcDbEntity
  8
0
100
AcDbCircle
 62
7
  6
BYLAYER
 10
32.3115158085
 20
56.1154501623
 40
0.15
100
AcDbArc
 50
135.000000002
 51
225.000000002
  0
ARC
  5
363
100
AcDbEntity
  8
0
100
AcDbCircle
 62
7
  6
BYLAYER
 10
32.3872517398
 20
56.6154501623
 40
0.15
100
AcDbArc
 50
314.999999998
 51
44.999999998
  0
ARC
  5
364
100
AcDbEntity
  8
0
100
AcDbCircle
 62
7
  6
BYLAYER
 10
32.3115158085
 20
57.1154501623
 40
0.15
100
AcDbArc
 50
135.000000002
 51
225.0000000021
  0
ARC
  5
365
100
AcDbEntity
  8
0
100
AcDbCircle
 62
7
  6
BYLAYER
 10
32.3872517398
 20
57.6154501623
 40
0.15
100
AcDbArc
 50
314.999999998
 51
44.999999998
  0
ARC
  5
366
100
AcDbEntity
  8
0
100
AcDbCircle
 62
7
  6
BYLAYER
 10
32.3115158085
 20
58.1154501623
 40
0.15
100
AcDbArc
 50
135.000000002
 51
225.000000002
  0
ARC
  5
367
100
AcDbEntity
  8
0
100
AcDbCircle
 62
7
  6
BYLAYER
 10
32.3872517398
 20
58.6154501623
 40
0.15
100
AcDbArc
 50
314.999999998
 51
44.999999998
  0
ARC
  5
368
100
AcDbEntity
  8
0
100
AcDbCircle
 62
7
  6
BYLAYER
 10
32.3115158085
 20
59.1154501623
 40
0.15
100
AcDbArc
 50
135.000000002
 51
225.000000002
  0
ARC
  5
369
100
AcDbEntity
  8
0
100
AcDbCircle
 62
7
  6
BYLAYER
 10
32.3872517398
 20
59.6154501623
 40
0.15
100
AcDbArc
 50
314.999999998
 51
44.999999998
  0
ARC
  5
36A
100
AcDbEntity
  8
0
100
AcDbCircle
 62
7
  6
BYLAYER
 10
32.3115158085
 20
60.1154501623
 40
0.15
100
AcDbArc
 50
135.0000000019
 51
225.000000002
  0
ARC
  5
36B
100
AcDbEntity
  8
0
100
AcDbCircle
 62
7
  6
BYLAYER
 10
32.3872517398
 20
60.6154501623
 40
0.15
100
AcDbArc
 50
314.999999998
 51
44.9999999981
  0
ARC
  5
36C
100
AcDbEntity
  8
0
100
AcDbCircle
 62
7
  6
BYLAYER
 10
32.3115158085
 20
61.1154501623
 40
0.15
100
AcDbArc
 50
135.0000000019
 51
225.000000002
  0
ARC
  5
36D
100
AcDbEntity
  8
0
100
AcDbCircle
 62
7
  6
BYLAYER
 10
32.3872517398
 20
61.6154501623
 40
0.15
100
AcDbArc
 50
314.999999998
 51
44.9999999981
  0
ARC
  5
36E
100
AcDbEntity
  8
0
100
AcDbCircle
 62
7
  6
BYLAYER
 10
32.3115158085
 20
62.1154501623
 40
0.15
100
AcDbArc
 50
135.000000002
 51
225.000000002
  0
ARC
  5
36F
100
AcDbEntity
  8
0
100
AcDbCircle
 62
7
  6
BYLAYER
 10
32.3872517398
 20
62.6154501623
 40
0.15
100
AcDbArc
 50
314.999999998
 51
44.999999998
  0
ARC
  5
370
100
AcDbEntity
  8
0
100
AcDbCircle
 62
7
  6
BYLAYER
 10
32.3115158085
 20
63.1154501623
 40
0.15
100
AcDbArc
 50
135.000000002
 51
225.000000002
  0
ARC
  5
371
100
AcDbEntity
  8
0
100
AcDbCircle
 62
7
  6
BYLAYER
 10
32.3872517398
 20
63.6154501623
 40
0.15
100
AcDbArc
 50
314.999999998
 51
44.999999998
  0
ARC
  5
372
100
AcDbEntity
  8
0
100
AcDbCircle
 62
7
  6
BYLAYER
 10
41.0993837742
 20
20.1134071113
 40
5.125
100
AcDbArc
 50
180.0
 51
360.0
  0
ARC
  5
373
100
AcDbEntity
  8
0
100
AcDbCircle
 62
7
  6
BYLAYER
 10
41.0993837742
 20
5.1134071113
 40
5.0
100
AcDbArc
 50
43.8130614602
 51
136.1869385397
  0
ARC
  5
374
100
AcDbEntity
  8
0
100
AcDbCircle
 62
7
  6
BYLAYER
 10
45.9274553344
 20
9.6134071113
 40
1.5
100
AcDbArc
 50
270.0
 51
346.0
  0
ARC
  5
375
100
AcDbEntity
  8
0
100
AcDbCircle
 62
7
  6
BYLAYER
 10
45.789799534
 20
9.6134071113
 40
1.5
100
AcDbArc
 50
223.813061461
 51
270.0
  0
ARC
  5
376
100
AcDbEntity
  8
0
100
AcDbCircle
 62
7
  6
BYLAYER
 10
49.8872517398
 20
27.1154501623
 40
0.15
100
AcDbArc
 50
315.000000002
 51
45.000000002
  0
ARC
  5
377
100
AcDbEntity
  8
0
100
AcDbCircle
 62
7
  6
BYLAYER
 10
49.8115158085
 20
26.6154501623
 40
0.15
100
AcDbArc
 50
134.999999998
 51
224.999999998
  0
ARC
  5
378
100
AcDbEntity
  8
0
100
AcDbCircle
 62
7
  6
BYLAYER
 10
49.8872517398
 20
26.1154501623
 40
0.15
100
AcDbArc
 50
315.000000002
 51
45.000000002
  0
ARC
  5
379
100
AcDbEntity
  8
0
100
AcDbCircle
 62
7
  6
BYLAYER
 10
49.8115158085
 20
25.6154501623
 40
0.15
100
AcDbArc
 50
134.999999998
 51
224.999999998
  0
ARC
  5
37A
100
AcDbEntity
  8
0
100
AcDbCircle
 62
7
  6
BYLAYER
 10
49.8872517398
 20
25.1154501623
 40
0.15
100
AcDbArc
 50
315.000000002
 51
45.000000002
  0
ARC
  5
37B
100
AcDbEntity
  8
0
100
AcDbCircle
 62
7
  6
BYLAYER
 10
49.8115158085
 20
24.6154501623
 40
0.15
100
AcDbArc
 50
134.999999998
 51
224.999999998
  0
ARC
  5
37C
100
AcDbEntity
  8
0
100
AcDbCircle
 62
7
  6
BYLAYER
 10
49.8872517398
 20
24.1154501623
 40
0.15
100
AcDbArc
 50
315.000000002
 51
45.000000002
  0
ARC
  5
37D
100
AcDbEntity
  8
0
100
AcDbCircle
 62
7
  6
BYLAYER
 10
49.8115158085
 20
23.6154501623
 40
0.15
100
AcDbArc
 50
134.999999998
 51
224.999999998
  0
ARC
  5
37E
100
AcDbEntity
  8
0
100
AcDbCircle
 62
7
  6
BYLAYER
 10
49.8872517398
 20
23.1154501623
 40
0.15
100
AcDbArc
 50
315.000000002
 51
45.000000002
  0
ARC
  5
37F
100
AcDbEntity
  8
0
100
AcDbCircle
 62
7
  6
BYLAYER
 10
49.8115158085
 20
22.6154501623
 40
0.15
100
AcDbArc
 50
134.999999998
 51
224.999999998
  0
ARC
  5
380
100
AcDbEntity
  8
0
100
AcDbCircle
 62
7
  6
BYLAYER
 10
49.8872517398
 20
22.1154501623
 40
0.15
100
AcDbArc
 50
315.000000002
 51
45.000000002
  0
ARC
  5
381
100
AcDbEntity
  8
0
100
AcDbCircle
 62
7
  6
BYLAYER
 10
49.8115158085
 20
21.6154501623
 40
0.15
100
AcDbArc
 50
134.999999998
 51
224.999999998
  0
ARC
  5
382
100
AcDbEntity
  8
0
100
AcDbCircle
 62
7
  6
BYLAYER
 10
49.8872517398
 20
21.1154501623
 40
0.15
100
AcDbArc
 50
315.000000002
 51
45.000000002
  0
ARC
  5
383
100
AcDbEntity
  8
0
100
AcDbCircle
 62
7
  6
BYLAYER
 10
49.8115158085
 20
20.6154501623
 40
0.15
100
AcDbArc
 50
134.999999998
 51
225.000000002
  0
ARC
  5
384
100
AcDbEntity
  8
0
100
AcDbCircle
 62
7
  6
BYLAYER
 10
49.8882732653
 20
20.1144286368
 40
0.15
100
AcDbArc
 50
314.999999996
 51
44.999999992
  0
ARC
  5
385
100
AcDbEntity
  8
0
100
AcDbCircle
 62
7
  6
BYLAYER
 10
49.8115158085
 20
49.6154501623
 40
0.15
100
AcDbArc
 50
134.999999998
 51
224.9999999981
  0
ARC
  5
386
100
AcDbEntity
  8
0
100
AcDbCircle
 62
7
  6
BYLAYER
 10
49.8872517398
 20
49.1154501623
 40
0.15
100
AcDbArc
 50
315.0000000019
 51
45.000000002
  0
ARC
  5
387
100
AcDbEntity
  8
0
100
AcDbCircle
 62
7
  6
BYLAYER
 10
49.8115158085
 20
48.6154501623
 40
0.15
100
AcDbArc
 50
134.999999998
 51
224.9999999981
  0
ARC
  5
388
100
AcDbEntity
  8
0
100
AcDbCircle
 62
7
  6
BYLAYER
 10
49.8872517398
 20
48.1154501623
 40
0.15
100
AcDbArc
 50
315.0000000019
 51
45.000000002
  0
ARC
  5
389
100
AcDbEntity
  8
0
100
AcDbCircle
 62
7
  6
BYLAYER
 10
49.8115158085
 20
47.6154501623
 40
0.15
100
AcDbArc
 50
134.999999998
 51
224.9999999981
  0
ARC
  5
38A
100
AcDbEntity
  8
0
100
AcDbCircle
 62
7
  6
BYLAYER
 10
49.8872517398
 20
47.1154501623
 40
0.15
100
AcDbArc
 50
315.0000000019
 51
45.000000002
  0
ARC
  5
38B
100
AcDbEntity
  8
0
100
AcDbCircle
 62
7
  6
BYLAYER
 10
49.8115158085
 20
46.6154501623
 40
0.15
100
AcDbArc
 50
134.999999998
 51
224.9999999981
  0
ARC
  5
38C
100
AcDbEntity
  8
0
100
AcDbCircle
 62
7
  6
BYLAYER
 10
49.8872517398
 20
46.1154501623
 40
0.15
100
AcDbArc
 50
315.0000000019
 51
45.000000002
  0
ARC
  5
38D
100
AcDbEntity
  8
0
100
AcDbCircle
 62
7
  6
BYLAYER
 10
49.8115158085
 20
45.6154501623
 40
0.15
100
AcDbArc
 50
134.999999998
 51
224.9999999981
  0
ARC
  5
38E
100
AcDbEntity
  8
0
100
AcDbCircle
 62
7
  6
BYLAYER
 10
49.8872517398
 20
45.1154501623
 40
0.15
100
AcDbArc
 50
315.0000000019
 51
45.000000002
  0
ARC
  5
38F
100
AcDbEntity
  8
0
100
AcDbCircle
 62
7
  6
BYLAYER
 10
49.8115158085
 20
44.6154501623
 40
0.15
100
AcDbArc
 50
134.999999998
 51
224.9999999981
  0
ARC
  5
390
100
AcDbEntity
  8
0
100
AcDbCircle
 62
7
  6
BYLAYER
 10
49.8872517398
 20
44.1154501623
 40
0.15
100
AcDbArc
 50
315.000000002
 51
45.000000002
  0
ARC
  5
391
100
AcDbEntity
  8
0
100
AcDbCircle
 62
7
  6
BYLAYER
 10
49.8115158085
 20
43.6154501623
 40
0.15
100
AcDbArc
 50
134.999999998
 51
224.999999998
  0
ARC
  5
392
100
AcDbEntity
  8
0
100
AcDbCircle
 62
7
  6
BYLAYER
 10
49.8872517398
 20
43.1154501623
 40
0.15
100
AcDbArc
 50
315.0000000019
 51
45.000000002
  0
ARC
  5
393
100
AcDbEntity
  8
0
100
AcDbCircle
 62
7
  6
BYLAYER
 10
49.8115158085
 20
42.6154501623
 40
0.15
100
AcDbArc
 50
134.999999998
 51
224.999999998
  0
ARC
  5
394
100
AcDbEntity
  8
0
100
AcDbCircle
 62
7
  6
BYLAYER
 10
49.8872517398
 20
42.1154501623
 40
0.15
100
AcDbArc
 50
315.000000002
 51
45.000000002
  0
ARC
  5
395
100
AcDbEntity
  8
0
100
AcDbCircle
 62
7
  6
BYLAYER
 10
49.8115158085
 20
41.6154501623
 40
0.15
100
AcDbArc
 50
134.999999998
 51
224.999999998
  0
ARC
  5
396
100
AcDbEntity
  8
0
100
AcDbCircle
 62
7
  6
BYLAYER
 10
49.8872517398
 20
41.1154501623
 40
0.15
100
AcDbArc
 50
315.000000002
 51
45.000000002
  0
ARC
  5
397
100
AcDbEntity
  8
0
100
AcDbCircle
 62
7
  6
BYLAYER
 10
49.8115158085
 20
40.6154501623
 40
0.15
100
AcDbArc
 50
134.999999998
 51
224.999999998
  0
ARC
  5
398
100
AcDbEntity
  8
0
100
AcDbCircle
 62
7
  6
BYLAYER
 10
49.8872517398
 20
40.1154501623
 40
0.15
100
AcDbArc
 50
315.000000002
 51
45.000000002
  0
ARC
  5
399
100
AcDbEntity
  8
0
100
AcDbCircle
 62
7
  6
BYLAYER
 10
49.8115158085
 20
39.6154501623
 40
0.15
100
AcDbArc
 50
134.999999998
 51
224.999999998
  0
ARC
  5
39A
100
AcDbEntity
  8
0
100
AcDbCircle
 62
7
  6
BYLAYER
 10
49.8872517398
 20
39.1154501623
 40
0.15
100
AcDbArc
 50
315.000000002
 51
45.000000002
  0
ARC
  5
39B
100
AcDbEntity
  8
0
100
AcDbCircle
 62
7
  6
BYLAYER
 10
49.8115158085
 20
38.6154501623
 40
0.15
100
AcDbArc
 50
134.999999998
 51
224.999999998
  0
ARC
  5
39C
100
AcDbEntity
  8
0
100
AcDbCircle
 62
7
  6
BYLAYER
 10
49.8872517398
 20
38.1154501623
 40
0.15
100
AcDbArc
 50
315.000000002
 51
45.000000002
  0
ARC
  5
39D
100
AcDbEntity
  8
0
100
AcDbCircle
 62
7
  6
BYLAYER
 10
49.8115158085
 20
37.6154501623
 40
0.15
100
AcDbArc
 50
134.999999998
 51
224.999999998
  0
ARC
  5
39E
100
AcDbEntity
  8
0
100
AcDbCircle
 62
7
  6
BYLAYER
 10
49.8872517398
 20
37.1154501623
 40
0.15
100
AcDbArc
 50
315.000000002
 51
45.000000002
  0
ARC
  5
39F
100
AcDbEntity
  8
0
100
AcDbCircle
 62
7
  6
BYLAYER
 10
49.8115158085
 20
36.6154501623
 40
0.15
100
AcDbArc
 50
134.999999998
 51
224.999999998
  0
ARC
  5
3A0
100
AcDbEntity
  8
0
100
AcDbCircle
 62
7
  6
BYLAYER
 10
49.8872517398
 20
36.1154501623
 40
0.15
100
AcDbArc
 50
315.000000002
 51
45.000000002
  0
ARC
  5
3A1
100
AcDbEntity
  8
0
100
AcDbCircle
 62
7
  6
BYLAYER
 10
49.8115158085
 20
35.6154501623
 40
0.15
100
AcDbArc
 50
134.999999998
 51
224.999999998
  0
ARC
  5
3A2
100
AcDbEntity
  8
0
100
AcDbCircle
 62
7
  6
BYLAYER
 10
49.8872517398
 20
35.1154501623
 40
0.15
100
AcDbArc
 50
315.000000002
 51
45.000000002
  0
ARC
  5
3A3
100
AcDbEntity
  8
0
100
AcDbCircle
 62
7
  6
BYLAYER
 10
49.8115158085
 20
34.6154501623
 40
0.15
100
AcDbArc
 50
134.999999998
 51
224.999999998
  0
ARC
  5
3A4
100
AcDbEntity
  8
0
100
AcDbCircle
 62
7
  6
BYLAYER
 10
49.8872517398
 20
34.1154501623
 40
0.15
100
AcDbArc
 50
315.000000002
 51
45.000000002
  0
ARC
  5
3A5
100
AcDbEntity
  8
0
100
AcDbCircle
 62
7
  6
BYLAYER
 10
49.8115158085
 20
33.6154501623
 40
0.15
100
AcDbArc
 50
134.999999998
 51
224.999999998
  0
ARC
  5
3A6
100
AcDbEntity
  8
0
100
AcDbCircle
 62
7
  6
BYLAYER
 10
49.8872517398
 20
33.1154501623
 40
0.15
100
AcDbArc
 50
315.000000002
 51
45.000000002
  0
ARC
  5
3A7
100
AcDbEntity
  8
0
100
AcDbCircle
 62
7
  6
BYLAYER
 10
49.8115158085
 20
32.6154501623
 40
0.15
100
AcDbArc
 50
134.999999998
 51
224.999999998
  0
ARC
  5
3A8
100
AcDbEntity
  8
0
100
AcDbCircle
 62
7
  6
BYLAYER
 10
49.8872517398
 20
32.1154501623
 40
0.15
100
AcDbArc
 50
315.000000002
 51
45.000000002
  0
ARC
  5
3A9
100
AcDbEntity
  8
0
100
AcDbCircle
 62
7
  6
BYLAYER
 10
49.8115158085
 20
31.6154501623
 40
0.15
100
AcDbArc
 50
134.999999998
 51
224.999999998
  0
ARC
  5
3AA
100
AcDbEntity
  8
0
100
AcDbCircle
 62
7
  6
BYLAYER
 10
49.8872517398
 20
31.1154501623
 40
0.15
100
AcDbArc
 50
315.000000002
 51
45.000000002
  0
ARC
  5
3AB
100
AcDbEntity
  8
0
100
AcDbCircle
 62
7
  6
BYLAYER
 10
49.8115158085
 20
30.6154501623
 40
0.15
100
AcDbArc
 50
134.999999998
 51
224.999999998
  0
ARC
  5
3AC
100
AcDbEntity
  8
0
100
AcDbCircle
 62
7
  6
BYLAYER
 10
49.8872517398
 20
30.1154501623
 40
0.15
100
AcDbArc
 50
315.000000002
 51
45.000000002
  0
ARC
  5
3AD
100
AcDbEntity
  8
0
100
AcDbCircle
 62
7
  6
BYLAYER
 10
49.8115158085
 20
29.6154501623
 40
0.15
100
AcDbArc
 50
134.999999998
 51
224.999999998
  0
ARC
  5
3AE
100
AcDbEntity
  8
0
100
AcDbCircle
 62
7
  6
BYLAYER
 10
49.8872517398
 20
29.1154501623
 40
0.15
100
AcDbArc
 50
315.000000002
 51
45.000000002
  0
ARC
  5
3AF
100
AcDbEntity
  8
0
100
AcDbCircle
 62
7
  6
BYLAYER
 10
49.8115158085
 20
28.6154501623
 40
0.15
100
AcDbArc
 50
134.999999998
 51
224.999999998
  0
ARC
  5
3B0
100
AcDbEntity
  8
0
100
AcDbCircle
 62
7
  6
BYLAYER
 10
49.8872517398
 20
28.1154501623
 40
0.15
100
AcDbArc
 50
315.000000002
 51
45.000000002
  0
ARC
  5
3B1
100
AcDbEntity
  8
0
100
AcDbCircle
 62
7
  6
BYLAYER
 10
49.8115158085
 20
27.6154501623
 40
0.15
100
AcDbArc
 50
134.999999998
 51
224.999999998
  0
CIRCLE
  5
3B2
100
AcDbEntity
  8
0
100
AcDbCircle
 62
7
  6
BYLAYER
 10
41.0993837742
 20
95.0254501623
 40
9.5
  0
ARC
  5
3B3
100
AcDbEntity
  8
0
100
AcDbCircle
 62
7
  6
BYLAYER
 10
41.0993837742
 20
75.1134071113
 40
5.125
100
AcDbArc
 50
0.0
 51
180.0
  0
CIRCLE
  5
3B4
100
AcDbEntity
  8
0
100
AcDbCircle
 62
7
  6
BYLAYER
 10
41.0993837742
 20
95.0254501623
 40
4.0
  0
CIRCLE
  5
3B5
100
AcDbEntity
  8
0
100
AcDbCircle
 62
7
  6
BYLAYER
 10
41.0993837742
 20
95.0254501623
 40
3.0625
  0
CIRCLE
  5
3B6
100
AcDbEntity
  8
0
100
AcDbCircle
 62
7
  6
BYLAYER
 10
41.0993837742
 20
95.0254501623
 40
2.1
  0
ARC
  5
3B7
100
AcDbEntity
  8
0
100
AcDbCircle
 62
7
  6
BYLAYER
 10
49.8872517398
 20
72.1154501623
 40
0.15
100
AcDbArc
 50
315.0
 51
45.0
  0
ARC
  5
3B8
100
AcDbEntity
  8
0
100
AcDbCircle
 62
7
  6
BYLAYER
 10
49.8115158085
 20
71.6154501623
 40
0.15
100
AcDbArc
 50
135.0
 51
225.0000000001
  0
ARC
  5
3B9
100
AcDbEntity
  8
0
100
AcDbCircle
 62
7
  6
BYLAYER
 10
49.8872517398
 20
71.1154501623
 40
0.15
100
AcDbArc
 50
315.0
 51
45.0
  0
ARC
  5
3BA
100
AcDbEntity
  8
0
100
AcDbCircle
 62
7
  6
BYLAYER
 10
49.8115158085
 20
70.6154501623
 40
0.15
100
AcDbArc
 50
135.0
 51
225.0
  0
ARC
  5
3BB
100
AcDbEntity
  8
0
100
AcDbCircle
 62
7
  6
BYLAYER
 10
49.8872517398
 20
70.1154501623
 40
0.15
100
AcDbArc
 50
315.0
 51
45.0
  0
ARC
  5
3BC
100
AcDbEntity
  8
0
100
AcDbCircle
 62
7
  6
BYLAYER
 10
49.8115158085
 20
69.6154501623
 40
0.15
100
AcDbArc
 50
135.0
 51
225.0000000001
  0
ARC
  5
3BD
100
AcDbEntity
  8
0
100
AcDbCircle
 62
7
  6
BYLAYER
 10
49.8872517398
 20
69.1154501623
 40
0.15
100
AcDbArc
 50
315.0
 51
45.0
  0
ARC
  5
3BE
100
AcDbEntity
  8
0
100
AcDbCircle
 62
7
  6
BYLAYER
 10
49.8115158085
 20
68.6154501623
 40
0.15
100
AcDbArc
 50
135.0
 51
225.0000000001
  0
ARC
  5
3BF
100
AcDbEntity
  8
0
100
AcDbCircle
 62
7
  6
BYLAYER
 10
49.8872517398
 20
68.1154501623
 40
0.15
100
AcDbArc
 50
314.9999999999
 51
45.0
  0
ARC
  5
3C0
100
AcDbEntity
  8
0
100
AcDbCircle
 62
7
  6
BYLAYER
 10
49.8115158085
 20
67.6154501623
 40
0.15
100
AcDbArc
 50
135.0
 51
225.0
  0
ARC
  5
3C1
100
AcDbEntity
  8
0
100
AcDbCircle
 62
7
  6
BYLAYER
 10
49.8872517398
 20
67.1154501623
 40
0.15
100
AcDbArc
 50
315.0
 51
45.0
  0
ARC
  5
3C2
100
AcDbEntity
  8
0
100
AcDbCircle
 62
7
  6
BYLAYER
 10
49.8115158085
 20
66.6154501623
 40
0.15
100
AcDbArc
 50
135.0
 51
225.0
  0
ARC
  5
3C3
100
AcDbEntity
  8
0
100
AcDbCircle
 62
7
  6
BYLAYER
 10
49.8872517398
 20
66.1154501623
 40
0.15
100
AcDbArc
 50
315.0
 51
45.0
  0
ARC
  5
3C4
100
AcDbEntity
  8
0
100
AcDbCircle
 62
7
  6
BYLAYER
 10
49.8115158085
 20
65.6154501623
 40
0.15
100
AcDbArc
 50
135.0
 51
225.0
  0
ARC
  5
3C5
100
AcDbEntity
  8
0
100
AcDbCircle
 62
7
  6
BYLAYER
 10
49.8872517398
 20
65.1154501623
 40
0.15
100
AcDbArc
 50
314.999999999
 51
45.0
  0
ARC
  5
3C6
100
AcDbEntity
  8
0
100
AcDbCircle
 62
7
  6
BYLAYER
 10
49.8115158085
 20
64.6154501623
 40
0.15
100
AcDbArc
 50
134.999999998
 51
224.999999998
  0
ARC
  5
3C7
100
AcDbEntity
  8
0
100
AcDbCircle
 62
7
  6
BYLAYER
 10
49.8872517398
 20
64.1154501623
 40
0.15
100
AcDbArc
 50
315.000000002
 51
45.000000002
  0
ARC
  5
3C8
100
AcDbEntity
  8
0
100
AcDbCircle
 62
7
  6
BYLAYER
 10
49.8115158085
 20
63.6154501623
 40
0.15
100
AcDbArc
 50
134.999999998
 51
224.999999998
  0
ARC
  5
3C9
100
AcDbEntity
  8
0
100
AcDbCircle
 62
7
  6
BYLAYER
 10
49.8872517398
 20
63.1154501623
 40
0.15
100
AcDbArc
 50
315.000000002
 51
45.000000002
  0
ARC
  5
3CA
100
AcDbEntity
  8
0
100
AcDbCircle
 62
7
  6
BYLAYER
 10
49.8115158085
 20
62.6154501623
 40
0.15
100
AcDbArc
 50
134.999999998
 51
224.999999998
  0
ARC
  5
3CB
100
AcDbEntity
  8
0
100
AcDbCircle
 62
7
  6
BYLAYER
 10
49.8872517398
 20
62.1154501623
 40
0.15
100
AcDbArc
 50
315.000000002
 51
45.000000002
  0
ARC
  5
3CC
100
AcDbEntity
  8
0
100
AcDbCircle
 62
7
  6
BYLAYER
 10
49.8115158085
 20
61.6154501623
 40
0.15
100
AcDbArc
 50
134.999999998
 51
224.999999998
  0
ARC
  5
3CD
100
AcDbEntity
  8
0
100
AcDbCircle
 62
7
  6
BYLAYER
 10
49.8872517398
 20
61.1154501623
 40
0.15
100
AcDbArc
 50
315.000000002
 51
45.000000002
  0
ARC
  5
3CE
100
AcDbEntity
  8
0
100
AcDbCircle
 62
7
  6
BYLAYER
 10
49.8115158085
 20
60.6154501623
 40
0.15
100
AcDbArc
 50
134.999999998
 51
224.999999998
  0
ARC
  5
3CF
100
AcDbEntity
  8
0
100
AcDbCircle
 62
7
  6
BYLAYER
 10
49.8872517398
 20
60.1154501623
 40
0.15
100
AcDbArc
 50
315.000000002
 51
45.000000002
  0
ARC
  5
3D0
100
AcDbEntity
  8
0
100
AcDbCircle
 62
7
  6
BYLAYER
 10
49.8115158085
 20
59.6154501623
 40
0.15
100
AcDbArc
 50
134.999999998
 51
224.9999999981
  0
ARC
  5
3D1
100
AcDbEntity
  8
0
100
AcDbCircle
 62
7
  6
BYLAYER
 10
49.8872517398
 20
59.1154501623
 40
0.15
100
AcDbArc
 50
315.000000002
 51
45.000000002
  0
ARC
  5
3D2
100
AcDbEntity
  8
0
100
AcDbCircle
 62
7
  6
BYLAYER
 10
49.8115158085
 20
58.6154501623
 40
0.15
100
AcDbArc
 50
134.999999998
 51
224.999999998
  0
ARC
  5
3D3
100
AcDbEntity
  8
0
100
AcDbCircle
 62
7
  6
BYLAYER
 10
49.8872517398
 20
58.1154501623
 40
0.15
100
AcDbArc
 50
315.000000002
 51
45.000000002
  0
ARC
  5
3D4
100
AcDbEntity
  8
0
100
AcDbCircle
 62
7
  6
BYLAYER
 10
49.8115158085
 20
57.6154501623
 40
0.15
100
AcDbArc
 50
134.999999998
 51
224.999999998
  0
ARC
  5
3D5
100
AcDbEntity
  8
0
100
AcDbCircle
 62
7
  6
BYLAYER
 10
49.8872517398
 20
57.1154501623
 40
0.15
100
AcDbArc
 50
315.000000002
 51
45.000000002
  0
ARC
  5
3D6
100
AcDbEntity
  8
0
100
AcDbCircle
 62
7
  6
BYLAYER
 10
49.8115158085
 20
56.6154501623
 40
0.15
100
AcDbArc
 50
134.999999998
 51
224.999999998
  0
ARC
  5
3D7
100
AcDbEntity
  8
0
100
AcDbCircle
 62
7
  6
BYLAYER
 10
49.8872517398
 20
56.1154501623
 40
0.15
100
AcDbArc
 50
315.000000002
 51
45.000000002
  0
ARC
  5
3D8
100
AcDbEntity
  8
0
100
AcDbCircle
 62
7
  6
BYLAYER
 10
49.8115158085
 20
55.6154501623
 40
0.15
100
AcDbArc
 50
134.999999998
 51
224.999999998
  0
ARC
  5
3D9
100
AcDbEntity
  8
0
100
AcDbCircle
 62
7
  6
BYLAYER
 10
49.8872517398
 20
55.1154501623
 40
0.15
100
AcDbArc
 50
315.000000002
 51
45.000000002
  0
ARC
  5
3DA
100
AcDbEntity
  8
0
100
AcDbCircle
 62
7
  6
BYLAYER
 10
49.8115158085
 20
54.6154501623
 40
0.15
100
AcDbArc
 50
134.999999998
 51
224.999999998
  0
ARC
  5
3DB
100
AcDbEntity
  8
0
100
AcDbCircle
 62
7
  6
BYLAYER
 10
49.8872517398
 20
54.1154501623
 40
0.15
100
AcDbArc
 50
315.000000002
 51
45.000000002
  0
ARC
  5
3DC
100
AcDbEntity
  8
0
100
AcDbCircle
 62
7
  6
BYLAYER
 10
49.8115158085
 20
53.6154501623
 40
0.15
100
AcDbArc
 50
134.999999998
 51
224.9999999981
  0
ARC
  5
3DD
100
AcDbEntity
  8
0
100
AcDbCircle
 62
7
  6
BYLAYER
 10
49.8872517398
 20
53.1154501623
 40
0.15
100
AcDbArc
 50
315.000000002
 51
45.000000002
  0
ARC
  5
3DE
100
AcDbEntity
  8
0
100
AcDbCircle
 62
7
  6
BYLAYER
 10
49.8115158085
 20
52.6154501623
 40
0.15
100
AcDbArc
 50
134.999999998
 51
224.9999999981
  0
ARC
  5
3DF
100
AcDbEntity
  8
0
100
AcDbCircle
 62
7
  6
BYLAYER
 10
49.8872517398
 20
52.1154501623
 40
0.15
100
AcDbArc
 50
315.000000002
 51
45.000000002
  0
ARC
  5
3E0
100
AcDbEntity
  8
0
100
AcDbCircle
 62
7
  6
BYLAYER
 10
49.8115158085
 20
51.6154501623
 40
0.15
100
AcDbArc
 50
134.999999998
 51
224.9999999981
  0
ARC
  5
3E1
100
AcDbEntity
  8
0
100
AcDbCircle
 62
7
  6
BYLAYER
 10
49.8872517398
 20
51.1154501623
 40
0.15
100
AcDbArc
 50
315.000000002
 51
45.000000002
  0
ARC
  5
3E2
100
AcDbEntity
  8
0
100
AcDbCircle
 62
7
  6
BYLAYER
 10
49.8115158085
 20
50.6154501623
 40
0.15
100
AcDbArc
 50
134.999999998
 51
224.9999999981
  0
ARC
  5
3E3
100
AcDbEntity
  8
0
100
AcDbCircle
 62
7
  6
BYLAYER
 10
49.8872517398
 20
50.1154501623
 40
0.15
100
AcDbArc
 50
315.000000002
 51
45.000000002
  0
ARC
  5
3E4
100
AcDbEntity
  8
0
100
AcDbCircle
 62
7
  6
BYLAYER
 10
49.8862302143
 20
75.1144286368
 40
0.15
100
AcDbArc
 50
315.0000000002
 51
45.0
  0
ARC
  5
3E5
100
AcDbEntity
  8
0
100
AcDbCircle
 62
7
  6
BYLAYER
 10
49.8115158085
 20
74.6154501623
 40
0.15
100
AcDbArc
 50
135.0000000001
 51
225.0000000001
  0
ARC
  5
3E6
100
AcDbEntity
  8
0
100
AcDbCircle
 62
7
  6
BYLAYER
 10
49.8872517398
 20
74.1154501623
 40
0.15
100
AcDbArc
 50
315.0000000004
 51
44.9999999999
  0
ARC
  5
3E7
100
AcDbEntity
  8
0
100
AcDbCircle
 62
7
  6
BYLAYER
 10
49.8115158085
 20
73.6154501623
 40
0.15
100
AcDbArc
 50
135.0
 51
225.0
  0
ARC
  5
3E8
100
AcDbEntity
  8
0
100
AcDbCircle
 62
7
  6
BYLAYER
 10
49.8872517398
 20
73.1154501623
 40
0.15
100
AcDbArc
 50
315.0
 51
45.0
  0
ARC
  5
3E9
100
AcDbEntity
  8
0
100
AcDbCircle
 62
7
  6
BYLAYER
 10
49.8115158085
 20
72.6154501623
 40
0.15
100
AcDbArc
 50
135.0
 51
225.0
  0
ENDSEC
  0
SECTION
  2
OBJECTS
  0
DICTIONARY
  5
C
100
AcDbDictionary
280
0
281
1
  3
ACAD_GROUP
350
D
  3
ACAD_MLINESTYLE
350
17
  3
ACAD_LAYOUT
350
1A
  3
ACAD_PLOTSETTINGS
350
19
  3
ACAD_PLOTSTYLENAME
350
E
  0
DICTIONARY
  5
D
102
{ACAD_REACTORS
330
C
102
}
100
AcDbDictionary
280
0
281
1
  0
ACDBDICTIONARYWDFLT
  5
E
102
{ACAD_REACTORS
330
C
102
}
100
AcDbDictionary
281
1
  3
Normal
350
F
100
AcDbDictionaryWithDefault
340
F
  0
DICTIONARY
  5
17
102
{ACAD_REACTORS
330
C
102
}
100
AcDbDictionary
280
0
281
1
  3
Standard
350
18
  0
DICTIONARY
  5
19
102
{ACAD_REACTORS
330
C
102
}
100
AcDbDictionary
281
1
  0
DICTIONARY
  5
1A
102
{ACAD_REACTORS
330
C
102
}
100
AcDbDictionary
281
1
  3
Model
350
3EA
  3
Layout1
350
3EB
  0
ACDBPLACEHOLDER
  5
F
102
{ACAD_REACTORS
330
E
102
}
  0
MLINESTYLE
  5
18
102
{ACAD_REACTORS
330
17
102
}
100
AcDbMlineStyle
  2
STANDARD
 70
0
  3

 62
256
 51
90.0
 52
90.0
 71
2
 49
0.5
 62
256
  6
BYLAYER
 49
-0.5
 62
256
  6
BYLAYER
  0
LAYOUT
  5
3EA
102
{ACAD_REACTORS
330
1A
102
}
100
AcDbPlotSettings
  1

  2
none_device
  4

  6

 40
0.0
 41
0.0
 42
0.0
 43
0.0
 44
210.0
 45
297.0
 46
0.0
 47
0.0
 48
0.0
 49
0.0
140
0.0
141
0.0
142
1.0
143
1.0
 70
1024
 72
1
 73
0
 74
0
  7

 75
0
147
1.0
148
0.0
149
0.0
100
AcDbLayout
  1
Model
 70
0
 71
0
 10
0.0
 20
0.0
 11
210.0
 21
297.0
 12
0.0
 22
0.0
 32
0.0
 14
0.0
 24
0.0
 34
0.0
 15
0.0
 25
0.0
 35
0.0
146
0.0
 13
0.0
 23
0.0
 33
0.0
 16
1.0
 26
0.0
 36
0.0
 17
0.0
 27
1.0
 37
0.0
 76
0
330
210
345
0
346
0
  0
LAYOUT
  5
3EB
102
{ACAD_REACTORS
330
1A
102
}
100
AcDbPlotSettings
  1

  2
none_device
  4

  6

 40
0.0
 41
0.0
 42
0.0
 43
0.0
 44
210.0
 45
297.0
 46
0.0
 47
0.0
 48
0.0
 49
0.0
140
0.0
141
0.0
142
1.0
143
1.0
 70
0
 72
1
 73
0
 74
0
  7

 75
0
147
1.0
148
0.0
149
0.0
100
AcDbLayout
  1
Layout1
 70
0
 71
1
 10
0.0
 20
0.0
 11
210.0
 21
297.0
 12
0.0
 22
0.0
 32
0.0
 14
0.0
 24
0.0
 34
0.0
 15
0.0
 25
0.0
 35
0.0
146
0.0
 13
0.0
 23
0.0
 33
0.0
 16
1.0
 26
0.0
 36
0.0
 17
0.0
 27
1.0
 37
0.0
 76
0
330
211
345
0
346
0
  0
ENDSEC
  0
EOF
