999
DXF file: C:\Users\sesa63760\Dev\_Creo\CAD\MCADID0004739_3D-CAD\drw0001_6.dxf
999
Pro/ENGINEER 2019471 by Parametric Technology Corporation
  0
SECTION
  2
HEADER
  9
$ACADVER
  1
AC1024
  9
$DWGCODEPAGE
  3
ANSI_1252
  9
$EXTMAX
 10
24.3098581119
 20
34.381085044
 30
0.0
  9
$EXTMIN
 10
0.0
 20
0.0
 30
0.0
  9
$LIMMIN
 10
0.0
 20
0.0
  9
$LIMMAX
 10
24.3098581119
 20
34.381085044
  9
$VIEWCTR
 10
12.154929056
 20
17.190542522
  9
$VIEWSIZE
 40
34.381085044
  9
$CLAYER
  8
0
  9
$LTSCALE
 40
2.2411373955
  9
$CELTYPE
  6
BYLAYER
  9
$DIMSCALE
 40
1.0
  9
$DIMASZ
 40
0.2894030728
  9
$DIMEXO
 40
1.0
  9
$DIMDLI
 40
1.5484222005
  9
$DIMEXE
 40
1.0
  9
$DIMCEN
 40
0.3667315738
  9
$DIMLFAC
 40
1.0
  9
$DIMBLK
  1
_FILLED
  9
$DIMALT
 70
0
  9
$DIMALTF
 40
0.0393700787
  9
$DIMTXT
 40
0.4051643019
  9
$DIMTOL
 70
1
  9
$DIMLIM
 70
0
  9
$DIMTFAC
 40
1.0
  9
$DIMTP
 40
0.01
  9
$DIMTM
 40
0.01
  9
$DIMGAP
 40
0.625
  9
$DIMDSEP
 70
46
  9
$AUNITS
 70
0
  9
$PDMODE
 70
3
  9
$PDSIZE
 40
0.3125
  9
$HANDSEED
  5
280
  9
$TILEMODE
 70
1
  9
$MEASUREMENT
 70
1
  9
$INSUNITS
 70
4
  0
ENDSEC
  0
SECTION
  2
CLASSES
  0
CLASS
  1
ACDBDICTIONARYWDFLT
  2
AcDbDictionaryWithDefault
  3
AutoCAD 2000
 90
0
 91
1
280
0
281
0
  0
CLASS
  1
ACDBPLACEHOLDER
  2
AcDbPlaceHolder
  3
AutoCAD 2000
 90
0
 91
1
280
0
281
0
  0
CLASS
  1
LAYOUT
  2
AcDbLayout
  3
AutoCAD 2000
 90
0
 91
0
280
0
281
0
  0
ENDSEC
  0
SECTION
  2
TABLES
  0
TABLE
  2
VPORT
  5
8
100
AcDbSymbolTable
 70
2
  0
VPORT
  5
1F4
100
AcDbSymbolTableRecord
100
AcDbViewportTableRecord
  2
*ACTIVE
 70
0
 10
0.0
 20
0.0
 11
1.0
 21
1.0
 12
12.154929056
 22
17.190542522
 13
0.0
 23
0.0
 14
1.0
 24
1.0
 15
0.0
 25
0.0
 16
0.0
 26
0.0
 36
1.0
 17
0.0
 27
0.0
 37
0.0
 40
34.381085044
 41
0.7070707071
 42
50.0
 43
0.0
 44
0.0
 50
0.0
 51
0.0
 71
0
 72
100
 73
1
 74
1
 75
0
 76
0
 77
0
 78
0
  0
ENDTAB
  0
TABLE
  2
LTYPE
  5
5
100
AcDbSymbolTable
 70
6
  0
LTYPE
  5
14
100
AcDbSymbolTableRecord
100
AcDbLinetypeTableRecord
  2
BYBLOCK
 70
0
  3

 72
65
 73
0
 40
0.0
  0
LTYPE
  5
15
100
AcDbSymbolTableRecord
100
AcDbLinetypeTableRecord
  2
BYLAYER
 70
0
  3

 72
65
 73
0
 40
0.0
  0
LTYPE
  5
16
100
AcDbSymbolTableRecord
100
AcDbLinetypeTableRecord
  2
CONTINUOUS
 70
64
  3
Solid line
 72
65
 73
0
 40
0.0
  0
LTYPE
  5
1F5
100
AcDbSymbolTableRecord
100
AcDbLinetypeTableRecord
  2
CENTER
 70
64
  3
____ _ ____ _ ____ _ ____ _ ____ _ ____ _ ____
 72
65
 73
4
 40
0.6
 49
0.375
 74
0
 49
-0.075
 74
0
 49
0.075
 74
0
 49
-0.075
 74
0
  0
LTYPE
  5
1F6
100
AcDbSymbolTableRecord
100
AcDbLinetypeTableRecord
  2
HIDDEN
 70
64
  3
- - - - - - - - - - - - - - - - - - - -
 72
65
 73
2
 40
0.2
 49
0.1
 74
0
 49
-0.1
 74
0
  0
LTYPE
  5
1F7
100
AcDbSymbolTableRecord
100
AcDbLinetypeTableRecord
  2
PHANTOM
 70
64
  3
_____ _ _ _____ _ _ _____ _ _ _____
 72
65
 73
6
 40
0.8
 49
0.45
 74
0
 49
-0.05
 74
0
 49
0.1
 74
0
 49
-0.05
 74
0
 49
0.1
 74
0
 49
-0.05
 74
0
  0
LTYPE
  5
1F8
100
AcDbSymbolTableRecord
100
AcDbLinetypeTableRecord
  2
DOT
 70
64
  3
. . . . . . . . . . . . . . . . . . . .
 72
65
 73
2
 40
0.2
 49
0.1
 74
0
 49
-0.1
 74
0
  0
LTYPE
  5
1F9
100
AcDbSymbolTableRecord
100
AcDbLinetypeTableRecord
  2
DASHED
 70
64
  3
- - - - - - - - - - - - - - - - - - - -
 72
65
 73
2
 40
0.2
 49
0.1
 74
0
 49
-0.1
 74
0
  0
ENDTAB
  0
TABLE
  2
LAYER
  5
2
100
AcDbSymbolTable
 70
36
  0
LAYER
  5
10
100
AcDbSymbolTableRecord
100
AcDbLayerTableRecord
  2
0
 70
0
 62
7
  6
CONTINUOUS
370
-3
390
F
  0
LAYER
  5
1FA
100
AcDbSymbolTableRecord
100
AcDbLayerTableRecord
  2
DEFAULT_1
 70
0
 62
7
  6
CENTER
370
-3
390
F
  0
LAYER
  5
1FB
100
AcDbSymbolTableRecord
100
AcDbLayerTableRecord
  2
DEFAULT_2
 70
0
 62
7
  6
HIDDEN
370
-3
390
F
  0
LAYER
  5
1FC
100
AcDbSymbolTableRecord
100
AcDbLayerTableRecord
  2
DEFAULT_3
 70
0
 62
7
  6
PHANTOM
370
-3
390
F
  0
LAYER
  5
1FD
100
AcDbSymbolTableRecord
100
AcDbLayerTableRecord
  2
00_COMPONENTS
 70
0
 62
7
  6
CONTINUOUS
370
-3
390
F
  0
LAYER
  5
1FE
100
AcDbSymbolTableRecord
100
AcDbLayerTableRecord
  2
01_1_DEFAULT_DATUMS
 70
0
 62
7
  6
CONTINUOUS
370
-3
390
F
  0
LAYER
  5
1FF
100
AcDbSymbolTableRecord
100
AcDbLayerTableRecord
  2
01_PLANES
 70
0
 62
7
  6
CONTINUOUS
370
-3
390
F
  0
LAYER
  5
200
100
AcDbSymbolTableRecord
100
AcDbLayerTableRecord
  2
02_COORD_SYS
 70
0
 62
7
  6
CONTINUOUS
370
-3
390
F
  0
LAYER
  5
201
100
AcDbSymbolTableRecord
100
AcDbLayerTableRecord
  2
03_AXES
 70
0
 62
7
  6
CONTINUOUS
370
-3
390
F
  0
LAYER
  5
202
100
AcDbSymbolTableRecord
100
AcDbLayerTableRecord
  2
04_POINTS
 70
0
 62
7
  6
CONTINUOUS
370
-3
390
F
  0
LAYER
  5
203
100
AcDbSymbolTableRecord
100
AcDbLayerTableRecord
  2
05_CURVES
 70
0
 62
7
  6
CONTINUOUS
370
-3
390
F
  0
LAYER
  5
204
100
AcDbSymbolTableRecord
100
AcDbLayerTableRecord
  2
06_SURFS
 70
0
 62
7
  6
CONTINUOUS
370
-3
390
F
  0
LAYER
  5
205
100
AcDbSymbolTableRecord
100
AcDbLayerTableRecord
  2
07_COSMETICS
 70
0
 62
7
  6
CONTINUOUS
370
-3
390
F
  0
LAYER
  5
206
100
AcDbSymbolTableRecord
100
AcDbLayerTableRecord
  2
10_NOTES
 70
0
 62
7
  6
CONTINUOUS
370
-3
390
F
  0
LAYER
  5
207
100
AcDbSymbolTableRecord
100
AcDbLayerTableRecord
  2
11_NOTES_PUB
 70
0
 62
7
  6
CONTINUOUS
370
-3
390
F
  0
LAYER
  5
208
100
AcDbSymbolTableRecord
100
AcDbLayerTableRecord
  2
13_REF_GTOL
 70
0
 62
7
  6
CONTINUOUS
370
-3
390
F
  0
LAYER
  5
209
100
AcDbSymbolTableRecord
100
AcDbLayerTableRecord
  2
16_MISC
 70
0
 62
7
  6
CONTINUOUS
370
-3
390
F
  0
LAYER
  5
20A
100
AcDbSymbolTableRecord
100
AcDbLayerTableRecord
  2
17_NO_PRINT
 70
0
 62
7
  6
CONTINUOUS
370
-3
390
F
  0
LAYER
  5
20B
100
AcDbSymbolTableRecord
100
AcDbLayerTableRecord
  2
18_DATUM_CAMS_JOINTS
 70
0
 62
7
  6
CONTINUOUS
370
-3
390
F
  0
LAYER
  5
20C
100
AcDbSymbolTableRecord
100
AcDbLayerTableRecord
  2
19_DATUM_FUNCTIONAL
 70
0
 62
7
  6
CONTINUOUS
370
-3
390
F
  0
LAYER
  5
20D
100
AcDbSymbolTableRecord
100
AcDbLayerTableRecord
  2
20_DATUM_KINEMATIC_SCHEME
 70
0
 62
7
  6
CONTINUOUS
370
-3
390
F
  0
ENDTAB
  0
TABLE
  2
STYLE
  5
3
100
AcDbSymbolTable
 70
1
  0
STYLE
  5
11
100
AcDbSymbolTableRecord
100
AcDbTextStyleTableRecord
  2
STANDARD
 70
0
 40
0.0
 41
1.0
 50
0.0
 71
0
 42
0.2
  3
ARIAL.TTF
  4

  0
STYLE
  5
20E
100
AcDbSymbolTableRecord
100
AcDbTextStyleTableRecord
  2
TEXTSTYLE_1
 70
0
 40
0.0
 41
0.8
 50
0.0
 71
0
 42
0.2
  3
gdt
  4

  0
ENDTAB
  0
TABLE
  2
VIEW
  5
6
100
AcDbSymbolTable
 70
0
  0
ENDTAB
  0
TABLE
  2
UCS
  5
7
100
AcDbSymbolTable
 70
0
  0
ENDTAB
  0
TABLE
  2
APPID
  5
9
100
AcDbSymbolTable
 70
1
  0
APPID
  5
20F
100
AcDbSymbolTableRecord
100
AcDbRegAppTableRecord
  2
ACAD
 70
0
  0
ENDTAB
  0
TABLE
  2
BLOCK_RECORD
  5
1
100
AcDbSymbolTable
 70
0
  0
BLOCK_RECORD
  5
210
100
AcDbSymbolTableRecord
100
AcDbBlockTableRecord
  2
*Model_Space
  0
BLOCK_RECORD
  5
211
100
AcDbSymbolTableRecord
100
AcDbBlockTableRecord
  2
*Paper_Space
  0
BLOCK_RECORD
  5
212
100
AcDbSymbolTableRecord
100
AcDbBlockTableRecord
  2
_FILLED
  0
ENDTAB
  0
TABLE
  2
DIMSTYLE
  5
A
100
AcDbSymbolTable
 70
1
100
AcDbDimStyleTable
 71
0
  0
DIMSTYLE
105
213
100
AcDbSymbolTableRecord
100
AcDbDimStyleTableRecord
  2
STANDARD
 70
0
  3

  4

 40
1.0
 41
0.2894030728
 42
1.0
 43
0.38
 44
1.0
 45
0.0
 46
0.0
 47
0.01
 48
0.01
140
0.4051643019
141
0.09
142
0.0
143
25.4
144
1.0
145
0.0
146
1.0
147
0.625
 71
1
 72
0
 73
0
 74
0
 75
0
 76
0
 77
1
 78
8
 79
2
170
0
171
1
172
0
173
0
174
0
175
0
176
0
177
0
178
0
270
2
179
2
271
2
272
2
273
2
274
2
275
0
280
0
281
0
282
0
283
1
284
8
285
0
286
0
287
3
288
0
340
11
278
46
341
212
342
212
343
212
344
212
  0
ENDTAB
  0
ENDSEC
  0
SECTION
  2
BLOCKS
  0
BLOCK
  5
20
100
AcDbEntity
  8
0
100
AcDbBlockBegin
  2
*Model_Space
 70
0
 10
0.0
 20
0.0
 30
0.0
  3
*Model_Space
  1

  0
ENDBLK
  5
21
100
AcDbEntity
  8
0
100
AcDbBlockEnd
  0
BLOCK
  5
1C
100
AcDbEntity
  8
0
100
AcDbBlockBegin
  2
*Paper_Space
 70
0
 10
0.0
 20
0.0
 30
0.0
  3
*Paper_Space
  1

  0
ENDBLK
  5
1D
100
AcDbEntity
  8
0
100
AcDbBlockEnd
  0
BLOCK
  5
214
100
AcDbEntity
  8
0
100
AcDbBlockBegin
  2
_FILLED
 70
64
 10
0.0
 20
0.0
  3
_FILLED
  1

  0
SOLID
  5
215
100
AcDbEntity
  8
0
  6
BYBLOCK
 62
0
100
AcDbTrace
 10
0.0
 20
0.0
 11
-1.0
 21
0.25
 12
-1.0
 22
-0.25
 13
-1.0
 23
-0.25
  0
ENDBLK
  5
216
100
AcDbEntity
  8
0
  6
BYBLOCK
 62
0
100
AcDbBlockEnd
  0
ENDSEC
  0
SECTION
  2
ENTITIES
  0
LINE
  5
217
100
AcDbEntity
  8
0
100
AcDbLine
 62
7
  6
BYLAYER
 10
18.215334733
 20
2.840542522
 11
6.5154024677
 21
2.840542522
  0
LINE
  5
218
100
AcDbEntity
  8
0
100
AcDbLine
 62
7
  6
BYLAYER
 10
18.5653449793
 20
3.340542522
 11
6.1653449793
 21
3.340542522
  0
LINE
  5
219
100
AcDbEntity
  8
0
100
AcDbLine
 62
7
  6
BYLAYER
 10
6.1653449793
 20
5.340542522
 11
18.5653449793
 21
5.340542522
  0
LINE
  5
21A
100
AcDbEntity
  8
0
100
AcDbLine
 62
7
  6
BYLAYER
 10
18.3653449793
 20
5.540542522
 11
6.416675811
 21
5.540542522
  0
LINE
  5
21B
100
AcDbEntity
  8
0
100
AcDbLine
 62
7
  6
BYLAYER
 10
18.5653449793
 20
6.540542522
 11
6.1653449793
 21
6.540542522
  0
LINE
  5
21C
100
AcDbEntity
  8
0
100
AcDbLine
 62
7
  6
BYLAYER
 10
6.1653449793
 20
7.690542522
 11
18.5653449793
 21
7.690542522
  0
LINE
  5
21D
100
AcDbEntity
  8
0
100
AcDbLine
 62
7
  6
BYLAYER
 10
4.4153449793
 20
11.140542522
 11
4.4153449793
 21
12.190507826
  0
LINE
  5
21E
100
AcDbEntity
  8
0
100
AcDbLine
 62
7
  6
BYLAYER
 10
18.9153449793
 20
9.030542522
 11
5.8153449793
 21
9.030542522
  0
LINE
  5
21F
100
AcDbEntity
  8
0
100
AcDbLine
 62
7
  6
BYLAYER
 10
5.8153449793
 20
11.140542522
 11
5.8153449793
 21
9.030542522
  0
LINE
  5
220
100
AcDbEntity
  8
0
100
AcDbLine
 62
7
  6
BYLAYER
 10
6.5812027836
 20
20.2509804058
 11
7.5410235884
 21
22.2532083252
  0
LINE
  5
221
100
AcDbEntity
  8
0
100
AcDbLine
 62
7
  6
BYLAYER
 10
6.5713719445
 20
20.1212982112
 11
7.579997197
 21
22.1235261308
  0
LINE
  5
222
100
AcDbEntity
  8
0
100
AcDbLine
 62
7
  6
BYLAYER
 10
6.1653449793
 20
7.690542522
 11
6.1653449793
 21
6.540542522
  0
LINE
  5
223
100
AcDbEntity
  8
0
100
AcDbLine
 62
7
  6
BYLAYER
 10
6.1653449793
 20
5.340542522
 11
6.1653449793
 21
2.9835122392
  0
LINE
  5
224
100
AcDbEntity
  8
0
100
AcDbLine
 62
7
  6
BYLAYER
 10
6.3153449793
 20
16.340542522
 11
6.3153449793
 21
12.640542522
  0
LINE
  5
225
100
AcDbEntity
  8
0
100
AcDbLine
 62
7
  6
BYLAYER
 10
6.5517254784
 20
20.1212982112
 11
6.5517254784
 21
16.340542522
  0
LINE
  5
226
100
AcDbEntity
  8
0
100
AcDbLine
 62
7
  6
BYLAYER
 10
6.5713719445
 20
20.1212982112
 11
6.5713719445
 21
16.340542522
  0
LINE
  5
227
100
AcDbEntity
  8
0
100
AcDbLine
 62
7
  6
BYLAYER
 10
6.9153449793
 20
9.030542522
 11
6.9153449793
 21
7.690542522
  0
LINE
  5
228
100
AcDbEntity
  8
0
100
AcDbLine
 62
7
  6
BYLAYER
 10
20.3153449793
 20
11.140542522
 11
4.4153449793
 21
11.140542522
  0
LINE
  5
229
100
AcDbEntity
  8
0
100
AcDbLine
 62
7
  6
BYLAYER
 10
4.4153449793
 20
12.140542522
 11
20.3153449793
 21
12.140542522
  0
LINE
  5
22A
100
AcDbEntity
  8
0
100
AcDbLine
 62
7
  6
BYLAYER
 10
4.8653449793
 20
12.640542522
 11
19.8653441142
 21
12.640542522
  0
LINE
  5
22B
100
AcDbEntity
  8
0
100
AcDbLine
 62
7
  6
BYLAYER
 10
9.2876931288
 20
11.140542522
 11
9.2876918545
 21
9.030542522
  0
LINE
  5
22C
100
AcDbEntity
  8
0
100
AcDbLine
 62
7
  6
BYLAYER
 10
9.3223634525
 20
11.140542522
 11
9.3223634525
 21
9.030542522
  0
LINE
  5
22D
100
AcDbEntity
  8
0
100
AcDbLine
 62
7
  6
BYLAYER
 10
9.334256066
 20
28.240543547
 11
9.334256066
 21
24.3273582137
  0
LINE
  5
22E
100
AcDbEntity
  8
0
100
AcDbLine
 62
7
  6
BYLAYER
 10
9.7473480375
 20
9.030542522
 11
9.7473480375
 21
11.140542522
  0
LINE
  5
22F
100
AcDbEntity
  8
0
100
AcDbLine
 62
7
  6
BYLAYER
 10
4.8653449793
 20
12.640542522
 11
4.4153276313
 21
12.190525174
  0
LINE
  5
230
100
AcDbEntity
  8
0
100
AcDbLine
 62
7
  6
BYLAYER
 10
10.3333636939
 20
11.140542522
 11
10.3333873004
 21
9.030542522
  0
LINE
  5
231
100
AcDbEntity
  8
0
100
AcDbLine
 62
7
  6
BYLAYER
 10
10.9328732561
 20
11.140542522
 11
10.9328682166
 21
9.030542522
  0
LINE
  5
232
100
AcDbEntity
  8
0
100
AcDbLine
 62
7
  6
BYLAYER
 10
11.1718854944
 20
11.140542522
 11
11.1718854944
 21
9.030542522
  0
LINE
  5
233
100
AcDbEntity
  8
0
100
AcDbLine
 62
7
  6
BYLAYER
 10
12.5216283392
 20
26.6268694997
 11
12.5808404058
 21
26.9626778165
  0
LINE
  5
234
100
AcDbEntity
  8
0
100
AcDbLine
 62
7
  6
BYLAYER
 10
11.6279501306
 20
9.030542522
 11
11.6279501306
 21
11.140542522
  0
LINE
  5
235
100
AcDbEntity
  8
0
100
AcDbLine
 62
7
  6
BYLAYER
 10
12.0550159944
 20
11.140542522
 11
12.0550231392
 21
9.030542522
  0
LINE
  5
236
100
AcDbEntity
  8
0
100
AcDbLine
 62
7
  6
BYLAYER
 10
6.3153449793
 20
16.340542522
 11
6.5713719445
 21
16.340542522
  0
LINE
  5
237
100
AcDbEntity
  8
0
100
AcDbLine
 62
7
  6
BYLAYER
 10
18.159318014
 20
16.340542522
 11
18.4153449793
 21
16.340542522
  0
LINE
  5
238
100
AcDbEntity
  8
0
100
AcDbLine
 62
7
  6
BYLAYER
 10
12.6756739641
 20
11.140542522
 11
12.6756710356
 21
9.030542522
  0
LINE
  5
239
100
AcDbEntity
  8
0
100
AcDbLine
 62
7
  6
BYLAYER
 10
13.1027398279
 20
11.140542522
 11
13.1027398279
 21
9.030542522
  0
LINE
  5
23A
100
AcDbEntity
  8
0
100
AcDbLine
 62
7
  6
BYLAYER
 10
13.5588044641
 20
9.030542522
 11
13.5588044641
 21
11.140542522
  0
LINE
  5
23B
100
AcDbEntity
  8
0
100
AcDbLine
 62
7
  6
BYLAYER
 10
13.7978167024
 20
11.140542522
 11
13.7978176025
 21
9.030542522
  0
LINE
  5
23C
100
AcDbEntity
  8
0
100
AcDbLine
 62
7
  6
BYLAYER
 10
14.3973262646
 20
11.140542522
 11
14.3973241454
 21
9.030542522
  0
LINE
  5
23D
100
AcDbEntity
  8
0
100
AcDbLine
 62
7
  6
BYLAYER
 10
19.8653449793
 20
12.640542522
 11
20.3153449793
 21
12.190542522
  0
LINE
  5
23E
100
AcDbEntity
  8
0
100
AcDbLine
 62
7
  6
BYLAYER
 10
12.2090616194
 20
26.6268694997
 11
12.1498495528
 21
26.9626778165
  0
LINE
  5
23F
100
AcDbEntity
  8
0
100
AcDbLine
 62
7
  6
BYLAYER
 10
14.9833419211
 20
11.140542522
 11
14.9833419211
 21
9.030542522
  0
LINE
  5
240
100
AcDbEntity
  8
0
100
AcDbLine
 62
7
  6
BYLAYER
 10
15.3964338925
 20
24.3273590546
 11
15.3964338925
 21
28.240543548
  0
LINE
  5
241
100
AcDbEntity
  8
0
100
AcDbLine
 62
7
  6
BYLAYER
 10
15.408326506
 20
9.030542522
 11
15.408326506
 21
11.140542522
  0
LINE
  5
242
100
AcDbEntity
  8
0
100
AcDbLine
 62
7
  6
BYLAYER
 10
15.4429968297
 20
11.140542522
 11
15.4429970151
 21
9.030542522
  0
LINE
  5
243
100
AcDbEntity
  8
0
100
AcDbLine
 62
7
  6
BYLAYER
 10
6.5517254784
 20
20.1212982112
 11
6.5713719445
 21
20.1212982112
  0
LINE
  5
244
100
AcDbEntity
  8
0
100
AcDbLine
 62
7
  6
BYLAYER
 10
18.1593180141
 20
20.1212982112
 11
18.1789644801
 21
20.1212982112
  0
LINE
  5
245
100
AcDbEntity
  8
0
100
AcDbLine
 62
7
  6
BYLAYER
 10
17.8153449793
 20
7.690542522
 11
17.8153449793
 21
9.030542522
  0
LINE
  5
246
100
AcDbEntity
  8
0
100
AcDbLine
 62
7
  6
BYLAYER
 10
18.1593180141
 20
16.340542522
 11
18.1593180141
 21
20.1212982112
  0
LINE
  5
247
100
AcDbEntity
  8
0
100
AcDbLine
 62
7
  6
BYLAYER
 10
18.1789644801
 20
16.340542522
 11
18.1789644801
 21
20.1212982112
  0
LINE
  5
248
100
AcDbEntity
  8
0
100
AcDbLine
 62
7
  6
BYLAYER
 10
18.4153449793
 20
12.640542522
 11
18.4153449793
 21
16.340542522
  0
LINE
  5
249
100
AcDbEntity
  8
0
100
AcDbLine
 62
7
  6
BYLAYER
 10
18.5653449793
 20
2.9835122392
 11
18.5653449793
 21
5.340542522
  0
LINE
  5
24A
100
AcDbEntity
  8
0
100
AcDbLine
 62
7
  6
BYLAYER
 10
18.5653449793
 20
6.540542522
 11
18.5653449793
 21
7.690542522
  0
LINE
  5
24B
100
AcDbEntity
  8
0
100
AcDbLine
 62
7
  6
BYLAYER
 10
18.9153449793
 20
9.030542522
 11
18.9153449793
 21
11.140542522
  0
LINE
  5
24C
100
AcDbEntity
  8
0
100
AcDbLine
 62
7
  6
BYLAYER
 10
18.1593180141
 20
20.1212982112
 11
17.1506927615
 21
22.1235261308
  0
LINE
  5
24D
100
AcDbEntity
  8
0
100
AcDbLine
 62
7
  6
BYLAYER
 10
17.1896663701
 20
22.2532083253
 11
18.1494920811
 21
20.2509701712
  0
LINE
  5
24E
100
AcDbEntity
  8
0
100
AcDbLine
 62
7
  6
BYLAYER
 10
9.2671297753
 20
24.040542522
 11
10.7373389086
 21
24.040542522
  0
LINE
  5
24F
100
AcDbEntity
  8
0
100
AcDbLine
 62
7
  6
BYLAYER
 10
13.9934000055
 20
24.040542522
 11
15.4636260183
 21
24.040542522
  0
LINE
  5
250
100
AcDbEntity
  8
0
100
AcDbLine
 62
7
  6
BYLAYER
 10
9.4170403817
 20
24.340542522
 11
10.8161516408
 21
24.340542522
  0
LINE
  5
251
100
AcDbEntity
  8
0
100
AcDbLine
 62
7
  6
BYLAYER
 10
13.9145383178
 20
24.340542522
 11
15.3136495768
 21
24.340542522
  0
LINE
  5
252
100
AcDbEntity
  8
0
100
AcDbLine
 62
7
  6
BYLAYER
 10
20.3153449793
 20
11.140542522
 11
20.3153449793
 21
12.1905422798
  0
LINE
  5
253
100
AcDbEntity
  8
0
100
AcDbLine
 62
7
  6
BYLAYER
 10
9.334256066
 20
28.240542522
 11
15.3964338925
 21
28.240542522
  0
LINE
  5
254
100
AcDbEntity
  8
0
100
AcDbLine
 62
7
  6
BYLAYER
 10
9.5675780126
 20
28.440542522
 11
15.163111946
 21
28.440542522
  0
ARC
  5
255
100
AcDbEntity
  8
0
100
AcDbCircle
 62
7
  6
BYLAYER
 10
-3.7603364924
 20
6.1285232463
 40
29.2561667585
100
AcDbArc
 50
49.0959476662
 51
49.6977819315
  0
ARC
  5
256
100
AcDbEntity
  8
0
100
AcDbCircle
 62
7
  6
BYLAYER
 10
6.3653449793
 20
6.040542522
 40
0.5
100
AcDbArc
 50
90.0
 51
270.0
  0
ARC
  5
257
100
AcDbEntity
  8
0
100
AcDbCircle
 62
7
  6
BYLAYER
 10
6.5153449793
 20
3.340542522
 40
0.5
100
AcDbArc
 50
225.5729959992
 51
270.0
  0
ARC
  5
258
100
AcDbEntity
  8
0
100
AcDbCircle
 62
7
  6
BYLAYER
 10
6.5153449793
 20
5.640542522
 40
0.3
100
AcDbArc
 50
270.0
 51
342.9955626048
  0
ARC
  5
259
100
AcDbEntity
  8
0
100
AcDbCircle
 62
7
  6
BYLAYER
 10
12.3653449793
 20
25.740542522
 40
5.8
100
AcDbArc
 50
325.4266222002
 51
214.5733783034
  0
ARC
  5
25A
100
AcDbEntity
  8
0
100
AcDbCircle
 62
7
  6
BYLAYER
 10
12.3653449793
 20
25.740542522
 40
5.6
100
AcDbArc
 50
326.1315315973
 51
213.8710172471
  0
ARC
  5
25B
100
AcDbEntity
  8
0
100
AcDbCircle
 62
7
  6
BYLAYER
 10
12.3653449793
 20
19.940542522
 40
5.35
100
AcDbArc
 50
125.7198570381
 51
154.3880404595
  0
ARC
  5
25C
100
AcDbEntity
  8
0
100
AcDbCircle
 62
7
  6
BYLAYER
 10
12.3653449793
 20
19.940542522
 40
5.35
100
AcDbArc
 50
25.6119595411
 51
54.2801580206
  0
ARC
  5
25D
100
AcDbEntity
  8
0
100
AcDbCircle
 62
7
  6
BYLAYER
 10
12.3653449793
 20
25.740542522
 40
2.0
100
AcDbArc
 50
227.6573950432
 51
312.3426049794
  0
CIRCLE
  5
25E
100
AcDbEntity
  8
0
100
AcDbCircle
 62
7
  6
BYLAYER
 10
12.3653449793
 20
25.740542522
 40
1.265
  0
ARC
  5
25F
100
AcDbEntity
  8
0
100
AcDbCircle
 62
7
  6
BYLAYER
 10
12.3653449793
 20
25.740542522
 40
1.0340598923
100
AcDbArc
 50
100.0
 51
80.0
  0
ARC
  5
260
100
AcDbEntity
  8
0
100
AcDbCircle
 62
7
  6
BYLAYER
 10
12.3653449793
 20
25.740542522
 40
0.9
100
AcDbArc
 50
100.0
 51
80.0
  0
ARC
  5
261
100
AcDbEntity
  8
0
100
AcDbCircle
 62
7
  6
BYLAYER
 10
10.8161516408
 20
24.040542522
 40
0.3
100
AcDbArc
 50
47.6573945478
 51
90.0
  0
ARC
  5
262
100
AcDbEntity
  8
0
100
AcDbCircle
 62
7
  6
BYLAYER
 10
6.8517254784
 20
20.1212982112
 40
0.3
100
AcDbArc
 50
154.387999394
 51
180.0
  0
ARC
  5
263
100
AcDbEntity
  8
0
100
AcDbCircle
 62
7
  6
BYLAYER
 10
9.4170403817
 20
24.040542522
 40
0.3
100
AcDbArc
 50
90.0
 51
125.7197715906
  0
ARC
  5
264
100
AcDbEntity
  8
0
100
AcDbCircle
 62
7
  6
BYLAYER
 10
28.4910266242
 20
6.1285232132
 40
29.2561668962
100
AcDbArc
 50
130.3022182863
 51
130.904052549
  0
ARC
  5
265
100
AcDbEntity
  8
0
100
AcDbCircle
 62
7
  6
BYLAYER
 10
18.3653449793
 20
6.040542522
 40
0.5
100
AcDbArc
 50
270.0
 51
90.0
  0
ARC
  5
266
100
AcDbEntity
  8
0
100
AcDbCircle
 62
7
  6
BYLAYER
 10
18.2153449793
 20
3.340542522
 40
0.5
100
AcDbArc
 50
270.0
 51
314.4270040008
  0
ARC
  5
267
100
AcDbEntity
  8
0
100
AcDbCircle
 62
7
  6
BYLAYER
 10
18.2153449793
 20
5.640542522
 40
0.3
100
AcDbArc
 50
197.0036779689
 51
270.0
  0
ARC
  5
268
100
AcDbEntity
  8
0
100
AcDbCircle
 62
7
  6
BYLAYER
 10
17.8789644801
 20
20.1212982112
 40
0.3
100
AcDbArc
 50
0.0
 51
25.6119595412
  0
ARC
  5
269
100
AcDbEntity
  8
0
100
AcDbCircle
 62
7
  6
BYLAYER
 10
15.3136495768
 20
24.040542522
 40
0.3
100
AcDbArc
 50
54.2801378858
 51
90.0
  0
ARC
  5
26A
100
AcDbEntity
  8
0
100
AcDbCircle
 62
7
  6
BYLAYER
 10
13.9145383178
 20
24.040542522
 40
0.3
100
AcDbArc
 50
90.0
 51
132.3426054522
  0
SPLINE
  5
26B
100
AcDbEntity
  8
0
100
AcDbSpline
 62
7
  6
BYLAYER
 70
0
 71
3
 72
31
 73
27
 74
0
 42
0.0000001
 43
0.0000001
 44
0.0000000001
 40
0.0
 40
0.0
 40
0.0
 40
0.0
 40
0.0315692571
 40
0.0630706663
 40
0.0944580865
 40
0.1257106927
 40
0.1412944831
 40
0.1568494619
 40
0.1878784122
 40
0.2497406516
 40
0.3117360042
 40
0.3741056082
 40
0.4369089087
 40
0.4999999879
 40
0.5630910776
 40
0.6258943911
 40
0.6882639968
 40
0.750259321
 40
0.8121215198
 40
0.8431504444
 40
0.858705434
 40
0.8742892354
 40
0.9055418462
 40
0.9369293107
 40
0.9684307412
 40
1.0
 40
1.0
 40
1.0
 40
1.0
 10
12.3653449793
 20
27.605542522
 30
0.0
 10
12.3093813244
 20
27.605542522
 30
0.0
 10
12.1974227765
 20
27.5977895157
 30
0.0
 10
12.0330372333
 20
27.5634535325
 30
0.0
 10
11.8751513739
 20
27.5079787164
 30
0.0
 10
11.7507717128
 20
27.4458435096
 30
0.0
 10
11.6565313866
 20
27.3878546221
 30
0.0
 10
11.5660557729
 20
27.3248300686
 30
0.0
 10
11.4176081728
 20
27.2021326593
 30
0.0
 10
11.2339876036
 20
26.9954858959
 30
0.0
 10
11.0619765344
 20
26.7118755332
 30
0.0
 10
10.9382854128
 20
26.4024668475
 30
0.0
 10
10.8635608818
 20
26.0758771315
 30
0.0
 10
10.8385329133
 20
25.7405425678
 30
0.0
 10
10.8635608594
 20
25.4052079786
 30
0.0
 10
10.938285394
 20
25.0786182163
 30
0.0
 10
11.061976513
 20
24.7692095561
 30
0.0
 10
11.233987512
 20
24.4855992911
 30
0.0
 10
11.4176079458
 20
24.2789526409
 30
0.0
 10
11.5660554225
 20
24.1562552368
 30
0.0
 10
11.6565310201
 20
24.0932306722
 30
0.0
 10
11.750771363
 20
24.0352417218
 30
0.0
 10
11.875151112
 20
23.9731064532
 30
0.0
 10
12.0330370716
 20
23.917631544
 30
0.0
 10
12.1974227337
 20
23.8832955385
 30
0.0
 10
12.3093813214
 20
23.875542522
 30
0.0
 10
12.3653449793
 20
23.875542522
 30
0.0
  0
SPLINE
  5
26C
100
AcDbEntity
  8
0
100
AcDbSpline
 62
7
  6
BYLAYER
 70
0
 71
3
 72
31
 73
27
 74
0
 42
0.0000001
 43
0.0000001
 44
0.0000000001
 40
0.0
 40
0.0
 40
0.0
 40
0.0
 40
0.0315692538
 40
0.0630706629
 40
0.0944580837
 40
0.1257106902
 40
0.1412944818
 40
0.1568494616
 40
0.1878784109
 40
0.2497406508
 40
0.3117360038
 40
0.3741056082
 40
0.4369089076
 40
0.4999999851
 40
0.5630910714
 40
0.6258943835
 40
0.6882639895
 40
0.7502593163
 40
0.8121215145
 40
0.8431504369
 40
0.8587054278
 40
0.8742892302
 40
0.9055418423
 40
0.9369293137
 40
0.9684307464
 40
1.0
 40
1.0
 40
1.0
 40
1.0
 10
12.3653449793
 20
23.875542522
 30
0.0
 10
12.4213086282
 20
23.875542522
 30
0.0
 10
12.53326717
 20
23.8832955271
 30
0.0
 10
12.6976527087
 20
23.9176315074
 30
0.0
 10
12.8555385704
 20
23.9731063209
 30
0.0
 10
12.9799182356
 20
24.0352415282
 30
0.0
 10
13.0741585654
 20
24.0932304183
 30
0.0
 10
13.1646341819
 20
24.1562549717
 30
0.0
 10
13.3130817823
 20
24.2789523821
 30
0.0
 10
13.4967023526
 20
24.4855991443
 30
0.0
 10
13.6687134233
 20
24.7692095089
 30
0.0
 10
13.7924045449
 20
25.0786181938
 30
0.0
 10
13.8671290754
 20
25.4052079053
 30
0.0
 10
13.8921570446
 20
25.7405424578
 30
0.0
 10
13.8671291029
 20
26.0758770357
 30
0.0
 10
13.7924045749
 20
26.4024667913
 30
0.0
 10
13.6687134621
 20
26.7118754566
 30
0.0
 10
13.4967024652
 20
26.9954857279
 30
0.0
 10
13.3130820343
 20
27.2021323802
 30
0.0
 10
13.1646345632
 20
27.3248297868
 30
0.0
 10
13.0741589664
 20
27.3878543528
 30
0.0
 10
12.97991862
 20
27.4458433092
 30
0.0
 10
12.8555388566
 20
27.5079785864
 30
0.0
 10
12.6976528796
 20
27.5634535024
 30
0.0
 10
12.53326721
 20
27.5977895066
 30
0.0
 10
12.4213086279
 20
27.605542522
 30
0.0
 10
12.3653449793
 20
27.605542522
 30
0.0
  0
SPLINE
  5
26D
100
AcDbEntity
  8
0
100
AcDbSpline
 62
7
  6
BYLAYER
 70
0
 71
3
 72
15
 73
11
 74
0
 42
0.0000001
 43
0.0000001
 44
0.0000000001
 40
0.0
 40
0.0
 40
0.0
 40
0.0
 40
0.0750630863
 40
0.160666952
 40
0.2626482488
 40
0.3830665071
 40
0.5213205834
 40
0.6736805565
 40
0.8350900704
 40
1.0
 40
1.0
 40
1.0
 40
1.0
 10
9.2418816182
 20
24.284091299
 30
0.0
 10
9.2365723609
 20
24.2802740937
 30
0.0
 10
9.2267095652
 20
24.2698658557
 30
0.0
 10
9.2172195809
 20
24.248678578
 30
0.0
 10
9.2130458486
 20
24.2219414441
 30
0.0
 10
9.2141203073
 20
24.1904040968
 30
0.0
 10
9.2206317094
 20
24.1550934322
 30
0.0
 10
9.231981728
 20
24.1173206921
 30
0.0
 10
9.2476575407
 20
24.0786271269
 30
0.0
 10
9.2603047161
 20
24.053137792
 30
0.0
 10
9.2671268131
 20
24.0404949825
 30
0.0
  0
SPLINE
  5
26E
100
AcDbEntity
  8
0
100
AcDbSpline
 62
7
  6
BYLAYER
 70
0
 71
3
 72
11
 73
7
 74
0
 42
0.0000001
 43
0.0000001
 44
0.0000000001
 40
0.0
 40
0.0
 40
0.0
 40
0.0
 40
0.2608453035
 40
0.5178311681
 40
0.7655058171
 40
1.0
 40
1.0
 40
1.0
 40
1.0
 10
9.267124882
 20
24.0404950814
 30
0.0
 10
9.2671243204
 20
24.0557450518
 30
0.0
 10
9.2682949635
 20
24.0860313079
 30
0.0
 10
9.2734338129
 20
24.1305349324
 30
0.0
 10
9.2818905151
 20
24.1729626637
 30
0.0
 10
9.289846198
 20
24.2000590683
 30
0.0
 10
9.2943915203
 20
24.2129930295
 30
0.0
  0
SPLINE
  5
26F
100
AcDbEntity
  8
0
100
AcDbSpline
 62
7
  6
BYLAYER
 70
0
 71
3
 72
14
 73
10
 74
0
 42
0.0000001
 43
0.0000001
 44
0.0000000001
 40
0.0
 40
0.0
 40
0.0
 40
0.0
 40
0.3118037693
 40
0.4512828489
 40
0.5792870248
 40
0.6963946235
 40
0.8039160309
 40
0.9040078629
 40
1.0
 40
1.0
 40
1.0
 40
1.0
 10
9.2943915203
 20
24.2129930295
 30
0.0
 10
9.3008561945
 20
24.2313886102
 30
0.0
 10
9.3121981135
 20
24.2574595847
 30
0.0
 10
9.3317156387
 20
24.2880523998
 30
0.0
 10
9.3470589205
 20
24.3066674122
 30
0.0
 10
9.3634903966
 20
24.3215124076
 30
0.0
 10
9.3807940261
 20
24.3323728378
 30
0.0
 10
9.3987300158
 20
24.3390282475
 30
0.0
 10
9.4110375762
 20
24.340542522
 30
0.0
 10
9.4170403821
 20
24.340542522
 30
0.0
  0
SPLINE
  5
270
100
AcDbEntity
  8
0
100
AcDbSpline
 62
7
  6
BYLAYER
 70
0
 71
3
 72
14
 73
10
 74
0
 42
0.0000001
 43
0.0000001
 44
0.0000000001
 40
0.0
 40
0.0
 40
0.0
 40
0.0
 40
0.100807238
 40
0.2057306004
 40
0.3172208035
 40
0.4369266118
 40
0.5657559952
 40
0.7034287211
 40
1.0
 40
1.0
 40
1.0
 40
1.0
 10
7.541017795
 20
22.2532121904
 30
0.0
 10
7.5389472276
 20
22.2488917644
 30
0.0
 10
7.5357493074
 20
22.2395493359
 30
0.0
 10
7.5339988419
 20
22.2244789449
 30
0.0
 10
7.5351566321
 20
22.2084633698
 30
0.0
 10
7.5391702289
 20
22.1917619955
 30
0.0
 10
7.5459660169
 20
22.1746560046
 30
0.0
 10
7.5586200961
 20
22.1510322106
 30
0.0
 10
7.5709132822
 20
22.134299761
 30
0.0
 10
7.5800002847
 20
22.1235252092
 30
0.0
  0
SPLINE
  5
271
100
AcDbEntity
  8
0
100
AcDbSpline
 62
7
  6
BYLAYER
 70
0
 71
3
 72
9
 73
5
 74
0
 42
0.0000001
 43
0.0000001
 44
0.0000000001
 40
0.0
 40
0.0
 40
0.0
 40
0.0
 40
0.5172696511
 40
1.0
 40
1.0
 40
1.0
 40
1.0
 10
6.5713684927
 20
20.1212982126
 30
0.0
 10
6.5655512477
 20
20.1433127589
 30
0.0
 10
6.5610600081
 20
20.1880072709
 30
0.0
 10
6.5720167613
 20
20.2318189895
 30
0.0
 10
6.5812028758
 20
20.250980598
 30
0.0
  0
SPLINE
  5
272
100
AcDbEntity
  8
0
100
AcDbSpline
 62
7
  6
BYLAYER
 70
0
 71
3
 72
15
 73
11
 74
0
 42
0.0000001
 43
0.0000001
 44
0.0000000001
 40
0.0
 40
0.0
 40
0.0
 40
0.0
 40
0.128736527
 40
0.255716734
 40
0.3812656614
 40
0.505688647
 40
0.629303875
 40
0.7525554839
 40
0.8759370859
 40
1.0
 40
1.0
 40
1.0
 40
1.0
 10
9.2671321802
 20
24.040541871
 30
0.0
 10
9.1757406336
 20
23.9780116412
 30
0.0
 10
8.9980094415
 20
23.8481286933
 30
0.0
 10
8.7457402384
 20
23.6382484324
 30
0.0
 10
8.5098373627
 20
23.4154831264
 30
0.0
 10
8.2903138818
 20
23.1805181474
 30
0.0
 10
8.0870722582
 20
22.9338906026
 30
0.0
 10
7.9002614831
 20
22.6756926633
 30
0.0
 10
7.7299155521
 20
22.405902654
 30
0.0
 10
7.6280010238
 20
22.2188427138
 30
0.0
 10
7.5799935687
 20
22.1235350762
 30
0.0
  0
SPLINE
  5
273
100
AcDbEntity
  8
0
100
AcDbSpline
 62
7
  6
BYLAYER
 70
0
 71
3
 72
15
 73
11
 74
0
 42
0.0000001
 43
0.0000001
 44
0.0000000001
 40
0.0
 40
0.0
 40
0.0
 40
0.0
 40
0.1240693008
 40
0.2474569027
 40
0.3707126297
 40
0.4943290284
 40
0.6187493811
 40
0.7442931709
 40
0.8712676917
 40
1.0
 40
1.0
 40
1.0
 40
1.0
 10
17.1506952172
 20
22.123530553
 30
0.0
 10
17.1026806576
 20
22.218838094
 30
0.0
 10
17.0007603747
 20
22.4059012058
 30
0.0
 10
16.8304157125
 20
22.6757004263
 30
0.0
 10
16.6436027117
 20
22.9339001216
 30
0.0
 10
16.4403629469
 20
23.1805228259
 30
0.0
 10
16.2208501888
 20
23.4154801197
 30
0.0
 10
15.9849639765
 20
23.6382356254
 30
0.0
 10
15.7327133425
 20
23.8481065029
 30
0.0
 10
15.5549947991
 20
23.9779839711
 30
0.0
 10
15.4636092188
 20
24.0405121149
 30
0.0
  0
SPLINE
  5
274
100
AcDbEntity
  8
0
100
AcDbSpline
 62
7
  6
BYLAYER
 70
0
 71
3
 72
9
 73
5
 74
0
 42
0.0000001
 43
0.0000001
 44
0.0000000001
 40
0.0
 40
0.0
 40
0.0
 40
0.0
 40
0.4827306292
 40
1.0
 40
1.0
 40
1.0
 40
1.0
 10
18.1494870974
 20
20.2509805674
 30
0.0
 10
18.1586732578
 20
20.2318189625
 30
0.0
 10
18.1696301467
 20
20.1880072807
 30
0.0
 10
18.1651391263
 20
20.1433127458
 30
0.0
 10
18.1593220019
 20
20.1212981756
 30
0.0
  0
SPLINE
  5
275
100
AcDbEntity
  8
0
100
AcDbSpline
 62
7
  6
BYLAYER
 70
0
 71
3
 72
13
 73
9
 74
0
 42
0.0000001
 43
0.0000001
 44
0.0000000001
 40
0.0
 40
0.0
 40
0.0
 40
0.0
 40
0.0966985416
 40
0.1982784957
 40
0.4245794843
 40
0.5534692257
 40
0.6930470818
 40
1.0
 40
1.0
 40
1.0
 40
1.0
 10
17.1896660627
 20
22.2532089666
 30
0.0
 10
17.1916511638
 20
22.2490681668
 30
0.0
 10
17.1947770713
 20
22.2400947518
 30
0.0
 10
17.1973772546
 20
22.2199845838
 30
0.0
 10
17.1938563684
 20
22.1980933777
 30
0.0
 10
17.1853992665
 20
22.1761476682
 30
0.0
 10
17.1726789757
 20
22.1519013551
 30
0.0
 10
17.1600906938
 20
22.1346691085
 30
0.0
 10
17.1506933124
 20
22.1235260427
 30
0.0
  0
SPLINE
  5
276
100
AcDbEntity
  8
0
100
AcDbSpline
 62
7
  6
BYLAYER
 70
0
 71
3
 72
11
 73
7
 74
0
 42
0.0000001
 43
0.0000001
 44
0.0000000001
 40
0.0
 40
0.0
 40
0.0
 40
0.0
 40
0.2613717368
 40
0.5186126713
 40
0.7661734236
 40
1.0
 40
1.0
 40
1.0
 40
1.0
 10
15.4635633692
 20
24.0405027891
 30
0.0
 10
15.4635638869
 20
24.0561464497
 30
0.0
 10
15.4623416302
 20
24.087199473
 30
0.0
 10
15.456948759
 20
24.1327881007
 30
0.0
 10
15.448052459
 20
24.1761462912
 30
0.0
 10
15.4396884713
 20
24.2037757085
 30
0.0
 10
15.4349107202
 20
24.2169299389
 30
0.0
  0
SPLINE
  5
277
100
AcDbEntity
  8
0
100
AcDbSpline
 62
7
  6
BYLAYER
 70
0
 71
3
 72
13
 73
9
 74
0
 42
0.0000001
 43
0.0000001
 44
0.0000000001
 40
0.0
 40
0.0
 40
0.0
 40
0.0
 40
0.3112277058
 40
0.578262543
 40
0.6955539085
 40
0.8032091317
 40
0.9035730493
 40
1.0
 40
1.0
 40
1.0
 40
1.0
 10
15.4349107202
 20
24.2169299389
 30
0.0
 10
15.4284223951
 20
24.234793767
 30
0.0
 10
15.4139437887
 20
24.2671966424
 30
0.0
 10
15.3888957034
 20
24.3020927717
 30
0.0
 10
15.3663485757
 20
24.3221301093
 30
0.0
 10
15.349350225
 20
24.3326395809
 30
0.0
 10
15.3317603222
 20
24.3390735728
 30
0.0
 10
15.3196997989
 20
24.340542464
 30
0.0
 10
15.3138113231
 20
24.3405424639
 30
0.0
  0
SPLINE
  5
278
100
AcDbEntity
  8
0
100
AcDbSpline
 62
7
  6
BYLAYER
 70
0
 71
3
 72
15
 73
11
 74
0
 42
0.0000001
 43
0.0000001
 44
0.0000000001
 40
0.0
 40
0.0
 40
0.0
 40
0.0
 40
0.164902907
 40
0.3263067914
 40
0.4786636699
 40
0.6169175612
 40
0.7373388652
 40
0.8393250029
 40
0.9249338967
 40
1.0
 40
1.0
 40
1.0
 40
1.0
 10
15.463568921
 20
24.0404979416
 30
0.0
 10
15.4703903329
 20
24.0531396143
 30
0.0
 10
15.4830363616
 20
24.0786267035
 30
0.0
 10
15.4987110566
 20
24.11731699
 30
0.0
 10
15.5100608755
 20
24.1550869182
 30
0.0
 10
15.5165728886
 20
24.1903956097
 30
0.0
 10
15.5176488636
 20
24.221931964
 30
0.0
 10
15.5134773272
 20
24.2486691563
 30
0.0
 10
15.5039900879
 20
24.2698574946
 30
0.0
 10
15.4941292286
 20
24.2802675027
 30
0.0
 10
15.4888206978
 20
24.2840856118
 30
0.0
  0
SPLINE
  5
279
100
AcDbEntity
  8
0
100
AcDbSpline
 62
7
  6
BYLAYER
 70
0
 71
3
 72
19
 73
15
 74
0
 42
0.0000001
 43
0.0000001
 44
0.0000000001
 40
0.0
 40
0.0
 40
0.0
 40
0.0
 40
0.0162566142
 40
0.0366987772
 40
0.063818166
 40
0.0992676411
 40
0.1440286053
 40
0.1978898375
 40
0.2602539627
 40
0.3304594945
 40
0.4901270862
 40
0.663744361
 40
0.8372555403
 40
1.0
 40
1.0
 40
1.0
 40
1.0
 10
13.7124602964
 20
24.2622725997
 30
0.0
 10
13.713933199
 20
24.2636149983
 30
0.0
 10
13.7181360222
 20
24.265708974
 30
0.0
 10
13.7260815895
 20
24.26606137
 30
0.0
 10
13.7361074025
 20
24.2639981764
 30
0.0
 10
13.7484326169
 20
24.2592826571
 30
0.0
 10
13.763070867
 20
24.2517649229
 30
0.0
 10
13.7799292916
 20
24.2414807748
 30
0.0
 10
13.7987525663
 20
24.2285025756
 30
0.0
 10
13.8272865678
 20
24.206823784
 30
0.0
 10
13.8648399158
 20
24.1745714799
 30
0.0
 10
13.90987271
 20
24.1317429214
 30
0.0
 10
13.9531158007
 20
24.0865843006
 30
0.0
 10
13.9804330592
 20
24.0556991941
 30
0.0
 10
13.9933395931
 20
24.0404860188
 30
0.0
  0
SPLINE
  5
27A
100
AcDbEntity
  8
0
100
AcDbSpline
 62
7
  6
BYLAYER
 70
0
 71
3
 72
19
 73
15
 74
0
 42
0.0000001
 43
0.0000001
 44
0.0000000001
 40
0.0
 40
0.0
 40
0.0
 40
0.0
 40
0.1809503688
 40
0.3557875883
 40
0.5177598702
 40
0.661564319
 40
0.7252542033
 40
0.7828074742
 40
0.8339033227
 40
0.8784405574
 40
0.9165074854
 40
0.9485729023
 40
0.9757507972
 40
1.0
 40
1.0
 40
1.0
 40
1.0
 10
13.993407183
 20
24.0405477077
 30
0.0
 10
13.9934070944
 20
24.0600474907
 30
0.0
 10
13.9923704431
 20
24.0983951439
 30
0.0
 10
13.9879682577
 20
24.1540429303
 30
0.0
 10
13.9809400471
 20
24.2053869743
 30
0.0
 10
13.9727685492
 20
24.2444072364
 30
0.0
 10
13.9648886028
 20
24.2718736781
 30
0.0
 10
13.9587489599
 20
24.2894145352
 30
0.0
 10
13.9521937619
 20
24.3045840106
 30
0.0
 10
13.9452883022
 20
24.3172584042
 30
0.0
 10
13.9380749249
 20
24.3273432704
 30
0.0
 10
13.9305543402
 20
24.3347525894
 30
0.0
 10
13.9227244617
 20
24.339417652
 30
0.0
 10
13.9171482183
 20
24.3405427283
 30
0.0
 10
13.9145350476
 20
24.3405425217
 30
0.0
  0
SPLINE
  5
27B
100
AcDbEntity
  8
0
100
AcDbSpline
 62
7
  6
BYLAYER
 70
0
 71
3
 72
21
 73
17
 74
0
 42
0.0000001
 43
0.0000001
 44
0.0000000001
 40
0.0
 40
0.0
 40
0.0
 40
0.0
 40
0.0088326011
 40
0.0182799454
 40
0.0288554822
 40
0.040917938
 40
0.0703134154
 40
0.1074066812
 40
0.1522733126
 40
0.2047222914
 40
0.2643319816
 40
0.3305311203
 40
0.4799306006
 40
0.6463830202
 40
0.822516505
 40
1.0
 40
1.0
 40
1.0
 40
1.0
 10
11.0182191588
 20
24.2622827262
 30
0.0
 10
11.0174192129
 20
24.2630122523
 30
0.0
 10
11.0155355873
 20
24.2642875256
 30
0.0
 10
11.012158165
 20
24.2654416492
 30
0.0
 10
11.0082283414
 20
24.2658977897
 30
0.0
 10
11.0018370283
 20
24.2655802699
 30
0.0
 10
10.9924219325
 20
24.2632443475
 30
0.0
 10
10.9797575033
 20
24.2581016705
 30
0.0
 10
10.9651488561
 20
24.2504371104
 30
0.0
 10
10.9487948641
 20
24.240290221
 30
0.0
 10
10.9308767565
 20
24.2277708953
 30
0.0
 10
10.9040761637
 20
24.2072716627
 30
0.0
 10
10.868463945
 20
24.1768134649
 30
0.0
 10
10.8245449802
 20
24.135462625
 30
0.0
 10
10.7801804444
 20
24.0896531795
 30
0.0
 10
10.7514803265
 20
24.0571514151
 30
0.0
 10
10.7374046685
 20
24.040563812
 30
0.0
  0
SPLINE
  5
27C
100
AcDbEntity
  8
0
100
AcDbSpline
 62
7
  6
BYLAYER
 70
0
 71
3
 72
15
 73
11
 74
0
 42
0.0000001
 43
0.0000001
 44
0.0000000001
 40
0.0
 40
0.0
 40
0.0
 40
0.0
 40
0.1238150817
 40
0.2484007624
 40
0.3738782714
 40
0.4999514956
 40
0.6260313546
 40
0.751534902
 40
0.8761783404
 40
1.0
 40
1.0
 40
1.0
 40
1.0
 10
10.7373389086
 20
24.040542522
 30
0.0
 10
10.847712931
 20
23.9448163007
 30
0.0
 10
11.0874739543
 20
23.7728787968
 30
0.0
 10
11.4883124961
 20
23.5832943476
 30
0.0
 10
11.9190160099
 20
23.4667451388
 30
0.0
 10
12.3651984623
 20
23.4274530202
 30
0.0
 10
12.8114008735
 20
23.4667539155
 30
0.0
 10
13.2422492246
 20
23.5831960797
 30
0.0
 10
13.6431568656
 20
23.7728921236
 30
0.0
 10
13.8830141307
 20
23.9448181204
 30
0.0
 10
13.9934000055
 20
24.040542522
 30
0.0
  0
SPLINE
  5
27D
100
AcDbEntity
  8
0
100
AcDbSpline
 62
7
  6
BYLAYER
 70
0
 71
3
 72
19
 73
15
 74
0
 42
0.0000001
 43
0.0000001
 44
0.0000000001
 40
0.0
 40
0.0
 40
0.0
 40
0.0
 40
0.1809563603
 40
0.3557886776
 40
0.5177697966
 40
0.6615814673
 40
0.7252705819
 40
0.7828223822
 40
0.8339174172
 40
0.8784543199
 40
0.9165206065
 40
0.9485837352
 40
0.9757570438
 40
1.0
 40
1.0
 40
1.0
 40
1.0
 10
10.7374046685
 20
24.040563812
 30
0.0
 10
10.7374048502
 20
24.060061882
 30
0.0
 10
10.7383844616
 20
24.0984052374
 30
0.0
 10
10.7427155853
 20
24.1540546575
 30
0.0
 10
10.749762594
 20
24.2053917839
 30
0.0
 10
10.7579335897
 20
24.244408204
 30
0.0
 10
10.7658057354
 20
24.2718738283
 30
0.0
 10
10.7719400783
 20
24.2894138286
 30
0.0
 10
10.778491564
 20
24.3045824498
 30
0.0
 10
10.7853940396
 20
24.3172562642
 30
0.0
 10
10.7926044345
 20
24.3273409444
 30
0.0
 10
10.800121551
 20
24.3347507303
 30
0.0
 10
10.8079479268
 20
24.3394167637
 30
0.0
 10
10.8135222333
 20
24.3405425215
 30
0.0
 10
10.8161344148
 20
24.3405425215
 30
0.0
  0
ENDSEC
  0
SECTION
  2
OBJECTS
  0
DICTIONARY
  5
C
100
AcDbDictionary
280
0
281
1
  3
ACAD_GROUP
350
D
  3
ACAD_MLINESTYLE
350
17
  3
ACAD_LAYOUT
350
1A
  3
ACAD_PLOTSETTINGS
350
19
  3
ACAD_PLOTSTYLENAME
350
E
  0
DICTIONARY
  5
D
102
{ACAD_REACTORS
330
C
102
}
100
AcDbDictionary
280
0
281
1
  0
ACDBDICTIONARYWDFLT
  5
E
102
{ACAD_REACTORS
330
C
102
}
100
AcDbDictionary
281
1
  3
Normal
350
F
100
AcDbDictionaryWithDefault
340
F
  0
DICTIONARY
  5
17
102
{ACAD_REACTORS
330
C
102
}
100
AcDbDictionary
280
0
281
1
  3
Standard
350
18
  0
DICTIONARY
  5
19
102
{ACAD_REACTORS
330
C
102
}
100
AcDbDictionary
281
1
  0
DICTIONARY
  5
1A
102
{ACAD_REACTORS
330
C
102
}
100
AcDbDictionary
281
1
  3
Model
350
27E
  3
Layout1
350
27F
  0
ACDBPLACEHOLDER
  5
F
102
{ACAD_REACTORS
330
E
102
}
  0
MLINESTYLE
  5
18
102
{ACAD_REACTORS
330
17
102
}
100
AcDbMlineStyle
  2
STANDARD
 70
0
  3

 62
256
 51
90.0
 52
90.0
 71
2
 49
0.5
 62
256
  6
BYLAYER
 49
-0.5
 62
256
  6
BYLAYER
  0
LAYOUT
  5
27E
102
{ACAD_REACTORS
330
1A
102
}
100
AcDbPlotSettings
  1

  2
none_device
  4

  6

 40
0.0
 41
0.0
 42
0.0
 43
0.0
 44
210.0
 45
297.0
 46
0.0
 47
0.0
 48
0.0
 49
0.0
140
0.0
141
0.0
142
1.0
143
1.0
 70
1024
 72
1
 73
0
 74
0
  7

 75
0
147
1.0
148
0.0
149
0.0
100
AcDbLayout
  1
Model
 70
0
 71
0
 10
0.0
 20
0.0
 11
210.0
 21
297.0
 12
0.0
 22
0.0
 32
0.0
 14
0.0
 24
0.0
 34
0.0
 15
0.0
 25
0.0
 35
0.0
146
0.0
 13
0.0
 23
0.0
 33
0.0
 16
1.0
 26
0.0
 36
0.0
 17
0.0
 27
1.0
 37
0.0
 76
0
330
210
345
0
346
0
  0
LAYOUT
  5
27F
102
{ACAD_REACTORS
330
1A
102
}
100
AcDbPlotSettings
  1

  2
none_device
  4

  6

 40
0.0
 41
0.0
 42
0.0
 43
0.0
 44
210.0
 45
297.0
 46
0.0
 47
0.0
 48
0.0
 49
0.0
140
0.0
141
0.0
142
1.0
143
1.0
 70
0
 72
1
 73
0
 74
0
  7

 75
0
147
1.0
148
0.0
149
0.0
100
AcDbLayout
  1
Layout1
 70
0
 71
1
 10
0.0
 20
0.0
 11
210.0
 21
297.0
 12
0.0
 22
0.0
 32
0.0
 14
0.0
 24
0.0
 34
0.0
 15
0.0
 25
0.0
 35
0.0
146
0.0
 13
0.0
 23
0.0
 33
0.0
 16
1.0
 26
0.0
 36
0.0
 17
0.0
 27
1.0
 37
0.0
 76
0
330
211
345
0
346
0
  0
ENDSEC
  0
EOF
