999
DXF file: C:\Users\sesa63760\Dev\_Creo\CAD\MCADID0005230_3D-CAD\drw0001_3.dxf
999
Pro/ENGINEER 2019471 by Parametric Technology Corporation
  0
SECTION
  2
HEADER
  9
$ACADVER
  1
AC1024
  9
$DWGCODEPAGE
  3
ANSI_1252
  9
$EXTMAX
 10
71.2137671684
 20
100.7166135667
 30
0.0
  9
$EXTMIN
 10
0.0
 20
0.0
 30
0.0
  9
$LIMMIN
 10
0.0
 20
0.0
  9
$LIMMAX
 10
71.2137671684
 20
100.7166135667
  9
$VIEWCTR
 10
35.6068835842
 20
50.3583067834
  9
$VIEWSIZE
 40
100.7166135667
  9
$CLAYER
  8
0
  9
$LTSCALE
 40
6.5652311066
  9
$CELTYPE
  6
BYLAYER
  9
$DIMSCALE
 40
1.0
  9
$DIMASZ
 40
0.8477829425
  9
$DIMEXO
 40
1.0
  9
$DIMDLI
 40
4.5359778555
  9
$DIMEXE
 40
1.0
  9
$DIMCEN
 40
1.0743105447
  9
$DIMLFAC
 40
1.0
  9
$DIMBLK
  1
_FILLED
  9
$DIMALT
 70
0
  9
$DIMALTF
 40
0.0393700787
  9
$DIMTXT
 40
1.1868961195
  9
$DIMTOL
 70
1
  9
$DIMLIM
 70
0
  9
$DIMTFAC
 40
1.0
  9
$DIMTP
 40
0.01
  9
$DIMTM
 40
0.01
  9
$DIMGAP
 40
0.625
  9
$DIMDSEP
 70
46
  9
$AUNITS
 70
0
  9
$PDMODE
 70
3
  9
$PDSIZE
 40
0.3125
  9
$HANDSEED
  5
265
  9
$TILEMODE
 70
1
  9
$MEASUREMENT
 70
1
  9
$INSUNITS
 70
4
  0
ENDSEC
  0
SECTION
  2
CLASSES
  0
CLASS
  1
ACDBDICTIONARYWDFLT
  2
AcDbDictionaryWithDefault
  3
AutoCAD 2000
 90
0
 91
1
280
0
281
0
  0
CLASS
  1
ACDBPLACEHOLDER
  2
AcDbPlaceHolder
  3
AutoCAD 2000
 90
0
 91
1
280
0
281
0
  0
CLASS
  1
LAYOUT
  2
AcDbLayout
  3
AutoCAD 2000
 90
0
 91
0
280
0
281
0
  0
ENDSEC
  0
SECTION
  2
TABLES
  0
TABLE
  2
VPORT
  5
8
100
AcDbSymbolTable
 70
2
  0
VPORT
  5
1F4
100
AcDbSymbolTableRecord
100
AcDbViewportTableRecord
  2
*ACTIVE
 70
0
 10
0.0
 20
0.0
 11
1.0
 21
1.0
 12
35.6068835842
 22
50.3583067834
 13
0.0
 23
0.0
 14
1.0
 24
1.0
 15
0.0
 25
0.0
 16
0.0
 26
0.0
 36
1.0
 17
0.0
 27
0.0
 37
0.0
 40
100.7166135667
 41
0.7070707071
 42
50.0
 43
0.0
 44
0.0
 50
0.0
 51
0.0
 71
0
 72
100
 73
1
 74
1
 75
0
 76
0
 77
0
 78
0
  0
ENDTAB
  0
TABLE
  2
LTYPE
  5
5
100
AcDbSymbolTable
 70
6
  0
LTYPE
  5
14
100
AcDbSymbolTableRecord
100
AcDbLinetypeTableRecord
  2
BYBLOCK
 70
0
  3

 72
65
 73
0
 40
0.0
  0
LTYPE
  5
15
100
AcDbSymbolTableRecord
100
AcDbLinetypeTableRecord
  2
BYLAYER
 70
0
  3

 72
65
 73
0
 40
0.0
  0
LTYPE
  5
16
100
AcDbSymbolTableRecord
100
AcDbLinetypeTableRecord
  2
CONTINUOUS
 70
64
  3
Solid line
 72
65
 73
0
 40
0.0
  0
LTYPE
  5
1F5
100
AcDbSymbolTableRecord
100
AcDbLinetypeTableRecord
  2
CENTER
 70
64
  3
____ _ ____ _ ____ _ ____ _ ____ _ ____ _ ____
 72
65
 73
4
 40
0.6
 49
0.375
 74
0
 49
-0.075
 74
0
 49
0.075
 74
0
 49
-0.075
 74
0
  0
LTYPE
  5
1F6
100
AcDbSymbolTableRecord
100
AcDbLinetypeTableRecord
  2
HIDDEN
 70
64
  3
- - - - - - - - - - - - - - - - - - - -
 72
65
 73
2
 40
0.2
 49
0.1
 74
0
 49
-0.1
 74
0
  0
LTYPE
  5
1F7
100
AcDbSymbolTableRecord
100
AcDbLinetypeTableRecord
  2
PHANTOM
 70
64
  3
_____ _ _ _____ _ _ _____ _ _ _____
 72
65
 73
6
 40
0.8
 49
0.45
 74
0
 49
-0.05
 74
0
 49
0.1
 74
0
 49
-0.05
 74
0
 49
0.1
 74
0
 49
-0.05
 74
0
  0
LTYPE
  5
1F8
100
AcDbSymbolTableRecord
100
AcDbLinetypeTableRecord
  2
DOT
 70
64
  3
. . . . . . . . . . . . . . . . . . . .
 72
65
 73
2
 40
0.2
 49
0.1
 74
0
 49
-0.1
 74
0
  0
LTYPE
  5
1F9
100
AcDbSymbolTableRecord
100
AcDbLinetypeTableRecord
  2
DASHED
 70
64
  3
- - - - - - - - - - - - - - - - - - - -
 72
65
 73
2
 40
0.2
 49
0.1
 74
0
 49
-0.1
 74
0
  0
ENDTAB
  0
TABLE
  2
LAYER
  5
2
100
AcDbSymbolTable
 70
36
  0
LAYER
  5
10
100
AcDbSymbolTableRecord
100
AcDbLayerTableRecord
  2
0
 70
0
 62
7
  6
CONTINUOUS
370
-3
390
F
  0
LAYER
  5
1FA
100
AcDbSymbolTableRecord
100
AcDbLayerTableRecord
  2
DEFAULT_1
 70
0
 62
7
  6
CENTER
370
-3
390
F
  0
LAYER
  5
1FB
100
AcDbSymbolTableRecord
100
AcDbLayerTableRecord
  2
DEFAULT_2
 70
0
 62
7
  6
HIDDEN
370
-3
390
F
  0
LAYER
  5
1FC
100
AcDbSymbolTableRecord
100
AcDbLayerTableRecord
  2
DEFAULT_3
 70
0
 62
7
  6
PHANTOM
370
-3
390
F
  0
LAYER
  5
1FD
100
AcDbSymbolTableRecord
100
AcDbLayerTableRecord
  2
00_COMPONENTS
 70
0
 62
7
  6
CONTINUOUS
370
-3
390
F
  0
LAYER
  5
1FE
100
AcDbSymbolTableRecord
100
AcDbLayerTableRecord
  2
00_COMPONENTS_1
 70
0
 62
7
  6
CONTINUOUS
370
-3
390
F
  0
LAYER
  5
1FF
100
AcDbSymbolTableRecord
100
AcDbLayerTableRecord
  2
00_COMPONENTS_2
 70
0
 62
7
  6
CONTINUOUS
370
-3
390
F
  0
LAYER
  5
200
100
AcDbSymbolTableRecord
100
AcDbLayerTableRecord
  2
00_COMPONENTS_3
 70
0
 62
7
  6
CONTINUOUS
370
-3
390
F
  0
LAYER
  5
201
100
AcDbSymbolTableRecord
100
AcDbLayerTableRecord
  2
01_1_DEFAULT_DATUMS
 70
0
 62
7
  6
CONTINUOUS
370
-3
390
F
  0
LAYER
  5
202
100
AcDbSymbolTableRecord
100
AcDbLayerTableRecord
  2
01_PLANES
 70
0
 62
7
  6
CONTINUOUS
370
-3
390
F
  0
LAYER
  5
203
100
AcDbSymbolTableRecord
100
AcDbLayerTableRecord
  2
02_COORD_SYS
 70
0
 62
7
  6
CONTINUOUS
370
-3
390
F
  0
LAYER
  5
204
100
AcDbSymbolTableRecord
100
AcDbLayerTableRecord
  2
03_AXES
 70
0
 62
7
  6
CONTINUOUS
370
-3
390
F
  0
LAYER
  5
205
100
AcDbSymbolTableRecord
100
AcDbLayerTableRecord
  2
03_AXES_1
 70
0
 62
7
  6
CONTINUOUS
370
-3
390
F
  0
LAYER
  5
206
100
AcDbSymbolTableRecord
100
AcDbLayerTableRecord
  2
03_AXES_2
 70
0
 62
7
  6
CONTINUOUS
370
-3
390
F
  0
LAYER
  5
207
100
AcDbSymbolTableRecord
100
AcDbLayerTableRecord
  2
04_POINTS
 70
0
 62
7
  6
CONTINUOUS
370
-3
390
F
  0
LAYER
  5
208
100
AcDbSymbolTableRecord
100
AcDbLayerTableRecord
  2
05_CURVES
 70
0
 62
7
  6
CONTINUOUS
370
-3
390
F
  0
LAYER
  5
209
100
AcDbSymbolTableRecord
100
AcDbLayerTableRecord
  2
06_SURFS
 70
0
 62
7
  6
CONTINUOUS
370
-3
390
F
  0
LAYER
  5
20A
100
AcDbSymbolTableRecord
100
AcDbLayerTableRecord
  2
07_COSMETICS
 70
0
 62
7
  6
CONTINUOUS
370
-3
390
F
  0
LAYER
  5
20B
100
AcDbSymbolTableRecord
100
AcDbLayerTableRecord
  2
10_NOTES
 70
0
 62
7
  6
CONTINUOUS
370
-3
390
F
  0
LAYER
  5
20C
100
AcDbSymbolTableRecord
100
AcDbLayerTableRecord
  2
11_NOTES_PUB
 70
0
 62
7
  6
CONTINUOUS
370
-3
390
F
  0
LAYER
  5
20D
100
AcDbSymbolTableRecord
100
AcDbLayerTableRecord
  2
13_REF_GTOL
 70
0
 62
7
  6
CONTINUOUS
370
-3
390
F
  0
LAYER
  5
20E
100
AcDbSymbolTableRecord
100
AcDbLayerTableRecord
  2
16_MISC
 70
0
 62
7
  6
CONTINUOUS
370
-3
390
F
  0
LAYER
  5
20F
100
AcDbSymbolTableRecord
100
AcDbLayerTableRecord
  2
17_NO_PRINT
 70
0
 62
7
  6
CONTINUOUS
370
-3
390
F
  0
LAYER
  5
210
100
AcDbSymbolTableRecord
100
AcDbLayerTableRecord
  2
18_DATUM_CAMS_JOINTS
 70
0
 62
7
  6
CONTINUOUS
370
-3
390
F
  0
LAYER
  5
211
100
AcDbSymbolTableRecord
100
AcDbLayerTableRecord
  2
19_DATUM_FUNCTIONAL
 70
0
 62
7
  6
CONTINUOUS
370
-3
390
F
  0
LAYER
  5
212
100
AcDbSymbolTableRecord
100
AcDbLayerTableRecord
  2
20_DATUM_KINEMATIC_SCHEME
 70
0
 62
7
  6
CONTINUOUS
370
-3
390
F
  0
LAYER
  5
213
100
AcDbSymbolTableRecord
100
AcDbLayerTableRecord
  2
INTFCLR_30296
 70
0
 62
7
  6
CONTINUOUS
370
-3
390
F
  0
LAYER
  5
214
100
AcDbSymbolTableRecord
100
AcDbLayerTableRecord
  2
INTFCLR_35
 70
0
 62
7
  6
CONTINUOUS
370
-3
390
F
  0
LAYER
  5
215
100
AcDbSymbolTableRecord
100
AcDbLayerTableRecord
  2
INTFCLR_59147
 70
0
 62
7
  6
CONTINUOUS
370
-3
390
F
  0
LAYER
  5
216
100
AcDbSymbolTableRecord
100
AcDbLayerTableRecord
  2
INTF_BLANK
 70
0
 62
7
  6
CONTINUOUS
370
-3
390
F
  0
LAYER
  5
217
100
AcDbSymbolTableRecord
100
AcDbLayerTableRecord
  2
_BLACK_HOLE
 70
0
 62
7
  6
CONTINUOUS
370
-3
390
F
  0
ENDTAB
  0
TABLE
  2
STYLE
  5
3
100
AcDbSymbolTable
 70
1
  0
STYLE
  5
11
100
AcDbSymbolTableRecord
100
AcDbTextStyleTableRecord
  2
STANDARD
 70
0
 40
0.0
 41
1.0
 50
0.0
 71
0
 42
0.2
  3
ARIAL.TTF
  4

  0
STYLE
  5
218
100
AcDbSymbolTableRecord
100
AcDbTextStyleTableRecord
  2
TEXTSTYLE_1
 70
0
 40
0.0
 41
0.8
 50
0.0
 71
0
 42
0.2
  3
gdt
  4

  0
ENDTAB
  0
TABLE
  2
VIEW
  5
6
100
AcDbSymbolTable
 70
0
  0
ENDTAB
  0
TABLE
  2
UCS
  5
7
100
AcDbSymbolTable
 70
0
  0
ENDTAB
  0
TABLE
  2
APPID
  5
9
100
AcDbSymbolTable
 70
1
  0
APPID
  5
219
100
AcDbSymbolTableRecord
100
AcDbRegAppTableRecord
  2
ACAD
 70
0
  0
ENDTAB
  0
TABLE
  2
BLOCK_RECORD
  5
1
100
AcDbSymbolTable
 70
0
  0
BLOCK_RECORD
  5
21A
100
AcDbSymbolTableRecord
100
AcDbBlockTableRecord
  2
*Model_Space
  0
BLOCK_RECORD
  5
21B
100
AcDbSymbolTableRecord
100
AcDbBlockTableRecord
  2
*Paper_Space
  0
BLOCK_RECORD
  5
21C
100
AcDbSymbolTableRecord
100
AcDbBlockTableRecord
  2
_FILLED
  0
ENDTAB
  0
TABLE
  2
DIMSTYLE
  5
A
100
AcDbSymbolTable
 70
1
100
AcDbDimStyleTable
 71
0
  0
DIMSTYLE
105
21D
100
AcDbSymbolTableRecord
100
AcDbDimStyleTableRecord
  2
STANDARD
 70
0
  3

  4

 40
1.0
 41
0.8477829425
 42
1.0
 43
0.38
 44
1.0
 45
0.0
 46
0.0
 47
0.01
 48
0.01
140
1.1868961195
141
0.09
142
0.0
143
25.4
144
1.0
145
0.0
146
1.0
147
0.625
 71
1
 72
0
 73
0
 74
0
 75
0
 76
0
 77
1
 78
8
 79
2
170
0
171
1
172
0
173
0
174
0
175
0
176
0
177
0
178
0
270
2
179
2
271
2
272
2
273
2
274
2
275
0
280
0
281
0
282
0
283
1
284
8
285
0
286
0
287
3
288
0
340
11
278
46
341
21C
342
21C
343
21C
344
21C
  0
ENDTAB
  0
ENDSEC
  0
SECTION
  2
BLOCKS
  0
BLOCK
  5
20
100
AcDbEntity
  8
0
100
AcDbBlockBegin
  2
*Model_Space
 70
0
 10
0.0
 20
0.0
 30
0.0
  3
*Model_Space
  1

  0
ENDBLK
  5
21
100
AcDbEntity
  8
0
100
AcDbBlockEnd
  0
BLOCK
  5
1C
100
AcDbEntity
  8
0
100
AcDbBlockBegin
  2
*Paper_Space
 70
0
 10
0.0
 20
0.0
 30
0.0
  3
*Paper_Space
  1

  0
ENDBLK
  5
1D
100
AcDbEntity
  8
0
100
AcDbBlockEnd
  0
BLOCK
  5
21E
100
AcDbEntity
  8
0
100
AcDbBlockBegin
  2
_FILLED
 70
64
 10
0.0
 20
0.0
  3
_FILLED
  1

  0
SOLID
  5
21F
100
AcDbEntity
  8
0
  6
BYBLOCK
 62
0
100
AcDbTrace
 10
0.0
 20
0.0
 11
-1.0
 21
0.25
 12
-1.0
 22
-0.25
 13
-1.0
 23
-0.25
  0
ENDBLK
  5
220
100
AcDbEntity
  8
0
  6
BYBLOCK
 62
0
100
AcDbBlockEnd
  0
ENDSEC
  0
SECTION
  2
ENTITIES
  0
LINE
  5
221
100
AcDbEntity
  8
00_COMPONENTS
100
AcDbLine
 62
7
  6
BYLAYER
 10
8.4244927746
 20
39.0802411843
 11
8.4244927746
 21
31.1427411843
  0
LINE
  5
222
100
AcDbEntity
  8
00_COMPONENTS_2
100
AcDbLine
 62
7
  6
BYLAYER
 10
10.0246927746
 20
59.6947863277
 11
10.0246927746
 21
31.5046911843
  0
LINE
  5
223
100
AcDbEntity
  8
00_COMPONENTS_2
100
AcDbLine
 62
7
  6
BYLAYER
 10
11.5994927746
 20
31.5554911843
 11
11.5994927746
 21
59.6947863277
  0
LINE
  5
224
100
AcDbEntity
  8
00_COMPONENTS_1
100
AcDbLine
 62
7
  6
BYLAYER
 10
11.9630927746
 20
69.8088850591
 11
11.9630927746
 21
31.0476074455
  0
LINE
  5
225
100
AcDbEntity
  8
00_COMPONENTS_1
100
AcDbLine
 62
7
  6
BYLAYER
 10
13.5378927746
 20
31.0476074455
 11
13.5378927746
 21
69.7598160271
  0
LINE
  5
226
100
AcDbEntity
  8
00_COMPONENTS_1
100
AcDbLine
 62
7
  6
BYLAYER
 10
15.0618927746
 20
71.2318869864
 11
15.0618927746
 21
65.479633709
  0
LINE
  5
227
100
AcDbEntity
  8
00_COMPONENTS
100
AcDbLine
 62
7
  6
BYLAYER
 10
15.1554927746
 20
33.5620911843
 11
15.1554927746
 21
36.6608911843
  0
LINE
  5
228
100
AcDbEntity
  8
00_COMPONENTS_2
100
AcDbLine
 62
7
  6
BYLAYER
 10
13.0726927746
 20
28.4566911843
 11
60.1134927746
 21
28.4566911843
  0
LINE
  5
229
100
AcDbEntity
  8
00_COMPONENTS_2
100
AcDbLine
 62
7
  6
BYLAYER
 10
60.0626927746
 20
30.0314911843
 11
13.1234927746
 21
30.0314911843
  0
LINE
  5
22A
100
AcDbEntity
  8
00_COMPONENTS_1
100
AcDbLine
 62
7
  6
BYLAYER
 10
13.5378927746
 20
31.0474911843
 11
11.9630927746
 21
31.0474911843
  0
LINE
  5
22B
100
AcDbEntity
  8
00_COMPONENTS_1
100
AcDbLine
 62
7
  6
BYLAYER
 10
59.5118927746
 20
31.0474911843
 11
61.0866927746
 21
31.0474911843
  0
LINE
  5
22C
100
AcDbEntity
  8
00_COMPONENTS
100
AcDbLine
 62
7
  6
BYLAYER
 10
10.0246927746
 20
31.1427411843
 11
8.4244927746
 21
31.1427411843
  0
LINE
  5
22D
100
AcDbEntity
  8
00_COMPONENTS
100
AcDbLine
 62
7
  6
BYLAYER
 10
63.1614927746
 20
31.1427411843
 11
64.7616927746
 21
31.1427411843
  0
LINE
  5
22E
100
AcDbEntity
  8
00_COMPONENTS_2
100
AcDbLine
 62
7
  6
BYLAYER
 10
18.0528325822
 20
28.4566911843
 11
18.0528325822
 21
30.0314911843
  0
LINE
  5
22F
100
AcDbEntity
  8
00_COMPONENTS_1
100
AcDbLine
 62
7
  6
BYLAYER
 10
11.9630927746
 20
31.9992212206
 11
13.5378927746
 21
31.9992212206
  0
LINE
  5
230
100
AcDbEntity
  8
00_COMPONENTS_1
100
AcDbLine
 62
7
  6
BYLAYER
 10
59.5118927746
 20
31.9992212206
 11
61.0866927746
 21
31.9992212206
  0
LINE
  5
231
100
AcDbEntity
  8
00_COMPONENTS
100
AcDbLine
 62
7
  6
BYLAYER
 10
11.9630927746
 20
32.7619911843
 11
11.5994927746
 21
32.7619911843
  0
LINE
  5
232
100
AcDbEntity
  8
00_COMPONENTS
100
AcDbLine
 62
7
  6
BYLAYER
 10
61.0866927746
 20
32.7619911843
 11
61.5866927746
 21
32.7619911843
  0
LINE
  5
233
100
AcDbEntity
  8
00_COMPONENTS
100
AcDbLine
 62
7
  6
BYLAYER
 10
15.1554927746
 20
33.5620911843
 11
13.5378927746
 21
33.5620911843
  0
LINE
  5
234
100
AcDbEntity
  8
00_COMPONENTS
100
AcDbLine
 62
7
  6
BYLAYER
 10
58.0306927746
 20
33.5620911843
 11
59.5118927746
 21
33.5620911843
  0
LINE
  5
235
100
AcDbEntity
  8
00_COMPONENTS_2
100
AcDbLine
 62
7
  6
BYLAYER
 10
63.1614927746
 20
35.1725850055
 11
61.5866927746
 21
35.1725850055
  0
LINE
  5
236
100
AcDbEntity
  8
00_COMPONENTS_2
100
AcDbLine
 62
7
  6
BYLAYER
 10
11.5994927746
 20
35.1725850055
 11
10.0246927746
 21
35.1725850055
  0
LINE
  5
237
100
AcDbEntity
  8
00_COMPONENTS
100
AcDbLine
 62
7
  6
BYLAYER
 10
15.1554927746
 20
36.6608911843
 11
13.5378927746
 21
36.6608911843
  0
LINE
  5
238
100
AcDbEntity
  8
00_COMPONENTS
100
AcDbLine
 62
7
  6
BYLAYER
 10
58.0306927746
 20
36.6608911843
 11
59.5118927746
 21
36.6608911843
  0
LINE
  5
239
100
AcDbEntity
  8
00_COMPONENTS
100
AcDbLine
 62
7
  6
BYLAYER
 10
11.9630927746
 20
37.4609911843
 11
11.5994927746
 21
37.4609911843
  0
LINE
  5
23A
100
AcDbEntity
  8
00_COMPONENTS
100
AcDbLine
 62
7
  6
BYLAYER
 10
61.0866927746
 20
37.4609911843
 11
61.5866927746
 21
37.4609911843
  0
LINE
  5
23B
100
AcDbEntity
  8
00_COMPONENTS_2
100
AcDbLine
 62
7
  6
BYLAYER
 10
10.0246927746
 20
38.5896082792
 11
11.5994927746
 21
38.5896082792
  0
LINE
  5
23C
100
AcDbEntity
  8
00_COMPONENTS_2
100
AcDbLine
 62
7
  6
BYLAYER
 10
61.5866927746
 20
38.5896082792
 11
63.1614927746
 21
38.5896082792
  0
LINE
  5
23D
100
AcDbEntity
  8
00_COMPONENTS
100
AcDbLine
 62
7
  6
BYLAYER
 10
10.0246927746
 20
39.0802411843
 11
8.4244927746
 21
39.0802411843
  0
LINE
  5
23E
100
AcDbEntity
  8
00_COMPONENTS
100
AcDbLine
 62
7
  6
BYLAYER
 10
63.1614927746
 20
39.0802411843
 11
64.7616927746
 21
39.0802411843
  0
LINE
  5
23F
100
AcDbEntity
  8
00_COMPONENTS_2
100
AcDbLine
 62
7
  6
BYLAYER
 10
63.1614927746
 20
42.8816461884
 11
61.5866927746
 21
42.8816461884
  0
LINE
  5
240
100
AcDbEntity
  8
00_COMPONENTS_2
100
AcDbLine
 62
7
  6
BYLAYER
 10
11.5994927746
 20
42.8816461884
 11
10.0246927746
 21
42.8816461884
  0
LINE
  5
241
100
AcDbEntity
  8
00_COMPONENTS_1
100
AcDbLine
 62
7
420
3604575
  6
BYLAYER
 10
36.5248927746
 20
68.9088797165
 11
36.5248927746
 21
68.3557603477
  0
LINE
  5
242
100
AcDbEntity
  8
00_COMPONENTS_1
100
AcDbLine
 62
7
  6
BYLAYER
 10
61.0866927746
 20
48.6084993925
 11
59.5118927746
 21
48.6084993925
  0
LINE
  5
243
100
AcDbEntity
  8
00_COMPONENTS_1
100
AcDbLine
 62
7
  6
BYLAYER
 10
13.5378927746
 20
48.6084993925
 11
11.9630927746
 21
48.6084993925
  0
LINE
  5
244
100
AcDbEntity
  8
00_COMPONENTS_2
100
AcDbLine
 62
7
  6
BYLAYER
 10
10.0246927746
 20
56.5352104701
 11
11.5994927746
 21
56.5352104701
  0
LINE
  5
245
100
AcDbEntity
  8
00_COMPONENTS_2
100
AcDbLine
 62
7
  6
BYLAYER
 10
61.5866927746
 20
56.5352104701
 11
63.1614927746
 21
56.5352104701
  0
LINE
  5
246
100
AcDbEntity
  8
00_COMPONENTS_2
100
AcDbLine
 62
7
  6
BYLAYER
 10
63.1614927746
 20
59.6947863277
 11
61.5866927746
 21
59.6947863277
  0
LINE
  5
247
100
AcDbEntity
  8
00_COMPONENTS_2
100
AcDbLine
 62
7
  6
BYLAYER
 10
10.0246927746
 20
59.6947863277
 11
11.5994927746
 21
59.6947863277
  0
LINE
  5
248
100
AcDbEntity
  8
00_COMPONENTS_1
100
AcDbLine
 62
7
  6
BYLAYER
 10
13.5378927746
 20
62.5125224471
 11
11.9630927746
 21
62.5125224471
  0
LINE
  5
249
100
AcDbEntity
  8
00_COMPONENTS_1
100
AcDbLine
 62
7
  6
BYLAYER
 10
59.5118927746
 20
62.5125224471
 11
61.0866927746
 21
62.5125224471
  0
LINE
  5
24A
100
AcDbEntity
  8
00_COMPONENTS_1
100
AcDbLine
 62
7
  6
BYLAYER
 10
11.9630927746
 20
62.5466683267
 11
13.5378927746
 21
62.5466683267
  0
LINE
  5
24B
100
AcDbEntity
  8
00_COMPONENTS_1
100
AcDbLine
 62
7
  6
BYLAYER
 10
59.5118927746
 20
62.5466683267
 11
61.0866927746
 21
62.5466683267
  0
LINE
  5
24C
100
AcDbEntity
  8
00_COMPONENTS_1
100
AcDbLine
 62
7
  6
BYLAYER
 10
57.9878927746
 20
65.479633709
 11
15.0618927746
 21
65.479633709
  0
LINE
  5
24D
100
AcDbEntity
  8
00_COMPONENTS_2
100
AcDbLine
 62
7
  6
BYLAYER
 10
55.1333529669
 20
30.0314911843
 11
55.1333529669
 21
28.4566911843
  0
LINE
  5
24E
100
AcDbEntity
  8
00_COMPONENTS_1
100
AcDbLine
 62
7
  6
BYLAYER
 10
57.9878927746
 20
65.479633709
 11
57.9878927746
 21
71.2318869864
  0
LINE
  5
24F
100
AcDbEntity
  8
00_COMPONENTS
100
AcDbLine
 62
7
  6
BYLAYER
 10
58.0306927746
 20
36.6608911843
 11
58.0306927746
 21
33.5620911843
  0
LINE
  5
250
100
AcDbEntity
  8
00_COMPONENTS_1
100
AcDbLine
 62
7
  6
BYLAYER
 10
15.0618927746
 20
71.2318869864
 11
57.9878927746
 21
71.2318869864
  0
LINE
  5
251
100
AcDbEntity
  8
00_COMPONENTS_1
100
AcDbLine
 62
7
  6
BYLAYER
 10
59.5118927746
 20
31.0476074455
 11
59.5118927746
 21
69.7598160271
  0
LINE
  5
252
100
AcDbEntity
  8
00_COMPONENTS_1
100
AcDbLine
 62
7
  6
BYLAYER
 10
15.0110927746
 20
72.7530269776
 11
58.0386927746
 21
72.7530269776
  0
LINE
  5
253
100
AcDbEntity
  8
00_COMPONENTS_1
100
AcDbLine
 62
7
  6
BYLAYER
 10
61.0866927746
 20
31.0476074455
 11
61.0866927746
 21
69.8088850591
  0
LINE
  5
254
100
AcDbEntity
  8
00_COMPONENTS_2
100
AcDbLine
 62
7
  6
BYLAYER
 10
61.5866927746
 20
31.5554911843
 11
61.5866927746
 21
59.6947863277
  0
LINE
  5
255
100
AcDbEntity
  8
00_COMPONENTS_2
100
AcDbLine
 62
7
  6
BYLAYER
 10
63.1614927746
 20
31.5046911843
 11
63.1614927746
 21
59.6947863277
  0
LINE
  5
256
100
AcDbEntity
  8
00_COMPONENTS
100
AcDbLine
 62
7
  6
BYLAYER
 10
64.7616927746
 20
31.1427411843
 11
64.7616927746
 21
39.0802411843
  0
ARC
  5
257
100
AcDbEntity
  8
00_COMPONENTS_2
100
AcDbCircle
 62
7
  6
BYLAYER
 10
13.0726927746
 20
31.5046911843
 40
3.048
100
AcDbArc
 50
180.0
 51
270.0
  0
ARC
  5
258
100
AcDbEntity
  8
00_COMPONENTS_2
100
AcDbCircle
 62
7
  6
BYLAYER
 10
60.1134927746
 20
31.5046911843
 40
3.048
100
AcDbArc
 50
270.0
 51
360.0
  0
ARC
  5
259
100
AcDbEntity
  8
00_COMPONENTS_2
100
AcDbCircle
 62
7
  6
BYLAYER
 10
13.1234927746
 20
31.5554911843
 40
1.524
100
AcDbArc
 50
180.0
 51
270.0
  0
ARC
  5
25A
100
AcDbEntity
  8
00_COMPONENTS_2
100
AcDbCircle
 62
7
  6
BYLAYER
 10
60.0626927746
 20
31.5554911843
 40
1.524
100
AcDbArc
 50
270.0
 51
360.0
  0
SPLINE
  5
25B
100
AcDbEntity
  8
00_COMPONENTS_1
100
AcDbSpline
 62
7
  6
BYLAYER
 70
0
 71
3
 72
15
 73
11
 74
0
 42
0.0000001
 43
0.0000001
 44
0.0000000001
 40
0.0
 40
0.0
 40
0.0
 40
0.0
 40
0.1271069589
 40
0.2539240426
 40
0.3801209462
 40
0.5055519176
 40
0.6301375696
 40
0.7539281695
 40
0.8771421917
 40
1.0
 40
1.0
 40
1.0
 40
1.0
 10
58.0386927746
 20
72.7530269776
 30
0.0
 10
58.23778414
 20
72.7530269776
 30
0.0
 10
58.6365398978
 20
72.7151517857
 30
0.0
 10
59.2112826714
 20
72.5469675999
 30
0.0
 10
59.7414150781
 20
72.2735706543
 30
0.0
 10
60.2063852367
 20
71.9055212118
 30
0.0
 10
60.588237593
 20
71.4566514331
 30
0.0
 10
60.8722972569
 20
70.9441281002
 30
0.0
 10
61.0472387452
 20
70.3878830112
 30
0.0
 10
61.0866927746
 20
70.001320855
 30
0.0
 10
61.0866927746
 20
69.8088850591
 30
0.0
  0
SPLINE
  5
25C
100
AcDbEntity
  8
00_COMPONENTS_1
100
AcDbSpline
 62
7
  6
BYLAYER
 70
0
 71
3
 72
15
 73
11
 74
0
 42
0.0000001
 43
0.0000001
 44
0.0000000001
 40
0.0
 40
0.0
 40
0.0
 40
0.0
 40
0.1228578083
 40
0.2460718305
 40
0.3698624304
 40
0.4944480824
 40
0.6198790538
 40
0.7460759574
 40
0.8728930411
 40
1.0
 40
1.0
 40
1.0
 40
1.0
 10
11.9630927746
 20
69.8088850591
 30
0.0
 10
11.9630927746
 20
70.001320855
 30
0.0
 10
12.002546804
 20
70.3878830112
 30
0.0
 10
12.1774882923
 20
70.9441281002
 30
0.0
 10
12.4615479562
 20
71.4566514331
 30
0.0
 10
12.8434003125
 20
71.9055212118
 30
0.0
 10
13.308370471
 20
72.2735706543
 30
0.0
 10
13.8385028777
 20
72.5469675999
 30
0.0
 10
14.4132456513
 20
72.7151517857
 30
0.0
 10
14.8120014091
 20
72.7530269776
 30
0.0
 10
15.0110927746
 20
72.7530269776
 30
0.0
  0
SPLINE
  5
25D
100
AcDbEntity
  8
00_COMPONENTS_1
100
AcDbSpline
 62
7
  6
BYLAYER
 70
0
 71
3
 72
15
 73
11
 74
0
 42
0.0000001
 43
0.0000001
 44
0.0000000001
 40
0.0
 40
0.0
 40
0.0
 40
0.0
 40
0.1228301808
 40
0.2460822293
 40
0.3698580253
 40
0.4944478323
 40
0.6198832815
 40
0.7460650227
 40
0.8729216775
 40
1.0
 40
1.0
 40
1.0
 40
1.0
 10
13.5378927746
 20
64.0075627497
 30
0.0
 10
13.5378927746
 20
64.1037585381
 30
0.0
 10
13.5576557808
 20
64.2970405783
 30
0.0
 10
13.6450756683
 20
64.5751737642
 30
0.0
 10
13.7871353462
 20
64.8314430642
 30
0.0
 10
13.9780379834
 20
65.0558895786
 30
0.0
 10
14.2105337193
 20
65.2398904786
 30
0.0
 10
14.4756093743
 20
65.3766186256
 30
0.0
 10
14.7629902564
 20
65.4606610616
 30
0.0
 10
14.962370008
 20
65.479633709
 30
0.0
 10
15.0618927746
 20
65.479633709
 30
0.0
  0
SPLINE
  5
25E
100
AcDbEntity
  8
00_COMPONENTS_1
100
AcDbSpline
 62
7
  6
BYLAYER
 70
0
 71
3
 72
15
 73
11
 74
0
 42
0.0000001
 43
0.0000001
 44
0.0000000001
 40
0.0
 40
0.0
 40
0.0
 40
0.0
 40
0.1270782852
 40
0.253934875
 40
0.3801165969
 40
0.50555204
 40
0.6301418548
 40
0.753917671
 40
0.8771697829
 40
1.0
 40
1.0
 40
1.0
 40
1.0
 10
57.9878927746
 20
65.479633709
 30
0.0
 10
58.0874155119
 20
65.479633709
 30
0.0
 10
58.286795187
 20
65.4606611066
 30
0.0
 10
58.5741759761
 20
65.376618693
 30
0.0
 10
58.8392515896
 20
65.2398906279
 30
0.0
 10
59.0717473528
 20
65.055889784
 30
0.0
 10
59.2626500475
 20
64.8314432968
 30
0.0
 10
59.4047098104
 20
64.5751739576
 30
0.0
 10
59.4921297217
 20
64.2970406808
 30
0.0
 10
59.5118927746
 20
64.1037585664
 30
0.0
 10
59.5118927746
 20
64.0075627497
 30
0.0
  0
SPLINE
  5
25F
100
AcDbEntity
  8
00_COMPONENTS_1
100
AcDbSpline
 62
7
  6
BYLAYER
 70
0
 71
3
 72
31
 73
27
 74
0
 42
0.0000001
 43
0.0000001
 44
0.0000000001
 40
0.0
 40
0.0
 40
0.0
 40
0.0
 40
0.0119893733
 40
0.0254534183
 40
0.041393504
 40
0.060358107
 40
0.0825827237
 40
0.1081251211
 40
0.1368984396
 40
0.1687496937
 40
0.2407401041
 40
0.3218500082
 40
0.4092985657
 40
0.4999911355
 40
0.5906835923
 40
0.6781325681
 40
0.759245096
 40
0.8312400199
 40
0.8630933325
 40
0.8918691216
 40
0.9174134895
 40
0.9396394821
 40
0.9586054215
 40
0.9745462489
 40
0.988010582
 40
1.0
 40
1.0
 40
1.0
 40
1.0
 10
38.6775427746
 20
68.3557603477
 30
0.0
 10
38.6775427746
 20
68.3742718005
 30
0.0
 10
38.6694713225
 20
68.4138198526
 30
0.0
 10
38.6359611493
 20
68.4692400993
 30
0.0
 10
38.5827109118
 20
68.522318741
 30
0.0
 10
38.5103708124
 20
68.5732926418
 30
0.0
 10
38.4194466437
 20
68.622141068
 30
0.0
 10
38.3105911249
 20
68.6684568637
 30
0.0
 10
38.1847551072
 20
68.7119100065
 30
0.0
 10
37.9876414832
 20
68.7676466077
 30
0.0
 10
37.7076156112
 20
68.8254115606
 30
0.0
 10
37.3393582454
 20
68.8752655675
 30
0.0
 10
36.9400549923
 20
68.9060097235
 30
0.0
 10
36.5249343053
 20
68.916406701
 30
0.0
 10
36.1098128834
 20
68.9060133616
 30
0.0
 10
35.7105048358
 20
68.8752726758
 30
0.0
 10
35.3422352561
 20
68.8254225322
 30
0.0
 10
35.0621943114
 20
68.767659696
 30
0.0
 10
34.8650671149
 20
68.7119197957
 30
0.0
 10
34.7392206717
 20
68.6684662827
 30
0.0
 10
34.6303556416
 20
68.6221496631
 30
0.0
 10
34.5394250176
 20
68.5732980334
 30
0.0
 10
34.4670792878
 20
68.5223228014
 30
0.0
 10
34.4138262392
 20
68.4692417162
 30
0.0
 10
34.3803145939
 20
68.4138204348
 30
0.0
 10
34.3722427746
 20
68.3742718695
 30
0.0
 10
34.3722427746
 20
68.3557603477
 30
0.0
  0
SPLINE
  5
260
100
AcDbEntity
  8
00_COMPONENTS_1
100
AcDbSpline
 62
7
  6
BYLAYER
 70
0
 71
3
 72
15
 73
11
 74
0
 42
0.0000001
 43
0.0000001
 44
0.0000000001
 40
0.0
 40
0.0
 40
0.0
 40
0.0
 40
0.1270782852
 40
0.253934875
 40
0.3801165969
 40
0.50555204
 40
0.6301418548
 40
0.753917671
 40
0.8771697829
 40
1.0
 40
1.0
 40
1.0
 40
1.0
 10
15.0618927746
 20
71.2318869864
 30
0.0
 10
14.9623700372
 20
71.2318869864
 30
0.0
 10
14.7629903622
 20
71.212914384
 30
0.0
 10
14.475609573
 20
71.1288719704
 30
0.0
 10
14.2105339595
 20
70.9921439053
 30
0.0
 10
13.9780381964
 20
70.8081430614
 30
0.0
 10
13.7871355016
 20
70.5836965742
 30
0.0
 10
13.6450757388
 20
70.327427235
 30
0.0
 10
13.5576558274
 20
70.0492939582
 30
0.0
 10
13.5378927746
 20
69.8560118438
 30
0.0
 10
13.5378927746
 20
69.7598160271
 30
0.0
  0
SPLINE
  5
261
100
AcDbEntity
  8
00_COMPONENTS_1
100
AcDbSpline
 62
7
  6
BYLAYER
 70
0
 71
3
 72
31
 73
27
 74
0
 42
0.0000001
 43
0.0000001
 44
0.0000000001
 40
0.0
 40
0.0
 40
0.0
 40
0.0
 40
0.0119893733
 40
0.0254534183
 40
0.041393504
 40
0.060358107
 40
0.0825827237
 40
0.1081251211
 40
0.1368984396
 40
0.1687496937
 40
0.2407401041
 40
0.3218500082
 40
0.4092985657
 40
0.4999911355
 40
0.5906835923
 40
0.6781325681
 40
0.759245096
 40
0.8312400199
 40
0.8630933325
 40
0.8918691216
 40
0.9174134895
 40
0.9396394821
 40
0.9586054215
 40
0.9745462489
 40
0.988010582
 40
1.0
 40
1.0
 40
1.0
 40
1.0
 10
34.3722427746
 20
68.3557603477
 30
0.0
 10
34.3722427746
 20
68.3372488949
 30
0.0
 10
34.3803142266
 20
68.2977008428
 30
0.0
 10
34.4138243999
 20
68.242280596
 30
0.0
 10
34.4670746374
 20
68.1892019544
 30
0.0
 10
34.5394147367
 20
68.1382280536
 30
0.0
 10
34.6303389054
 20
68.0893796274
 30
0.0
 10
34.7391944242
 20
68.0430638317
 30
0.0
 10
34.8650304419
 20
67.9996106888
 30
0.0
 10
35.0621440659
 20
67.9438740877
 30
0.0
 10
35.342169938
 20
67.8861091348
 30
0.0
 10
35.7104273037
 20
67.8362551279
 30
0.0
 10
36.1097305569
 20
67.8055109718
 30
0.0
 10
36.5248512439
 20
67.7951139944
 30
0.0
 10
36.9399726658
 20
67.8055073338
 30
0.0
 10
37.3392807133
 20
67.8362480195
 30
0.0
 10
37.707550293
 20
67.8860981632
 30
0.0
 10
37.9875912378
 20
67.9438609993
 30
0.0
 10
38.1847184342
 20
67.9996008996
 30
0.0
 10
38.3105648775
 20
68.0430544127
 30
0.0
 10
38.4194299075
 20
68.0893710323
 30
0.0
 10
38.5103605316
 20
68.138222662
 30
0.0
 10
38.5827062614
 20
68.189197894
 30
0.0
 10
38.6359593099
 20
68.2422789792
 30
0.0
 10
38.6694709552
 20
68.2977002606
 30
0.0
 10
38.6775427746
 20
68.3372488258
 30
0.0
 10
38.6775427746
 20
68.3557603477
 30
0.0
  0
SPLINE
  5
262
100
AcDbEntity
  8
00_COMPONENTS_1
100
AcDbSpline
 62
7
  6
BYLAYER
 70
0
 71
3
 72
15
 73
11
 74
0
 42
0.0000001
 43
0.0000001
 44
0.0000000001
 40
0.0
 40
0.0
 40
0.0
 40
0.0
 40
0.1228301808
 40
0.2460822293
 40
0.3698580253
 40
0.4944478323
 40
0.6198832815
 40
0.7460650227
 40
0.8729216775
 40
1.0
 40
1.0
 40
1.0
 40
1.0
 10
59.5118927746
 20
69.7598160271
 30
0.0
 10
59.5118927746
 20
69.8560118155
 30
0.0
 10
59.4921297684
 20
70.0492938557
 30
0.0
 10
59.4047098808
 20
70.3274270416
 30
0.0
 10
59.262650203
 20
70.5836963417
 30
0.0
 10
59.0717475657
 20
70.808142856
 30
0.0
 10
58.8392518299
 20
70.992143756
 30
0.0
 10
58.5741761749
 20
71.128871903
 30
0.0
 10
58.2867952927
 20
71.212914339
 30
0.0
 10
58.0874155411
 20
71.2318869864
 30
0.0
 10
57.9878927746
 20
71.2318869864
 30
0.0
  0
ENDSEC
  0
SECTION
  2
OBJECTS
  0
DICTIONARY
  5
C
100
AcDbDictionary
280
0
281
1
  3
ACAD_GROUP
350
D
  3
ACAD_MLINESTYLE
350
17
  3
ACAD_LAYOUT
350
1A
  3
ACAD_PLOTSETTINGS
350
19
  3
ACAD_PLOTSTYLENAME
350
E
  0
DICTIONARY
  5
D
102
{ACAD_REACTORS
330
C
102
}
100
AcDbDictionary
280
0
281
1
  0
ACDBDICTIONARYWDFLT
  5
E
102
{ACAD_REACTORS
330
C
102
}
100
AcDbDictionary
281
1
  3
Normal
350
F
100
AcDbDictionaryWithDefault
340
F
  0
DICTIONARY
  5
17
102
{ACAD_REACTORS
330
C
102
}
100
AcDbDictionary
280
0
281
1
  3
Standard
350
18
  0
DICTIONARY
  5
19
102
{ACAD_REACTORS
330
C
102
}
100
AcDbDictionary
281
1
  0
DICTIONARY
  5
1A
102
{ACAD_REACTORS
330
C
102
}
100
AcDbDictionary
281
1
  3
Model
350
263
  3
Layout1
350
264
  0
ACDBPLACEHOLDER
  5
F
102
{ACAD_REACTORS
330
E
102
}
  0
MLINESTYLE
  5
18
102
{ACAD_REACTORS
330
17
102
}
100
AcDbMlineStyle
  2
STANDARD
 70
0
  3

 62
256
 51
90.0
 52
90.0
 71
2
 49
0.5
 62
256
  6
BYLAYER
 49
-0.5
 62
256
  6
BYLAYER
  0
LAYOUT
  5
263
102
{ACAD_REACTORS
330
1A
102
}
100
AcDbPlotSettings
  1

  2
none_device
  4

  6

 40
0.0
 41
0.0
 42
0.0
 43
0.0
 44
210.0
 45
297.0
 46
0.0
 47
0.0
 48
0.0
 49
0.0
140
0.0
141
0.0
142
1.0
143
1.0
 70
1024
 72
1
 73
0
 74
0
  7

 75
0
147
1.0
148
0.0
149
0.0
100
AcDbLayout
  1
Model
 70
0
 71
0
 10
0.0
 20
0.0
 11
210.0
 21
297.0
 12
0.0
 22
0.0
 32
0.0
 14
0.0
 24
0.0
 34
0.0
 15
0.0
 25
0.0
 35
0.0
146
0.0
 13
0.0
 23
0.0
 33
0.0
 16
1.0
 26
0.0
 36
0.0
 17
0.0
 27
1.0
 37
0.0
 76
0
330
21A
345
0
346
0
  0
LAYOUT
  5
264
102
{ACAD_REACTORS
330
1A
102
}
100
AcDbPlotSettings
  1

  2
none_device
  4

  6

 40
0.0
 41
0.0
 42
0.0
 43
0.0
 44
210.0
 45
297.0
 46
0.0
 47
0.0
 48
0.0
 49
0.0
140
0.0
141
0.0
142
1.0
143
1.0
 70
0
 72
1
 73
0
 74
0
  7

 75
0
147
1.0
148
0.0
149
0.0
100
AcDbLayout
  1
Layout1
 70
0
 71
1
 10
0.0
 20
0.0
 11
210.0
 21
297.0
 12
0.0
 22
0.0
 32
0.0
 14
0.0
 24
0.0
 34
0.0
 15
0.0
 25
0.0
 35
0.0
146
0.0
 13
0.0
 23
0.0
 33
0.0
 16
1.0
 26
0.0
 36
0.0
 17
0.0
 27
1.0
 37
0.0
 76
0
330
21B
345
0
346
0
  0
ENDSEC
  0
EOF
