999
DXF file: C:\Users\sesa63760\Dev\_Creo\CAD\MCADID0004244_3D-CAD\drw0001_5.dxf
999
Pro/ENGINEER 2019471 by Parametric Technology Corporation
  0
SECTION
  2
HEADER
  9
$ACADVER
  1
AC1024
  9
$DWGCODEPAGE
  3
ANSI_1252
  9
$EXTMAX
 10
963.4402185116
 20
1362.5797376093
 30
0.0
  9
$EXTMIN
 10
0.0
 20
0.0
 30
0.0
  9
$LIMMIN
 10
0.0
 20
0.0
  9
$LIMMAX
 10
963.4402185116
 20
1362.5797376093
  9
$VIEWCTR
 10
481.7201092558
 20
681.2898688047
  9
$VIEWSIZE
 40
1362.5797376093
  9
$CLAYER
  8
0
  9
$LTSCALE
 40
88.8200125256
  9
$CELTYPE
  6
BYLAYER
  9
$DIMSCALE
 40
1.0
  9
$DIMASZ
 40
11.4695264109
  9
$DIMEXO
 40
1.0
  9
$DIMDLI
 40
61.3665541086
  9
$DIMEXE
 40
1.0
  9
$DIMCEN
 40
14.5341838678
  9
$DIMLFAC
 40
1.0
  9
$DIMBLK
  1
_FILLED
  9
$DIMALT
 70
0
  9
$DIMALTF
 40
0.0393700787
  9
$DIMTXT
 40
16.0573369752
  9
$DIMTOL
 70
1
  9
$DIMLIM
 70
0
  9
$DIMTFAC
 40
1.0
  9
$DIMTP
 40
0.01
  9
$DIMTM
 40
0.01
  9
$DIMGAP
 40
0.625
  9
$DIMDSEP
 70
46
  9
$AUNITS
 70
0
  9
$PDMODE
 70
3
  9
$PDSIZE
 40
0.3125
  9
$HANDSEED
  5
363
  9
$TILEMODE
 70
1
  9
$MEASUREMENT
 70
1
  9
$INSUNITS
 70
4
  0
ENDSEC
  0
SECTION
  2
CLASSES
  0
CLASS
  1
ACDBDICTIONARYWDFLT
  2
AcDbDictionaryWithDefault
  3
AutoCAD 2000
 90
0
 91
1
280
0
281
0
  0
CLASS
  1
ACDBPLACEHOLDER
  2
AcDbPlaceHolder
  3
AutoCAD 2000
 90
0
 91
1
280
0
281
0
  0
CLASS
  1
LAYOUT
  2
AcDbLayout
  3
AutoCAD 2000
 90
0
 91
0
280
0
281
0
  0
ENDSEC
  0
SECTION
  2
TABLES
  0
TABLE
  2
VPORT
  5
8
100
AcDbSymbolTable
 70
2
  0
VPORT
  5
1F4
100
AcDbSymbolTableRecord
100
AcDbViewportTableRecord
  2
*ACTIVE
 70
0
 10
0.0
 20
0.0
 11
1.0
 21
1.0
 12
481.7201092558
 22
681.2898688047
 13
0.0
 23
0.0
 14
1.0
 24
1.0
 15
0.0
 25
0.0
 16
0.0
 26
0.0
 36
1.0
 17
0.0
 27
0.0
 37
0.0
 40
1362.5797376093
 41
0.7070707071
 42
50.0
 43
0.0
 44
0.0
 50
0.0
 51
0.0
 71
0
 72
100
 73
1
 74
1
 75
0
 76
0
 77
0
 78
0
  0
ENDTAB
  0
TABLE
  2
LTYPE
  5
5
100
AcDbSymbolTable
 70
6
  0
LTYPE
  5
14
100
AcDbSymbolTableRecord
100
AcDbLinetypeTableRecord
  2
BYBLOCK
 70
0
  3

 72
65
 73
0
 40
0.0
  0
LTYPE
  5
15
100
AcDbSymbolTableRecord
100
AcDbLinetypeTableRecord
  2
BYLAYER
 70
0
  3

 72
65
 73
0
 40
0.0
  0
LTYPE
  5
16
100
AcDbSymbolTableRecord
100
AcDbLinetypeTableRecord
  2
CONTINUOUS
 70
64
  3
Solid line
 72
65
 73
0
 40
0.0
  0
LTYPE
  5
1F5
100
AcDbSymbolTableRecord
100
AcDbLinetypeTableRecord
  2
CENTER
 70
64
  3
____ _ ____ _ ____ _ ____ _ ____ _ ____ _ ____
 72
65
 73
4
 40
0.6
 49
0.375
 74
0
 49
-0.075
 74
0
 49
0.075
 74
0
 49
-0.075
 74
0
  0
LTYPE
  5
1F6
100
AcDbSymbolTableRecord
100
AcDbLinetypeTableRecord
  2
HIDDEN
 70
64
  3
- - - - - - - - - - - - - - - - - - - -
 72
65
 73
2
 40
0.2
 49
0.1
 74
0
 49
-0.1
 74
0
  0
LTYPE
  5
1F7
100
AcDbSymbolTableRecord
100
AcDbLinetypeTableRecord
  2
PHANTOM
 70
64
  3
_____ _ _ _____ _ _ _____ _ _ _____
 72
65
 73
6
 40
0.8
 49
0.45
 74
0
 49
-0.05
 74
0
 49
0.1
 74
0
 49
-0.05
 74
0
 49
0.1
 74
0
 49
-0.05
 74
0
  0
LTYPE
  5
1F8
100
AcDbSymbolTableRecord
100
AcDbLinetypeTableRecord
  2
DOT
 70
64
  3
. . . . . . . . . . . . . . . . . . . .
 72
65
 73
2
 40
0.2
 49
0.1
 74
0
 49
-0.1
 74
0
  0
LTYPE
  5
1F9
100
AcDbSymbolTableRecord
100
AcDbLinetypeTableRecord
  2
DASHED
 70
64
  3
- - - - - - - - - - - - - - - - - - - -
 72
65
 73
2
 40
0.2
 49
0.1
 74
0
 49
-0.1
 74
0
  0
ENDTAB
  0
TABLE
  2
LAYER
  5
2
100
AcDbSymbolTable
 70
36
  0
LAYER
  5
10
100
AcDbSymbolTableRecord
100
AcDbLayerTableRecord
  2
0
 70
0
 62
7
  6
CONTINUOUS
370
-3
390
F
  0
LAYER
  5
1FA
100
AcDbSymbolTableRecord
100
AcDbLayerTableRecord
  2
DEFAULT_1
 70
0
 62
7
  6
CENTER
370
-3
390
F
  0
LAYER
  5
1FB
100
AcDbSymbolTableRecord
100
AcDbLayerTableRecord
  2
DEFAULT_2
 70
0
 62
7
  6
HIDDEN
370
-3
390
F
  0
LAYER
  5
1FC
100
AcDbSymbolTableRecord
100
AcDbLayerTableRecord
  2
DEFAULT_3
 70
0
 62
7
  6
PHANTOM
370
-3
390
F
  0
LAYER
  5
1FD
100
AcDbSymbolTableRecord
100
AcDbLayerTableRecord
  2
00_COMPONENTS
 70
0
 62
7
  6
CONTINUOUS
370
-3
390
F
  0
LAYER
  5
1FE
100
AcDbSymbolTableRecord
100
AcDbLayerTableRecord
  2
01_1_DEFAULT_DATUMS
 70
0
 62
7
  6
CONTINUOUS
370
-3
390
F
  0
LAYER
  5
1FF
100
AcDbSymbolTableRecord
100
AcDbLayerTableRecord
  2
01_PLANES
 70
0
 62
7
  6
CONTINUOUS
370
-3
390
F
  0
LAYER
  5
200
100
AcDbSymbolTableRecord
100
AcDbLayerTableRecord
  2
02_COORD_SYS
 70
0
 62
7
  6
CONTINUOUS
370
-3
390
F
  0
LAYER
  5
201
100
AcDbSymbolTableRecord
100
AcDbLayerTableRecord
  2
03_AXES
 70
0
 62
7
  6
CONTINUOUS
370
-3
390
F
  0
LAYER
  5
202
100
AcDbSymbolTableRecord
100
AcDbLayerTableRecord
  2
04_POINTS
 70
0
 62
7
  6
CONTINUOUS
370
-3
390
F
  0
LAYER
  5
203
100
AcDbSymbolTableRecord
100
AcDbLayerTableRecord
  2
05_CURVES
 70
0
 62
7
  6
CONTINUOUS
370
-3
390
F
  0
LAYER
  5
204
100
AcDbSymbolTableRecord
100
AcDbLayerTableRecord
  2
06_SURFS
 70
0
 62
7
  6
CONTINUOUS
370
-3
390
F
  0
LAYER
  5
205
100
AcDbSymbolTableRecord
100
AcDbLayerTableRecord
  2
07_COSMETICS
 70
0
 62
7
  6
CONTINUOUS
370
-3
390
F
  0
LAYER
  5
206
100
AcDbSymbolTableRecord
100
AcDbLayerTableRecord
  2
10_NOTES
 70
0
 62
7
  6
CONTINUOUS
370
-3
390
F
  0
LAYER
  5
207
100
AcDbSymbolTableRecord
100
AcDbLayerTableRecord
  2
11_NOTES_PUB
 70
0
 62
7
  6
CONTINUOUS
370
-3
390
F
  0
LAYER
  5
208
100
AcDbSymbolTableRecord
100
AcDbLayerTableRecord
  2
13_REF_GTOL
 70
0
 62
7
  6
CONTINUOUS
370
-3
390
F
  0
LAYER
  5
209
100
AcDbSymbolTableRecord
100
AcDbLayerTableRecord
  2
16_MISC
 70
0
 62
7
  6
CONTINUOUS
370
-3
390
F
  0
LAYER
  5
20A
100
AcDbSymbolTableRecord
100
AcDbLayerTableRecord
  2
17_NO_PRINT
 70
0
 62
7
  6
CONTINUOUS
370
-3
390
F
  0
LAYER
  5
20B
100
AcDbSymbolTableRecord
100
AcDbLayerTableRecord
  2
18_DATUM_CAMS_JOINTS
 70
0
 62
7
  6
CONTINUOUS
370
-3
390
F
  0
LAYER
  5
20C
100
AcDbSymbolTableRecord
100
AcDbLayerTableRecord
  2
19_DATUM_FUNCTIONAL
 70
0
 62
7
  6
CONTINUOUS
370
-3
390
F
  0
LAYER
  5
20D
100
AcDbSymbolTableRecord
100
AcDbLayerTableRecord
  2
20_DATUM_KINEMATIC_SCHEME
 70
0
 62
7
  6
CONTINUOUS
370
-3
390
F
  0
LAYER
  5
20E
100
AcDbSymbolTableRecord
100
AcDbLayerTableRecord
  2
3
 70
0
 62
7
  6
CONTINUOUS
370
-3
390
F
  0
LAYER
  5
20F
100
AcDbSymbolTableRecord
100
AcDbLayerTableRecord
  2
4
 70
0
 62
7
  6
CONTINUOUS
370
-3
390
F
  0
ENDTAB
  0
TABLE
  2
STYLE
  5
3
100
AcDbSymbolTable
 70
1
  0
STYLE
  5
11
100
AcDbSymbolTableRecord
100
AcDbTextStyleTableRecord
  2
STANDARD
 70
0
 40
0.0
 41
1.0
 50
0.0
 71
0
 42
0.2
  3
ARIAL.TTF
  4

  0
STYLE
  5
210
100
AcDbSymbolTableRecord
100
AcDbTextStyleTableRecord
  2
TEXTSTYLE_1
 70
0
 40
0.0
 41
0.8
 50
0.0
 71
0
 42
0.2
  3
gdt
  4

  0
ENDTAB
  0
TABLE
  2
VIEW
  5
6
100
AcDbSymbolTable
 70
0
  0
ENDTAB
  0
TABLE
  2
UCS
  5
7
100
AcDbSymbolTable
 70
0
  0
ENDTAB
  0
TABLE
  2
APPID
  5
9
100
AcDbSymbolTable
 70
1
  0
APPID
  5
211
100
AcDbSymbolTableRecord
100
AcDbRegAppTableRecord
  2
ACAD
 70
0
  0
ENDTAB
  0
TABLE
  2
BLOCK_RECORD
  5
1
100
AcDbSymbolTable
 70
0
  0
BLOCK_RECORD
  5
212
100
AcDbSymbolTableRecord
100
AcDbBlockTableRecord
  2
*Model_Space
  0
BLOCK_RECORD
  5
213
100
AcDbSymbolTableRecord
100
AcDbBlockTableRecord
  2
*Paper_Space
  0
BLOCK_RECORD
  5
214
100
AcDbSymbolTableRecord
100
AcDbBlockTableRecord
  2
_FILLED
  0
ENDTAB
  0
TABLE
  2
DIMSTYLE
  5
A
100
AcDbSymbolTable
 70
1
100
AcDbDimStyleTable
 71
0
  0
DIMSTYLE
105
215
100
AcDbSymbolTableRecord
100
AcDbDimStyleTableRecord
  2
STANDARD
 70
0
  3

  4

 40
1.0
 41
11.4695264109
 42
1.0
 43
0.38
 44
1.0
 45
0.0
 46
0.0
 47
0.01
 48
0.01
140
16.0573369752
141
0.09
142
0.0
143
25.4
144
1.0
145
0.0
146
1.0
147
0.625
 71
1
 72
0
 73
0
 74
0
 75
0
 76
0
 77
1
 78
8
 79
2
170
0
171
1
172
0
173
0
174
0
175
0
176
0
177
0
178
0
270
2
179
2
271
2
272
2
273
2
274
2
275
0
280
0
281
0
282
0
283
1
284
8
285
0
286
0
287
3
288
0
340
11
278
46
341
214
342
214
343
214
344
214
  0
ENDTAB
  0
ENDSEC
  0
SECTION
  2
BLOCKS
  0
BLOCK
  5
20
100
AcDbEntity
  8
0
100
AcDbBlockBegin
  2
*Model_Space
 70
0
 10
0.0
 20
0.0
 30
0.0
  3
*Model_Space
  1

  0
ENDBLK
  5
21
100
AcDbEntity
  8
0
100
AcDbBlockEnd
  0
BLOCK
  5
1C
100
AcDbEntity
  8
0
100
AcDbBlockBegin
  2
*Paper_Space
 70
0
 10
0.0
 20
0.0
 30
0.0
  3
*Paper_Space
  1

  0
ENDBLK
  5
1D
100
AcDbEntity
  8
0
100
AcDbBlockEnd
  0
BLOCK
  5
216
100
AcDbEntity
  8
0
100
AcDbBlockBegin
  2
_FILLED
 70
64
 10
0.0
 20
0.0
  3
_FILLED
  1

  0
SOLID
  5
217
100
AcDbEntity
  8
0
  6
BYBLOCK
 62
0
100
AcDbTrace
 10
0.0
 20
0.0
 11
-1.0
 21
0.25
 12
-1.0
 22
-0.25
 13
-1.0
 23
-0.25
  0
ENDBLK
  5
218
100
AcDbEntity
  8
0
  6
BYBLOCK
 62
0
100
AcDbBlockEnd
  0
ENDSEC
  0
SECTION
  2
ENTITIES
  0
LINE
  5
219
100
AcDbEntity
  8
0
100
AcDbLine
 62
7
  6
BYLAYER
 10
515.196619165
 20
111.0079079992
 11
515.1969711601
 21
111.0079269612
  0
LINE
  5
21A
100
AcDbEntity
  8
0
100
AcDbLine
 62
7
  6
BYLAYER
 10
515.1845755989
 20
111.0075486578
 11
515.196619165
 21
111.0079079992
  0
LINE
  5
21B
100
AcDbEntity
  8
0
100
AcDbLine
 62
7
  6
BYLAYER
 10
515.1944924463
 20
111.0076107719
 11
515.1860382535
 21
111.0075480276
  0
LINE
  5
21C
100
AcDbEntity
  8
0
100
AcDbLine
 62
7
  6
BYLAYER
 10
539.4832586432
 20
110.9076530612
 11
534.8834353409
 21
110.9076530612
  0
LINE
  5
21D
100
AcDbEntity
  8
0
100
AcDbLine
 62
7
  6
BYLAYER
 10
499.48324677
 20
110.9076530612
 11
494.8834234678
 21
110.9076530612
  0
LINE
  5
21E
100
AcDbEntity
  8
0
100
AcDbLine
 62
7
  6
BYLAYER
 10
546.6828439526
 20
111.0075429227
 11
539.8561369028
 21
111.0075429227
  0
LINE
  5
21F
100
AcDbEntity
  8
0
100
AcDbLine
 62
7
  6
BYLAYER
 10
493.6828439526
 20
111.0075429227
 11
494.5105367077
 21
111.0075429227
  0
LINE
  5
220
100
AcDbEntity
  8
0
100
AcDbLine
 62
7
  6
BYLAYER
 10
499.8561250296
 20
111.0075429227
 11
515.1860382535
 21
111.0075480276
  0
LINE
  5
221
100
AcDbEntity
  8
0
100
AcDbLine
 62
7
  6
BYLAYER
 10
524.3266698201
 20
111.5075429227
 11
516.0389405872
 21
111.5075429227
  0
LINE
  5
222
100
AcDbEntity
  8
0
100
AcDbLine
 62
7
  6
BYLAYER
 10
540.4833427418
 20
111.9076530612
 11
533.8833427418
 21
111.9076530612
  0
LINE
  5
223
100
AcDbEntity
  8
0
100
AcDbLine
 62
7
  6
BYLAYER
 10
500.4833308686
 20
111.9076530612
 11
493.8833308686
 21
111.9076530612
  0
LINE
  5
224
100
AcDbEntity
  8
0
100
AcDbLine
 62
7
  6
BYLAYER
 10
547.6828439526
 20
112.0075429227
 11
540.4833427418
 21
112.0075429227
  0
LINE
  5
225
100
AcDbEntity
  8
0
100
AcDbLine
 62
7
  6
BYLAYER
 10
533.8833427418
 20
112.0075429227
 11
524.1828439526
 21
112.0075429296
  0
LINE
  5
226
100
AcDbEntity
  8
0
100
AcDbLine
 62
7
  6
BYLAYER
 10
516.1828439526
 20
112.007542923
 11
500.4833308686
 21
112.0075429227
  0
LINE
  5
227
100
AcDbEntity
  8
0
100
AcDbLine
 62
7
  6
BYLAYER
 10
493.8833308686
 20
112.0075429227
 11
492.6828439526
 21
112.0075429227
  0
LINE
  5
228
100
AcDbEntity
  8
0
100
AcDbLine
 62
7
  6
BYLAYER
 10
492.6828439526
 20
113.0075428538
 11
493.8833308686
 21
113.0075429227
  0
LINE
  5
229
100
AcDbEntity
  8
0
100
AcDbLine
 62
7
  6
BYLAYER
 10
500.4833308686
 20
113.0075429227
 11
501.6828439526
 21
113.0075428538
  0
LINE
  5
22A
100
AcDbEntity
  8
0
100
AcDbLine
 62
7
  6
BYLAYER
 10
532.6828439526
 20
113.0075428538
 11
533.8833427418
 21
113.0075429227
  0
LINE
  5
22B
100
AcDbEntity
  8
0
100
AcDbLine
 62
7
  6
BYLAYER
 10
540.4833427418
 20
113.0075429227
 11
541.0951591614
 21
113.0075429227
  0
LINE
  5
22C
100
AcDbEntity
  8
0
100
AcDbLine
 62
7
  6
BYLAYER
 10
493.1828439526
 20
113.5075429227
 11
500.1828439526
 21
113.5075429227
  0
LINE
  5
22D
100
AcDbEntity
  8
0
100
AcDbLine
 62
7
  6
BYLAYER
 10
534.1828439526
 20
113.5075429227
 11
540.732597434
 21
113.5075429227
  0
LINE
  5
22E
100
AcDbEntity
  8
0
100
AcDbLine
 62
7
  6
BYLAYER
 10
534.5105485809
 20
111.0075429227
 11
515.1944924463
 21
111.0075429227
  0
LINE
  5
22F
100
AcDbEntity
  8
0
100
AcDbLine
 62
7
  6
BYLAYER
 10
525.1802452219
 20
111.0075465172
 11
525.1716609621
 21
111.0076054543
  0
LINE
  5
230
100
AcDbEntity
  8
0
100
AcDbLine
 62
7
  6
BYLAYER
 10
525.1777200566
 20
111.0075932189
 11
525.1811118563
 21
111.0075486607
  0
LINE
  5
231
100
AcDbEntity
  8
0
100
AcDbLine
 62
7
  6
BYLAYER
 10
525.1691233856
 20
111.0079050911
 11
525.1777200566
 21
111.0075932189
  0
LINE
  5
232
100
AcDbEntity
  8
0
100
AcDbLine
 62
7
  6
BYLAYER
 10
542.5949256445
 20
114.0075429227
 11
534.1828439526
 21
114.0075429227
  0
LINE
  5
233
100
AcDbEntity
  8
0
100
AcDbLine
 62
7
  6
BYLAYER
 10
500.1828439526
 20
114.0075429227
 11
492.6828439526
 21
114.0075429227
  0
LINE
  5
234
100
AcDbEntity
  8
0
100
AcDbLine
 62
7
  6
BYLAYER
 10
492.6828439526
 20
128.5075429227
 11
516.1828439526
 21
128.5075429227
  0
LINE
  5
235
100
AcDbEntity
  8
0
100
AcDbLine
 62
7
  6
BYLAYER
 10
516.1833427418
 20
128.5075429227
 11
547.6828439526
 21
128.5075429227
  0
LINE
  5
236
100
AcDbEntity
  8
3
100
AcDbLine
 62
7
  6
BYLAYER
 10
492.6833254269
 20
128.5076658697
 11
547.6833427418
 21
128.5076658697
  0
LINE
  5
237
100
AcDbEntity
  8
0
100
AcDbLine
 62
7
  6
BYLAYER
 10
524.663024413
 20
111.1532669723
 11
525.1795695747
 21
111.0075361691
  0
LINE
  5
238
100
AcDbEntity
  8
0
100
AcDbLine
 62
7
  6
BYLAYER
 10
493.1598993578
 20
111.1551762943
 11
493.6795493779
 21
111.0075370018
  0
LINE
  5
239
100
AcDbEntity
  8
0
100
AcDbLine
 62
7
  6
BYLAYER
 10
525.1716609621
 20
111.0076054543
 11
524.6630169406
 21
111.1532713748
  0
LINE
  5
23A
100
AcDbEntity
  8
3
100
AcDbLine
 62
7
  6
BYLAYER
 10
447.4414238748
 20
155.8558281845
 11
492.4414238748
 21
155.8558281845
  0
LINE
  5
23B
100
AcDbEntity
  8
3
100
AcDbLine
 62
7
  6
BYLAYER
 10
488.1047091909
 20
159.5033281845
 11
489.3493084527
 21
159.5033281845
  0
LINE
  5
23C
100
AcDbEntity
  8
3
100
AcDbLine
 62
7
  6
BYLAYER
 10
492.4414238748
 20
160.8558281845
 11
489.4414238748
 21
160.8558281845
  0
LINE
  5
23D
100
AcDbEntity
  8
3
100
AcDbLine
 62
7
  6
BYLAYER
 10
488.0012242569
 20
161.179291004
 11
485.0012242569
 21
161.179291004
  0
LINE
  5
23E
100
AcDbEntity
  8
3
100
AcDbLine
 62
7
  6
BYLAYER
 10
450.6414238748
 20
162.6058281845
 11
464.1414238748
 21
162.6058281845
  0
LINE
  5
23F
100
AcDbEntity
  8
3
100
AcDbLine
 62
7
  6
BYLAYER
 10
480.7307688495
 20
162.8558281845
 11
485.0012242569
 21
162.8558281845
  0
LINE
  5
240
100
AcDbEntity
  8
3
100
AcDbLine
 62
7
  6
BYLAYER
 10
488.0012242569
 20
162.8558281845
 11
488.1047091909
 21
162.8558281845
  0
LINE
  5
241
100
AcDbEntity
  8
3
100
AcDbLine
 62
7
  6
BYLAYER
 10
489.3493084527
 20
162.8558281845
 11
489.4414238748
 21
162.8558281845
  0
LINE
  5
242
100
AcDbEntity
  8
3
100
AcDbLine
 62
7
  6
BYLAYER
 10
492.4414238748
 20
162.8558281845
 11
492.6833254269
 21
162.8558281845
  0
LINE
  5
243
100
AcDbEntity
  8
3
100
AcDbLine
 62
7
  6
BYLAYER
 10
488.0012242569
 20
165.8558281845
 11
485.0012242569
 21
165.8558281845
  0
LINE
  5
244
100
AcDbEntity
  8
3
100
AcDbLine
 62
7
  6
BYLAYER
 10
480.7307688495
 20
168.8558281845
 11
485.0012242569
 21
168.8558281845
  0
LINE
  5
245
100
AcDbEntity
  8
3
100
AcDbLine
 62
7
  6
BYLAYER
 10
488.0012242569
 20
168.8558281845
 11
488.1047091909
 21
168.8558281845
  0
LINE
  5
246
100
AcDbEntity
  8
3
100
AcDbLine
 62
7
  6
BYLAYER
 10
489.3493084527
 20
168.8558281845
 11
489.4414238748
 21
168.8558281845
  0
LINE
  5
247
100
AcDbEntity
  8
3
100
AcDbLine
 62
7
  6
BYLAYER
 10
492.4414238748
 20
168.8558281845
 11
492.6833254269
 21
168.8558281845
  0
LINE
  5
248
100
AcDbEntity
  8
3
100
AcDbLine
 62
7
  6
BYLAYER
 10
464.1414238748
 20
169.1058281845
 11
450.6414238748
 21
169.1058281845
  0
LINE
  5
249
100
AcDbEntity
  8
3
100
AcDbLine
 62
7
  6
BYLAYER
 10
488.0012242569
 20
170.5323653649
 11
485.0012242569
 21
170.5323653649
  0
LINE
  5
24A
100
AcDbEntity
  8
3
100
AcDbLine
 62
7
  6
BYLAYER
 10
489.3493084527
 20
172.2083281845
 11
488.1047091909
 21
172.2083281845
  0
LINE
  5
24B
100
AcDbEntity
  8
3
100
AcDbLine
 62
7
  6
BYLAYER
 10
488.1047091909
 20
189.5033281845
 11
489.3493084527
 21
189.5033281845
  0
LINE
  5
24C
100
AcDbEntity
  8
3
100
AcDbLine
 62
7
  6
BYLAYER
 10
488.0012242569
 20
191.179291004
 11
485.0012242569
 21
191.179291004
  0
LINE
  5
24D
100
AcDbEntity
  8
3
100
AcDbLine
 62
7
  6
BYLAYER
 10
450.6414238748
 20
192.6058281845
 11
464.1414238748
 21
192.6058281845
  0
LINE
  5
24E
100
AcDbEntity
  8
3
100
AcDbLine
 62
7
  6
BYLAYER
 10
480.7307688495
 20
192.8558281845
 11
485.0012242569
 21
192.8558281845
  0
LINE
  5
24F
100
AcDbEntity
  8
3
100
AcDbLine
 62
7
  6
BYLAYER
 10
488.0012242569
 20
192.8558281845
 11
488.1047091909
 21
192.8558281845
  0
LINE
  5
250
100
AcDbEntity
  8
3
100
AcDbLine
 62
7
  6
BYLAYER
 10
489.3493084527
 20
192.8558281845
 11
489.4414238748
 21
192.8558281845
  0
LINE
  5
251
100
AcDbEntity
  8
3
100
AcDbLine
 62
7
  6
BYLAYER
 10
492.4414238748
 20
192.8558281845
 11
492.6833254269
 21
192.8558281845
  0
LINE
  5
252
100
AcDbEntity
  8
3
100
AcDbLine
 62
7
  6
BYLAYER
 10
488.0012242569
 20
195.8558281845
 11
485.0012242569
 21
195.8558281845
  0
LINE
  5
253
100
AcDbEntity
  8
3
100
AcDbLine
 62
7
  6
BYLAYER
 10
480.7307688495
 20
198.8558281845
 11
485.0012242569
 21
198.8558281845
  0
LINE
  5
254
100
AcDbEntity
  8
3
100
AcDbLine
 62
7
  6
BYLAYER
 10
488.0012242569
 20
198.8558281845
 11
488.1047091909
 21
198.8558281845
  0
LINE
  5
255
100
AcDbEntity
  8
3
100
AcDbLine
 62
7
  6
BYLAYER
 10
489.3493084527
 20
198.8558281845
 11
489.4414238748
 21
198.8558281845
  0
LINE
  5
256
100
AcDbEntity
  8
3
100
AcDbLine
 62
7
  6
BYLAYER
 10
492.4414238748
 20
198.8558281845
 11
492.6833254269
 21
198.8558281845
  0
LINE
  5
257
100
AcDbEntity
  8
3
100
AcDbLine
 62
7
  6
BYLAYER
 10
464.1414238748
 20
199.1058281845
 11
450.6414238748
 21
199.1058281845
  0
LINE
  5
258
100
AcDbEntity
  8
3
100
AcDbLine
 62
7
  6
BYLAYER
 10
488.0012242569
 20
200.5323653649
 11
485.0012242569
 21
200.5323653649
  0
LINE
  5
259
100
AcDbEntity
  8
3
100
AcDbLine
 62
7
  6
BYLAYER
 10
489.4414238748
 20
200.8558281845
 11
492.4414238748
 21
200.8558281845
  0
LINE
  5
25A
100
AcDbEntity
  8
3
100
AcDbLine
 62
7
  6
BYLAYER
 10
489.3493084527
 20
202.2083281845
 11
488.1047091909
 21
202.2083281845
  0
LINE
  5
25B
100
AcDbEntity
  8
3
100
AcDbLine
 62
7
  6
BYLAYER
 10
447.4414238748
 20
205.8558281845
 11
492.4414238748
 21
205.8558281845
  0
LINE
  5
25C
100
AcDbEntity
  8
0
100
AcDbLine
 62
7
  6
BYLAYER
 10
500.4330846898
 20
1250.5076530612
 11
500.9330846898
 21
1251.0076530612
  0
LINE
  5
25D
100
AcDbEntity
  8
0
100
AcDbLine
 62
7
  6
BYLAYER
 10
524.6830846898
 20
1254.5076552197
 11
525.1830827112
 21
1255.0076530612
  0
LINE
  5
25E
100
AcDbEntity
  8
0
100
AcDbLine
 62
7
  6
BYLAYER
 10
522.9330846898
 20
1250.5076530612
 11
523.4330846898
 21
1251.0076530612
  0
LINE
  5
25F
100
AcDbEntity
  8
3
100
AcDbLine
 62
7
  6
BYLAYER
 10
442.4414238748
 20
1197.1907306453
 11
442.4414238748
 21
1157.1907306453
  0
LINE
  5
260
100
AcDbEntity
  8
3
100
AcDbLine
 62
7
  6
BYLAYER
 10
442.4414238748
 20
200.8558281845
 11
442.4414238748
 21
160.8558281845
  0
LINE
  5
261
100
AcDbEntity
  8
3
100
AcDbLine
 62
7
  6
BYLAYER
 10
480.7307688495
 20
162.8559511604
 11
480.7307688495
 21
168.8557052085
  0
LINE
  5
262
100
AcDbEntity
  8
3
100
AcDbLine
 62
7
  6
BYLAYER
 10
480.7307688495
 20
192.8559511604
 11
480.7307688495
 21
198.8557052085
  0
LINE
  5
263
100
AcDbEntity
  8
3
100
AcDbLine
 62
7
  6
BYLAYER
 10
480.7307688495
 20
1159.1908536213
 11
480.7307688495
 21
1165.1906076694
  0
LINE
  5
264
100
AcDbEntity
  8
3
100
AcDbLine
 62
7
  6
BYLAYER
 10
480.7307688495
 20
1189.1908536213
 11
480.7307688495
 21
1195.1906076694
  0
LINE
  5
265
100
AcDbEntity
  8
3
100
AcDbLine
 62
7
  6
BYLAYER
 10
485.0012242569
 20
161.179291004
 11
485.0012242569
 21
170.5323653649
  0
LINE
  5
266
100
AcDbEntity
  8
3
100
AcDbLine
 62
7
  6
BYLAYER
 10
485.0012242569
 20
191.179291004
 11
485.0012242569
 21
200.5323653649
  0
LINE
  5
267
100
AcDbEntity
  8
3
100
AcDbLine
 62
7
  6
BYLAYER
 10
485.0012242569
 20
1157.5141934649
 11
485.0012242569
 21
1166.8672678257
  0
LINE
  5
268
100
AcDbEntity
  8
3
100
AcDbLine
 62
7
  6
BYLAYER
 10
485.0012242569
 20
1187.5141934649
 11
485.0012242569
 21
1196.8672678257
  0
LINE
  5
269
100
AcDbEntity
  8
3
100
AcDbLine
 62
7
  6
BYLAYER
 10
485.4414238748
 20
1202.1907306453
 11
485.4414238748
 21
1196.8672678257
  0
LINE
  5
26A
100
AcDbEntity
  8
3
100
AcDbLine
 62
7
  6
BYLAYER
 10
485.4414238748
 20
1187.5141934649
 11
485.4414238748
 21
1166.8672678257
  0
LINE
  5
26B
100
AcDbEntity
  8
3
100
AcDbLine
 62
7
  6
BYLAYER
 10
485.4414238748
 20
1157.5141934649
 11
485.4414238748
 21
1152.1907306453
  0
LINE
  5
26C
100
AcDbEntity
  8
3
100
AcDbLine
 62
7
  6
BYLAYER
 10
485.4414238748
 20
205.8558281845
 11
485.4414238748
 21
200.5323653649
  0
LINE
  5
26D
100
AcDbEntity
  8
3
100
AcDbLine
 62
7
  6
BYLAYER
 10
485.4414238748
 20
191.179291004
 11
485.4414238748
 21
170.5323653649
  0
LINE
  5
26E
100
AcDbEntity
  8
3
100
AcDbLine
 62
7
  6
BYLAYER
 10
485.4414238748
 20
161.179291004
 11
485.4414238748
 21
155.8558281845
  0
LINE
  5
26F
100
AcDbEntity
  8
3
100
AcDbLine
 62
7
  6
BYLAYER
 10
488.0012242569
 20
1196.8672678257
 11
488.0012242569
 21
1187.5141934649
  0
LINE
  5
270
100
AcDbEntity
  8
3
100
AcDbLine
 62
7
  6
BYLAYER
 10
488.0012242569
 20
1166.8672678257
 11
488.0012242569
 21
1157.5141934649
  0
LINE
  5
271
100
AcDbEntity
  8
3
100
AcDbLine
 62
7
  6
BYLAYER
 10
488.0012242569
 20
200.5323653649
 11
488.0012242569
 21
191.179291004
  0
LINE
  5
272
100
AcDbEntity
  8
3
100
AcDbLine
 62
7
  6
BYLAYER
 10
488.0012242569
 20
170.5323653649
 11
488.0012242569
 21
161.179291004
  0
LINE
  5
273
100
AcDbEntity
  8
3
100
AcDbLine
 62
7
  6
BYLAYER
 10
488.1047091909
 20
159.5033281845
 11
488.1047091909
 21
172.2083281845
  0
LINE
  5
274
100
AcDbEntity
  8
3
100
AcDbLine
 62
7
  6
BYLAYER
 10
488.1047091909
 20
189.5033281845
 11
488.1047091909
 21
202.2083281845
  0
LINE
  5
275
100
AcDbEntity
  8
3
100
AcDbLine
 62
7
  6
BYLAYER
 10
488.1047091909
 20
1155.8382306453
 11
488.1047091909
 21
1168.5432306453
  0
LINE
  5
276
100
AcDbEntity
  8
3
100
AcDbLine
 62
7
  6
BYLAYER
 10
488.1047091909
 20
1185.8382306453
 11
488.1047091909
 21
1198.5432306453
  0
LINE
  5
277
100
AcDbEntity
  8
3
100
AcDbLine
 62
7
  6
BYLAYER
 10
489.3493084527
 20
1198.5432306453
 11
489.3493084527
 21
1185.8382306453
  0
LINE
  5
278
100
AcDbEntity
  8
3
100
AcDbLine
 62
7
  6
BYLAYER
 10
489.3493084527
 20
1168.5432306453
 11
489.3493084527
 21
1155.8382306453
  0
LINE
  5
279
100
AcDbEntity
  8
3
100
AcDbLine
 62
7
  6
BYLAYER
 10
489.3493084527
 20
202.2083281845
 11
489.3493084527
 21
189.5033281845
  0
LINE
  5
27A
100
AcDbEntity
  8
3
100
AcDbLine
 62
7
  6
BYLAYER
 10
489.3493084527
 20
172.2083281845
 11
489.3493084527
 21
159.5033281845
  0
LINE
  5
27B
100
AcDbEntity
  8
3
100
AcDbLine
 62
7
  6
BYLAYER
 10
489.4414238748
 20
155.8558281845
 11
489.4414238748
 21
205.8558281845
  0
LINE
  5
27C
100
AcDbEntity
  8
3
100
AcDbLine
 62
7
  6
BYLAYER
 10
489.4414238748
 20
1152.1907306453
 11
489.4414238748
 21
1202.1907306453
  0
LINE
  5
27D
100
AcDbEntity
  8
3
100
AcDbLine
 62
7
  6
BYLAYER
 10
492.4414238748
 20
1202.1907306453
 11
492.4414238748
 21
1152.1907306453
  0
LINE
  5
27E
100
AcDbEntity
  8
3
100
AcDbLine
 62
7
  6
BYLAYER
 10
492.4414238748
 20
205.8558281845
 11
492.4414238748
 21
155.8558281845
  0
LINE
  5
27F
100
AcDbEntity
  8
0
100
AcDbLine
 62
7
  6
BYLAYER
 10
492.6828439526
 20
112.0075429227
 11
492.6828439526
 21
128.5075429227
  0
LINE
  5
280
100
AcDbEntity
  8
0
100
AcDbLine
 62
7
  6
BYLAYER
 10
492.6830846898
 20
1241.5076530612
 11
492.6830846898
 21
1227.0076530612
  0
LINE
  5
281
100
AcDbEntity
  8
0
100
AcDbLine
 62
7
  6
BYLAYER
 10
492.6830846898
 20
1243.5076530612
 11
492.6830846898
 21
1241.5197642098
  0
LINE
  5
282
100
AcDbEntity
  8
3
100
AcDbLine
 62
7
  6
BYLAYER
 10
492.6833254269
 20
1227.0076658697
 11
492.6833254269
 21
128.5076658697
  0
LINE
  5
283
100
AcDbEntity
  8
0
100
AcDbLine
 62
7
  6
BYLAYER
 10
493.6828439526
 20
111.0075429227
 11
493.6828439526
 21
113.0075429227
  0
LINE
  5
284
100
AcDbEntity
  8
0
100
AcDbLine
 62
7
  6
BYLAYER
 10
493.6830846898
 20
1242.5076530612
 11
493.6830846898
 21
1244.5076530612
  0
LINE
  5
285
100
AcDbEntity
  8
0
100
AcDbLine
 62
7
  6
BYLAYER
 10
493.8830846898
 20
1242.0076530612
 11
493.8830846898
 21
1243.6076530612
  0
LINE
  5
286
100
AcDbEntity
  8
0
100
AcDbLine
 62
7
  6
BYLAYER
 10
493.8833308686
 20
113.5076530612
 11
493.8833308686
 21
111.9076530612
  0
LINE
  5
287
100
AcDbEntity
  8
0
100
AcDbLine
 62
7
  6
BYLAYER
 10
496.6828439526
 20
113.5075429227
 11
496.6828439526
 21
128.5075429227
  0
LINE
  5
288
100
AcDbEntity
  8
0
100
AcDbLine
 62
7
  6
BYLAYER
 10
496.6830846898
 20
1227.0076530612
 11
496.6830846898
 21
1242.0076530612
  0
LINE
  5
289
100
AcDbEntity
  8
3
100
AcDbLine
 62
7
  6
BYLAYER
 10
496.6833254269
 20
128.5076658697
 11
496.6833254269
 21
1227.0076658697
  0
LINE
  5
28A
100
AcDbEntity
  8
0
100
AcDbLine
 62
7
  6
BYLAYER
 10
500.1828438801
 20
114.0075429227
 11
500.1828438801
 21
113.5075429227
  0
LINE
  5
28B
100
AcDbEntity
  8
0
100
AcDbLine
 62
7
  6
BYLAYER
 10
500.1830846169
 20
1242.0076530612
 11
500.1830846169
 21
1241.5076530612
  0
LINE
  5
28C
100
AcDbEntity
  8
0
100
AcDbLine
 62
7
  6
BYLAYER
 10
500.4330846898
 20
1244.5076530612
 11
500.4330846898
 21
1250.5076530612
  0
LINE
  5
28D
100
AcDbEntity
  8
0
100
AcDbLine
 62
7
  6
BYLAYER
 10
500.4830846898
 20
1242.1118354959
 11
500.4830846898
 21
1243.6076530612
  0
LINE
  5
28E
100
AcDbEntity
  8
0
100
AcDbLine
 62
7
  6
BYLAYER
 10
500.4833308686
 20
113.4031570007
 11
500.4833308686
 21
111.9076530612
  0
LINE
  5
28F
100
AcDbEntity
  8
0
100
AcDbLine
 62
7
  6
BYLAYER
 10
500.6828439526
 20
113.0075429227
 11
500.6828439526
 21
112.0075429227
  0
LINE
  5
290
100
AcDbEntity
  8
0
100
AcDbLine
 62
7
  6
BYLAYER
 10
500.6830846898
 20
1243.5076530612
 11
500.6830846898
 21
1242.5076530612
  0
LINE
  5
291
100
AcDbEntity
  8
0
100
AcDbLine
 62
7
  6
BYLAYER
 10
501.6828439526
 20
111.0075429227
 11
501.6828439526
 21
113.0075429227
  0
LINE
  5
292
100
AcDbEntity
  8
0
100
AcDbLine
 62
7
  6
BYLAYER
 10
501.6830846898
 20
1242.5076530612
 11
501.6830846898
 21
1244.5076530612
  0
LINE
  5
293
100
AcDbEntity
  8
0
100
AcDbLine
 62
7
  6
BYLAYER
 10
504.0593446898
 20
1252.2076530612
 11
504.0593446898
 21
1251.0076530612
  0
LINE
  5
294
100
AcDbEntity
  8
0
100
AcDbLine
 62
7
  6
BYLAYER
 10
512.3093446898
 20
1252.2076530612
 11
512.3093446898
 21
1251.0076530612
  0
LINE
  5
295
100
AcDbEntity
  8
0
100
AcDbLine
 62
7
  6
BYLAYER
 10
515.6828439526
 20
128.5075429227
 11
515.6828439526
 21
112.0075429227
  0
LINE
  5
296
100
AcDbEntity
  8
0
100
AcDbLine
 62
7
  6
BYLAYER
 10
515.6830846898
 20
1243.5076530612
 11
515.6830846898
 21
1227.0076530612
  0
LINE
  5
297
100
AcDbEntity
  8
3
100
AcDbLine
 62
7
  6
BYLAYER
 10
515.6833427418
 20
1227.0076658697
 11
515.6833427418
 21
128.5076658697
  0
LINE
  5
298
100
AcDbEntity
  8
0
100
AcDbLine
 62
7
  6
BYLAYER
 10
515.9330846898
 20
1244.5076530612
 11
515.9330846898
 21
1250.5076530612
  0
LINE
  5
299
100
AcDbEntity
  8
0
100
AcDbLine
 62
7
  6
BYLAYER
 10
516.1828439526
 20
112.0075429258
 11
516.1828439526
 21
128.5075429227
  0
LINE
  5
29A
100
AcDbEntity
  8
0
100
AcDbLine
 62
7
  6
BYLAYER
 10
516.1830846898
 20
1227.0076530612
 11
516.1830846898
 21
1243.5076530612
  0
LINE
  5
29B
100
AcDbEntity
  8
3
100
AcDbLine
 62
7
  6
BYLAYER
 10
516.1833427418
 20
128.5076658697
 11
516.1833427418
 21
1227.0076658697
  0
LINE
  5
29C
100
AcDbEntity
  8
0
100
AcDbLine
 62
7
  6
BYLAYER
 10
522.9330846898
 20
1244.5076530612
 11
522.9330846898
 21
1250.5076530612
  0
LINE
  5
29D
100
AcDbEntity
  8
0
100
AcDbLine
 62
7
  6
BYLAYER
 10
524.1828439526
 20
128.5075429227
 11
524.1828439526
 21
112.0075429227
  0
LINE
  5
29E
100
AcDbEntity
  8
0
100
AcDbLine
 62
7
  6
BYLAYER
 10
524.1830846898
 20
1243.5076530566
 11
524.1830846898
 21
1227.0076530612
  0
LINE
  5
29F
100
AcDbEntity
  8
3
100
AcDbLine
 62
7
  6
BYLAYER
 10
524.1833427418
 20
1227.0076658697
 11
524.1833427418
 21
128.5076658697
  0
LINE
  5
2A0
100
AcDbEntity
  8
0
100
AcDbLine
 62
7
  6
BYLAYER
 10
524.6828439526
 20
112.0075429227
 11
524.6828439526
 21
128.5075429227
  0
LINE
  5
2A1
100
AcDbEntity
  8
0
100
AcDbLine
 62
7
  6
BYLAYER
 10
524.6830846898
 20
1227.0076530612
 11
524.6830846898
 21
1243.5076530612
  0
LINE
  5
2A2
100
AcDbEntity
  8
0
100
AcDbLine
 62
7
  6
BYLAYER
 10
524.6830846898
 20
1251.0076530612
 11
524.6830846898
 21
1254.5076552197
  0
LINE
  5
2A3
100
AcDbEntity
  8
3
100
AcDbLine
 62
7
  6
BYLAYER
 10
524.6833427418
 20
128.5076658697
 11
524.6833427418
 21
1227.0076658697
  0
LINE
  5
2A4
100
AcDbEntity
  8
0
100
AcDbLine
 62
7
  6
BYLAYER
 10
526.5586646898
 20
1252.2076530612
 11
526.5586646898
 21
1251.0076530612
  0
LINE
  5
2A5
100
AcDbEntity
  8
0
100
AcDbLine
 62
7
  6
BYLAYER
 10
532.6828439526
 20
113.0075429227
 11
532.6828439526
 21
111.0075429227
  0
LINE
  5
2A6
100
AcDbEntity
  8
0
100
AcDbLine
 62
7
  6
BYLAYER
 10
532.6830846898
 20
1244.5076530612
 11
532.6830846898
 21
1242.5076530612
  0
LINE
  5
2A7
100
AcDbEntity
  8
0
100
AcDbLine
 62
7
  6
BYLAYER
 10
533.6828439526
 20
112.0075429227
 11
533.6828439526
 21
113.0075429227
  0
LINE
  5
2A8
100
AcDbEntity
  8
0
100
AcDbLine
 62
7
  6
BYLAYER
 10
533.6830846898
 20
1242.5076530612
 11
533.6830846898
 21
1243.5076530612
  0
LINE
  5
2A9
100
AcDbEntity
  8
0
100
AcDbLine
 62
7
  6
BYLAYER
 10
533.8830846898
 20
1242.1092519379
 11
533.8830846898
 21
1243.6076530612
  0
LINE
  5
2AA
100
AcDbEntity
  8
0
100
AcDbLine
 62
7
  6
BYLAYER
 10
533.8833427418
 20
113.4036885991
 11
533.8833427418
 21
111.9076530612
  0
LINE
  5
2AB
100
AcDbEntity
  8
0
100
AcDbLine
 62
7
  6
BYLAYER
 10
534.1828440255
 20
113.5075429227
 11
534.1828440255
 21
114.0075429227
  0
LINE
  5
2AC
100
AcDbEntity
  8
0
100
AcDbLine
 62
7
  6
BYLAYER
 10
534.1830847573
 20
1241.5076530612
 11
534.1830847573
 21
1242.0076530612
  0
LINE
  5
2AD
100
AcDbEntity
  8
0
100
AcDbLine
 62
7
  6
BYLAYER
 10
534.7488368879
 20
1251.0076530612
 11
534.7488368879
 21
1252.2076530612
  0
LINE
  5
2AE
100
AcDbEntity
  8
0
100
AcDbLine
 62
7
  6
BYLAYER
 10
536.6830846898
 20
1251.0076530612
 11
536.6830846898
 21
1254.5076552197
  0
LINE
  5
2AF
100
AcDbEntity
  8
0
100
AcDbLine
 62
7
  6
BYLAYER
 10
538.4330846898
 20
1244.6076530612
 11
538.4330846898
 21
1250.5076530612
  0
LINE
  5
2B0
100
AcDbEntity
  8
0
100
AcDbLine
 62
7
  6
BYLAYER
 10
539.2822945062
 20
128.5075429227
 11
539.2822945062
 21
113.5075429227
  0
LINE
  5
2B1
100
AcDbEntity
  8
0
100
AcDbLine
 62
7
  6
BYLAYER
 10
539.2825352434
 20
1242.0076530612
 11
539.2825352434
 21
1227.0076530612
  0
LINE
  5
2B2
100
AcDbEntity
  8
3
100
AcDbLine
 62
7
  6
BYLAYER
 10
539.2827932954
 20
1227.0076658697
 11
539.2827932954
 21
128.5076658697
  0
LINE
  5
2B3
100
AcDbEntity
  8
0
100
AcDbLine
 62
7
  6
BYLAYER
 10
540.4830846898
 20
1242.1092519379
 11
540.4830846898
 21
1243.6076530612
  0
LINE
  5
2B4
100
AcDbEntity
  8
0
100
AcDbLine
 62
7
  6
BYLAYER
 10
540.4833427418
 20
113.4054452569
 11
540.4833427418
 21
111.9076530612
  0
LINE
  5
2B5
100
AcDbEntity
  8
0
100
AcDbLine
 62
7
  6
BYLAYER
 10
540.6828439526
 20
113.0075429227
 11
540.6828439526
 21
112.0075429227
  0
LINE
  5
2B6
100
AcDbEntity
  8
0
100
AcDbLine
 62
7
  6
BYLAYER
 10
540.6830846898
 20
1243.5076530612
 11
540.6830846898
 21
1242.5076530612
  0
LINE
  5
2B7
100
AcDbEntity
  8
0
100
AcDbLine
 62
7
  6
BYLAYER
 10
542.0295057852
 20
114.0075429227
 11
542.0295057852
 21
128.5075429227
  0
LINE
  5
2B8
100
AcDbEntity
  8
0
100
AcDbLine
 62
7
  6
BYLAYER
 10
542.0297465224
 20
1227.0076530612
 11
542.0297465224
 21
1241.5076530612
  0
LINE
  5
2B9
100
AcDbEntity
  8
3
100
AcDbLine
 62
7
  6
BYLAYER
 10
542.0300045744
 20
128.5076658697
 11
542.0300045744
 21
1227.0076658697
  0
LINE
  5
2BA
100
AcDbEntity
  8
0
100
AcDbLine
 62
7
  6
BYLAYER
 10
542.5949256445
 20
112.0075429227
 11
542.5949256445
 21
114.0075429227
  0
LINE
  5
2BB
100
AcDbEntity
  8
0
100
AcDbLine
 62
7
  6
BYLAYER
 10
542.5951663816
 20
1241.5076530612
 11
542.5951663816
 21
1243.5076530597
  0
LINE
  5
2BC
100
AcDbEntity
  8
0
100
AcDbLine
 62
7
  6
BYLAYER
 10
546.2322862084
 20
128.5075429227
 11
546.2322862084
 21
112.0075429227
  0
LINE
  5
2BD
100
AcDbEntity
  8
0
100
AcDbLine
 62
7
  6
BYLAYER
 10
546.2325269456
 20
1243.5076530596
 11
546.2325269456
 21
1227.0076530612
  0
LINE
  5
2BE
100
AcDbEntity
  8
3
100
AcDbLine
 62
7
  6
BYLAYER
 10
546.2327849975
 20
1227.0076658697
 11
546.2327849975
 21
128.5076658697
  0
LINE
  5
2BF
100
AcDbEntity
  8
0
100
AcDbLine
 62
7
  6
BYLAYER
 10
547.6828439526
 20
112.0075429267
 11
547.6828439526
 21
128.5075429227
  0
LINE
  5
2C0
100
AcDbEntity
  8
0
100
AcDbLine
 62
7
  6
BYLAYER
 10
547.6830846898
 20
1227.0076530612
 11
547.6830846898
 21
1243.5076530612
  0
LINE
  5
2C1
100
AcDbEntity
  8
3
100
AcDbLine
 62
7
  6
BYLAYER
 10
547.6833427418
 20
1227.0076658697
 11
547.6833427418
 21
128.5076658697
  0
LINE
  5
2C2
100
AcDbEntity
  8
0
100
AcDbLine
 62
7
  6
BYLAYER
 10
515.4330846898
 20
1251.0076530612
 11
515.9330846898
 21
1250.5076530612
  0
LINE
  5
2C3
100
AcDbEntity
  8
0
100
AcDbLine
 62
7
  6
BYLAYER
 10
537.9330846898
 20
1251.0076530612
 11
538.4330846898
 21
1250.5076530612
  0
LINE
  5
2C4
100
AcDbEntity
  8
0
100
AcDbLine
 62
7
  6
BYLAYER
 10
536.1830866684
 20
1255.0076530612
 11
536.6830846898
 21
1254.5076552197
  0
LINE
  5
2C5
100
AcDbEntity
  8
3
100
AcDbLine
 62
7
  6
BYLAYER
 10
447.4414238748
 20
1152.1907306453
 11
492.4414238748
 21
1152.1907306453
  0
LINE
  5
2C6
100
AcDbEntity
  8
3
100
AcDbLine
 62
7
  6
BYLAYER
 10
488.1047091909
 20
1155.8382306453
 11
489.3493084527
 21
1155.8382306453
  0
LINE
  5
2C7
100
AcDbEntity
  8
3
100
AcDbLine
 62
7
  6
BYLAYER
 10
492.4414238748
 20
1157.1907306453
 11
489.4414238748
 21
1157.1907306453
  0
LINE
  5
2C8
100
AcDbEntity
  8
3
100
AcDbLine
 62
7
  6
BYLAYER
 10
488.0012242569
 20
1157.5141934649
 11
485.0012242569
 21
1157.5141934649
  0
LINE
  5
2C9
100
AcDbEntity
  8
3
100
AcDbLine
 62
7
  6
BYLAYER
 10
450.6414238748
 20
1158.9407306453
 11
464.1414238748
 21
1158.9407306453
  0
LINE
  5
2CA
100
AcDbEntity
  8
3
100
AcDbLine
 62
7
  6
BYLAYER
 10
480.7307688495
 20
1159.1907306453
 11
485.0012242569
 21
1159.1907306453
  0
LINE
  5
2CB
100
AcDbEntity
  8
3
100
AcDbLine
 62
7
  6
BYLAYER
 10
488.0012242569
 20
1159.1907306453
 11
488.1047091909
 21
1159.1907306453
  0
LINE
  5
2CC
100
AcDbEntity
  8
3
100
AcDbLine
 62
7
  6
BYLAYER
 10
489.3493084527
 20
1159.1907306453
 11
489.4414238748
 21
1159.1907306453
  0
LINE
  5
2CD
100
AcDbEntity
  8
3
100
AcDbLine
 62
7
  6
BYLAYER
 10
492.4414238748
 20
1159.1907306453
 11
492.6833254269
 21
1159.1907306453
  0
LINE
  5
2CE
100
AcDbEntity
  8
3
100
AcDbLine
 62
7
  6
BYLAYER
 10
488.0012242569
 20
1162.1907306453
 11
485.0012242569
 21
1162.1907306453
  0
LINE
  5
2CF
100
AcDbEntity
  8
3
100
AcDbLine
 62
7
  6
BYLAYER
 10
480.7307688495
 20
1165.1907306453
 11
485.0012242569
 21
1165.1907306453
  0
LINE
  5
2D0
100
AcDbEntity
  8
3
100
AcDbLine
 62
7
  6
BYLAYER
 10
488.0012242569
 20
1165.1907306453
 11
488.1047091909
 21
1165.1907306453
  0
LINE
  5
2D1
100
AcDbEntity
  8
3
100
AcDbLine
 62
7
  6
BYLAYER
 10
489.3493084527
 20
1165.1907306453
 11
489.4414238748
 21
1165.1907306453
  0
LINE
  5
2D2
100
AcDbEntity
  8
3
100
AcDbLine
 62
7
  6
BYLAYER
 10
492.4414238748
 20
1165.1907306453
 11
492.6833254269
 21
1165.1907306453
  0
LINE
  5
2D3
100
AcDbEntity
  8
3
100
AcDbLine
 62
7
  6
BYLAYER
 10
464.1414238748
 20
1165.4407306453
 11
450.6414238748
 21
1165.4407306453
  0
LINE
  5
2D4
100
AcDbEntity
  8
3
100
AcDbLine
 62
7
  6
BYLAYER
 10
488.0012242569
 20
1166.8672678257
 11
485.0012242569
 21
1166.8672678257
  0
LINE
  5
2D5
100
AcDbEntity
  8
3
100
AcDbLine
 62
7
  6
BYLAYER
 10
489.3493084527
 20
1168.5432306453
 11
488.1047091909
 21
1168.5432306453
  0
LINE
  5
2D6
100
AcDbEntity
  8
3
100
AcDbLine
 62
7
  6
BYLAYER
 10
488.1047091909
 20
1185.8382306453
 11
489.3493084527
 21
1185.8382306453
  0
LINE
  5
2D7
100
AcDbEntity
  8
0
100
AcDbLine
 62
7
  6
BYLAYER
 10
525.1692913898
 20
1244.5072870222
 11
525.1689639076
 21
1244.5072693732
  0
LINE
  5
2D8
100
AcDbEntity
  8
0
100
AcDbLine
 62
7
  6
BYLAYER
 10
525.1813530433
 20
1244.5076473261
 11
525.1692913898
 21
1244.5072870222
  0
LINE
  5
2D9
100
AcDbEntity
  8
0
100
AcDbLine
 62
7
  6
BYLAYER
 10
525.1724570518
 20
1244.5075965816
 11
525.1798906448
 21
1244.5076479556
  0
LINE
  5
2DA
100
AcDbEntity
  8
3
100
AcDbLine
 62
7
  6
BYLAYER
 10
488.0012242569
 20
1187.5141934649
 11
485.0012242569
 21
1187.5141934649
  0
LINE
  5
2DB
100
AcDbEntity
  8
3
100
AcDbLine
 62
7
  6
BYLAYER
 10
450.6414238748
 20
1188.9407306453
 11
464.1414238748
 21
1188.9407306453
  0
LINE
  5
2DC
100
AcDbEntity
  8
3
100
AcDbLine
 62
7
  6
BYLAYER
 10
480.7307688495
 20
1189.1907306453
 11
485.0012242569
 21
1189.1907306453
  0
LINE
  5
2DD
100
AcDbEntity
  8
3
100
AcDbLine
 62
7
  6
BYLAYER
 10
488.0012242569
 20
1189.1907306453
 11
488.1047091909
 21
1189.1907306453
  0
LINE
  5
2DE
100
AcDbEntity
  8
3
100
AcDbLine
 62
7
  6
BYLAYER
 10
489.3493084527
 20
1189.1907306453
 11
489.4414238748
 21
1189.1907306453
  0
LINE
  5
2DF
100
AcDbEntity
  8
3
100
AcDbLine
 62
7
  6
BYLAYER
 10
492.4414238748
 20
1189.1907306453
 11
492.6833254269
 21
1189.1907306453
  0
LINE
  5
2E0
100
AcDbEntity
  8
3
100
AcDbLine
 62
7
  6
BYLAYER
 10
488.0012242569
 20
1192.1907306453
 11
485.0012242569
 21
1192.1907306453
  0
LINE
  5
2E1
100
AcDbEntity
  8
3
100
AcDbLine
 62
7
  6
BYLAYER
 10
480.7307688495
 20
1195.1907306453
 11
485.0012242569
 21
1195.1907306453
  0
LINE
  5
2E2
100
AcDbEntity
  8
3
100
AcDbLine
 62
7
  6
BYLAYER
 10
488.0012242569
 20
1195.1907306453
 11
488.1047091909
 21
1195.1907306453
  0
LINE
  5
2E3
100
AcDbEntity
  8
3
100
AcDbLine
 62
7
  6
BYLAYER
 10
489.3493084527
 20
1195.1907306453
 11
489.4414238748
 21
1195.1907306453
  0
LINE
  5
2E4
100
AcDbEntity
  8
3
100
AcDbLine
 62
7
  6
BYLAYER
 10
492.4414238748
 20
1195.1907306453
 11
492.6833254269
 21
1195.1907306453
  0
LINE
  5
2E5
100
AcDbEntity
  8
3
100
AcDbLine
 62
7
  6
BYLAYER
 10
464.1414238748
 20
1195.4407306453
 11
450.6414238748
 21
1195.4407306453
  0
LINE
  5
2E6
100
AcDbEntity
  8
3
100
AcDbLine
 62
7
  6
BYLAYER
 10
488.0012242569
 20
1196.8672678257
 11
485.0012242569
 21
1196.8672678257
  0
LINE
  5
2E7
100
AcDbEntity
  8
3
100
AcDbLine
 62
7
  6
BYLAYER
 10
489.4414238748
 20
1197.1907306453
 11
492.4414238748
 21
1197.1907306453
  0
LINE
  5
2E8
100
AcDbEntity
  8
3
100
AcDbLine
 62
7
  6
BYLAYER
 10
489.3493084527
 20
1198.5432306453
 11
488.1047091909
 21
1198.5432306453
  0
LINE
  5
2E9
100
AcDbEntity
  8
3
100
AcDbLine
 62
7
  6
BYLAYER
 10
447.4414238748
 20
1202.1907306453
 11
492.4414238748
 21
1202.1907306453
  0
LINE
  5
2EA
100
AcDbEntity
  8
0
100
AcDbLine
 62
7
  6
BYLAYER
 10
492.6830846898
 20
1227.0076530612
 11
547.6830846898
 21
1227.0076530612
  0
LINE
  5
2EB
100
AcDbEntity
  8
3
100
AcDbLine
 62
7
  6
BYLAYER
 10
492.6833254269
 20
1227.0076658697
 11
547.6833427418
 21
1227.0076658697
  0
LINE
  5
2EC
100
AcDbEntity
  8
0
100
AcDbLine
 62
7
  6
BYLAYER
 10
492.6830846898
 20
1241.5076530612
 11
500.1830846898
 21
1241.5076530612
  0
LINE
  5
2ED
100
AcDbEntity
  8
0
100
AcDbLine
 62
7
  6
BYLAYER
 10
534.1830846898
 20
1241.5076530612
 11
542.5951663816
 21
1241.5076530612
  0
LINE
  5
2EE
100
AcDbEntity
  8
0
100
AcDbLine
 62
7
  6
BYLAYER
 10
493.1830846898
 20
1242.0076530612
 11
500.1830846898
 21
1242.0076530612
  0
LINE
  5
2EF
100
AcDbEntity
  8
0
100
AcDbLine
 62
7
  6
BYLAYER
 10
534.1830846898
 20
1242.0076530612
 11
540.7328381712
 21
1242.0076530612
  0
LINE
  5
2F0
100
AcDbEntity
  8
0
100
AcDbLine
 62
7
  6
BYLAYER
 10
541.0953999193
 20
1242.5076530612
 11
540.4830846898
 21
1242.5076530612
  0
LINE
  5
2F1
100
AcDbEntity
  8
0
100
AcDbLine
 62
7
  6
BYLAYER
 10
533.8830846898
 20
1242.5076530612
 11
532.6830846898
 21
1242.5076531184
  0
LINE
  5
2F2
100
AcDbEntity
  8
0
100
AcDbLine
 62
7
  6
BYLAYER
 10
501.6830846898
 20
1242.5076531301
 11
500.4830846898
 21
1242.5076530612
  0
LINE
  5
2F3
100
AcDbEntity
  8
0
100
AcDbLine
 62
7
  6
BYLAYER
 10
493.8830846898
 20
1242.5076530612
 11
492.6830846898
 21
1242.5076531302
  0
LINE
  5
2F4
100
AcDbEntity
  8
0
100
AcDbLine
 62
7
  6
BYLAYER
 10
492.6830846898
 20
1243.5076530612
 11
493.8830846898
 21
1243.5076530612
  0
LINE
  5
2F5
100
AcDbEntity
  8
0
100
AcDbLine
 62
7
  6
BYLAYER
 10
500.4830846898
 20
1243.5076530612
 11
516.1830846898
 21
1243.5076530543
  0
LINE
  5
2F6
100
AcDbEntity
  8
0
100
AcDbLine
 62
7
  6
BYLAYER
 10
524.1830846898
 20
1243.5076530608
 11
533.8830846898
 21
1243.5076530612
  0
LINE
  5
2F7
100
AcDbEntity
  8
0
100
AcDbLine
 62
7
  6
BYLAYER
 10
540.4830846898
 20
1243.5076530612
 11
547.6830846898
 21
1243.5076530612
  0
LINE
  5
2F8
100
AcDbEntity
  8
0
100
AcDbLine
 62
7
  6
BYLAYER
 10
493.8830846898
 20
1243.6076530612
 11
500.4830846898
 21
1243.6076530612
  0
LINE
  5
2F9
100
AcDbEntity
  8
0
100
AcDbLine
 62
7
  6
BYLAYER
 10
533.8830846898
 20
1243.6076530612
 11
540.4830846898
 21
1243.6076530612
  0
LINE
  5
2FA
100
AcDbEntity
  8
0
100
AcDbLine
 62
7
  6
BYLAYER
 10
516.0391776501
 20
1244.0076530612
 11
524.3267763834
 21
1244.0076530612
  0
LINE
  5
2FB
100
AcDbEntity
  8
0
100
AcDbLine
 62
7
  6
BYLAYER
 10
494.5098794863
 20
1244.5076530612
 11
493.6830846898
 21
1244.5076530612
  0
LINE
  5
2FC
100
AcDbEntity
  8
0
100
AcDbLine
 62
7
  6
BYLAYER
 10
539.8562898933
 20
1244.5076530612
 11
546.6830846898
 21
1244.5076530612
  0
LINE
  5
2FD
100
AcDbEntity
  8
0
100
AcDbLine
 62
7
  6
BYLAYER
 10
494.8831772889
 20
1244.6076530612
 11
499.4830005912
 21
1244.6076530612
  0
LINE
  5
2FE
100
AcDbEntity
  8
0
100
AcDbLine
 62
7
  6
BYLAYER
 10
534.8831772889
 20
1244.6076530612
 11
539.4830005912
 21
1244.6076530612
  0
LINE
  5
2FF
100
AcDbEntity
  8
0
100
AcDbLine
 62
7
  6
BYLAYER
 10
538.433020393
 20
1246.0076530612
 11
522.9331489866
 21
1246.0076530612
  0
LINE
  5
300
100
AcDbEntity
  8
0
100
AcDbLine
 62
7
  6
BYLAYER
 10
515.933020393
 20
1246.0076530612
 11
500.4331489866
 21
1246.0076530612
  0
LINE
  5
301
100
AcDbEntity
  8
0
100
AcDbLine
 62
7
  6
BYLAYER
 10
538.4330846898
 20
1249.0076530612
 11
522.9330846898
 21
1249.0076530612
  0
LINE
  5
302
100
AcDbEntity
  8
0
100
AcDbLine
 62
7
  6
BYLAYER
 10
515.9330846898
 20
1249.0076530612
 11
500.4330846898
 21
1249.0076530612
  0
LINE
  5
303
100
AcDbEntity
  8
0
100
AcDbLine
 62
7
  6
BYLAYER
 10
500.4330846898
 20
1250.5076530612
 11
515.9330846898
 21
1250.5076530612
  0
LINE
  5
304
100
AcDbEntity
  8
0
100
AcDbLine
 62
7
  6
BYLAYER
 10
522.9330846898
 20
1250.5076530612
 11
538.4330846898
 21
1250.5076530612
  0
LINE
  5
305
100
AcDbEntity
  8
0
100
AcDbLine
 62
7
  6
BYLAYER
 10
500.9330846898
 20
1251.0076530612
 11
515.4330846898
 21
1251.0076530612
  0
LINE
  5
306
100
AcDbEntity
  8
0
100
AcDbLine
 62
7
  6
BYLAYER
 10
523.4330846898
 20
1251.0076530612
 11
537.9330846898
 21
1251.0076530612
  0
LINE
  5
307
100
AcDbEntity
  8
0
100
AcDbLine
 62
7
  6
BYLAYER
 10
504.0593446898
 20
1252.2076530612
 11
512.3093446898
 21
1252.2076530612
  0
LINE
  5
308
100
AcDbEntity
  8
0
100
AcDbLine
 62
7
  6
BYLAYER
 10
526.5586646898
 20
1252.2076530612
 11
534.7488368879
 21
1252.2076530612
  0
LINE
  5
309
100
AcDbEntity
  8
0
100
AcDbLine
 62
7
  6
BYLAYER
 10
504.359424811
 20
1252.5076530612
 11
512.0093706618
 21
1252.5076530612
  0
LINE
  5
30A
100
AcDbEntity
  8
0
100
AcDbLine
 62
7
  6
BYLAYER
 10
526.8586659994
 20
1252.5076530612
 11
534.4440669289
 21
1252.5076530612
  0
LINE
  5
30B
100
AcDbEntity
  8
0
100
AcDbLine
 62
7
  6
BYLAYER
 10
524.6830846898
 20
1254.5076552197
 11
536.6830846898
 21
1254.5076552197
  0
LINE
  5
30C
100
AcDbEntity
  8
0
100
AcDbLine
 62
7
  6
BYLAYER
 10
525.1830827112
 20
1255.0076530612
 11
536.1830866684
 21
1255.0076530612
  0
LINE
  5
30D
100
AcDbEntity
  8
0
100
AcDbLine
 62
7
  6
BYLAYER
 10
499.8562898933
 20
1244.5076530612
 11
534.5098794863
 21
1244.5076530612
  0
LINE
  5
30E
100
AcDbEntity
  8
0
100
AcDbLine
 62
7
  6
BYLAYER
 10
515.1847276876
 20
1244.5076478984
 11
515.1830846898
 21
1244.5076530612
  0
LINE
  5
30F
100
AcDbEntity
  8
0
100
AcDbLine
 62
7
  6
BYLAYER
 10
515.1923164668
 20
1244.5076038338
 11
515.1856834123
 21
1244.5076494679
  0
LINE
  5
310
100
AcDbEntity
  8
0
100
AcDbLine
 62
7
  6
BYLAYER
 10
515.1880914521
 20
1244.5076050389
 11
515.1848167576
 21
1244.5076473232
  0
LINE
  5
311
100
AcDbEntity
  8
0
100
AcDbLine
 62
7
  6
BYLAYER
 10
515.1967996112
 20
1244.5072911761
 11
515.1880914521
 21
1244.5076050389
  0
ARC
  5
312
100
AcDbEntity
  8
3
100
AcDbCircle
 62
7
  6
BYLAYER
 10
447.4414238748
 20
200.8558281845
 40
5.0
100
AcDbArc
 50
90.0
 51
180.0
  0
ARC
  5
313
100
AcDbEntity
  8
3
100
AcDbCircle
 62
7
  6
BYLAYER
 10
447.4414238748
 20
160.8558281845
 40
5.0
100
AcDbArc
 50
180.0
 51
270.0
  0
ARC
  5
314
100
AcDbEntity
  8
3
100
AcDbCircle
 62
7
  6
BYLAYER
 10
450.6414238748
 20
165.8558281845
 40
3.25
100
AcDbArc
 50
90.0
 51
270.0
  0
ARC
  5
315
100
AcDbEntity
  8
3
100
AcDbCircle
 62
7
  6
BYLAYER
 10
464.1414238748
 20
165.8558281845
 40
3.25
100
AcDbArc
 50
270.0
 51
90.0
  0
ARC
  5
316
100
AcDbEntity
  8
3
100
AcDbCircle
 62
7
  6
BYLAYER
 10
450.6414238748
 20
195.8558281845
 40
3.25
100
AcDbArc
 50
90.0
 51
270.0
  0
ARC
  5
317
100
AcDbEntity
  8
3
100
AcDbCircle
 62
7
  6
BYLAYER
 10
464.1414238748
 20
195.8558281845
 40
3.25
100
AcDbArc
 50
270.0
 51
90.0
  0
ARC
  5
318
100
AcDbEntity
  8
0
100
AcDbCircle
 62
7
  6
BYLAYER
 10
494.8833308686
 20
111.9076530612
 40
1.0
100
AcDbArc
 50
180.0
 51
270.0
  0
ARC
  5
319
100
AcDbEntity
  8
0
100
AcDbCircle
 62
7
  6
BYLAYER
 10
493.6828439526
 20
112.0075429227
 40
1.0
100
AcDbArc
 50
180.0
 51
270.0
  0
ARC
  5
31A
100
AcDbEntity
  8
0
100
AcDbCircle
 62
7
  6
BYLAYER
 10
493.1828439526
 20
114.0075429227
 40
0.5
100
AcDbArc
 50
180.0
 51
270.0
  0
ARC
  5
31B
100
AcDbEntity
  8
3
100
AcDbCircle
 62
7
  6
BYLAYER
 10
447.4414238748
 20
1197.1907306453
 40
5.0
100
AcDbArc
 50
90.0
 51
180.0
  0
ARC
  5
31C
100
AcDbEntity
  8
3
100
AcDbCircle
 62
7
  6
BYLAYER
 10
447.4414238748
 20
1157.1907306453
 40
5.0
100
AcDbArc
 50
180.0
 51
270.0
  0
ARC
  5
31D
100
AcDbEntity
  8
3
100
AcDbCircle
 62
7
  6
BYLAYER
 10
450.6414238748
 20
1162.1907306453
 40
3.25
100
AcDbArc
 50
90.0
 51
270.0
  0
ARC
  5
31E
100
AcDbEntity
  8
3
100
AcDbCircle
 62
7
  6
BYLAYER
 10
464.1414238748
 20
1162.1907306453
 40
3.25
100
AcDbArc
 50
270.0
 51
90.0
  0
ARC
  5
31F
100
AcDbEntity
  8
3
100
AcDbCircle
 62
7
  6
BYLAYER
 10
450.6414238748
 20
1192.1907306453
 40
3.25
100
AcDbArc
 50
90.0
 51
270.0
  0
ARC
  5
320
100
AcDbEntity
  8
3
100
AcDbCircle
 62
7
  6
BYLAYER
 10
464.1414238748
 20
1192.1907306453
 40
3.25
100
AcDbArc
 50
270.0
 51
90.0
  0
ARC
  5
321
100
AcDbEntity
  8
0
100
AcDbCircle
 62
7
  6
BYLAYER
 10
494.8830846898
 20
1243.6076530612
 40
1.0
100
AcDbArc
 50
90.0
 51
180.0
  0
ARC
  5
322
100
AcDbEntity
  8
0
100
AcDbCircle
 62
7
  6
BYLAYER
 10
493.6830846898
 20
1243.5076530612
 40
1.0
100
AcDbArc
 50
90.0
 51
180.0
  0
ARC
  5
323
100
AcDbEntity
  8
0
100
AcDbCircle
 62
7
  6
BYLAYER
 10
493.1830846898
 20
1241.5076530612
 40
0.5
100
AcDbArc
 50
90.0
 51
180.0
  0
ARC
  5
324
100
AcDbEntity
  8
0
100
AcDbCircle
 62
7
  6
BYLAYER
 10
520.7056955037
 20
99.6278667498
 40
25.59478887
100
AcDbArc
 50
33.076558025
 51
33.6274008421
  0
ARC
  5
325
100
AcDbEntity
  8
0
100
AcDbCircle
 62
7
  6
BYLAYER
 10
499.4833308686
 20
111.9076530612
 40
1.0
100
AcDbArc
 50
270.0
 51
360.0
  0
ARC
  5
326
100
AcDbEntity
  8
0
100
AcDbCircle
 62
7
  6
BYLAYER
 10
534.8833427418
 20
111.9076530612
 40
1.0
100
AcDbArc
 50
180.0
 51
270.0
  0
ARC
  5
327
100
AcDbEntity
  8
0
100
AcDbCircle
 62
7
  6
BYLAYER
 10
539.4833427418
 20
111.9076530612
 40
1.0
100
AcDbArc
 50
270.0
 51
360.0
  0
ARC
  5
328
100
AcDbEntity
  8
0
100
AcDbCircle
 62
7
  6
BYLAYER
 10
525.1828439526
 20
112.0075429227
 40
1.0
100
AcDbArc
 50
180.0
 51
238.6793514811
  0
ARC
  5
329
100
AcDbEntity
  8
0
100
AcDbCircle
 62
7
  6
BYLAYER
 10
546.6828439525
 20
112.0075429227
 40
1.0
100
AcDbArc
 50
270.0000000071
 51
0.0000002299
  0
ARC
  5
32A
100
AcDbEntity
  8
0
100
AcDbCircle
 62
7
  6
BYLAYER
 10
541.6828439526
 20
112.0075429228
 40
1.0
100
AcDbArc
 50
180.0000000006
 51
270.0
  0
ARC
  5
32B
100
AcDbEntity
  8
0
100
AcDbCircle
 62
7
  6
BYLAYER
 10
532.6828439526
 20
112.0075429227
 40
1.0
100
AcDbArc
 50
270.0
 51
360.0
  0
ARC
  5
32C
100
AcDbEntity
  8
0
100
AcDbCircle
 62
7
  6
BYLAYER
 10
515.1828439488
 20
112.0075429258
 40
1.0
100
AcDbArc
 50
270.6674248376
 51
360.0
  0
ARC
  5
32D
100
AcDbEntity
  8
0
100
AcDbCircle
 62
7
  6
BYLAYER
 10
501.6828439526
 20
112.0075429227
 40
1.0
100
AcDbArc
 50
180.0
 51
270.0
  0
ARC
  5
32E
100
AcDbEntity
  8
0
100
AcDbCircle
 62
7
  6
BYLAYER
 10
500.1828439526
 20
113.0075429227
 40
0.5
100
AcDbArc
 50
0.0
 51
90.0
  0
ARC
  5
32F
100
AcDbEntity
  8
0
100
AcDbCircle
 62
7
  6
BYLAYER
 10
534.1828439526
 20
113.0075429227
 40
0.5
100
AcDbArc
 50
90.0
 51
180.0
  0
ARC
  5
330
100
AcDbEntity
  8
0
100
AcDbCircle
 62
7
  6
BYLAYER
 10
540.1828439526
 20
113.0075429227
 40
0.5
100
AcDbArc
 50
0.0
 51
90.0
  0
ARC
  5
331
100
AcDbEntity
  8
0
100
AcDbCircle
 62
7
  6
BYLAYER
 10
525.18275714
 20
111.2619145665
 40
0.2543699319
100
AcDbArc
 50
265.0225805456
 51
266.915923358
  0
ARC
  5
332
100
AcDbEntity
  8
0
100
AcDbCircle
 62
7
  6
BYLAYER
 10
519.2486005397
 20
1256.8465134848
 40
27.3394365057
100
AcDbArc
 50
326.3901752744
 51
326.9058661851
  0
ARC
  5
333
100
AcDbEntity
  8
0
100
AcDbCircle
 62
7
  6
BYLAYER
 10
499.4830846898
 20
1243.6076530612
 40
1.0
100
AcDbArc
 50
0.0
 51
90.0
  0
ARC
  5
334
100
AcDbEntity
  8
0
100
AcDbCircle
 62
7
  6
BYLAYER
 10
534.8830846898
 20
1243.6076530612
 40
1.0
100
AcDbArc
 50
90.0
 51
180.0
  0
ARC
  5
335
100
AcDbEntity
  8
0
100
AcDbCircle
 62
7
  6
BYLAYER
 10
539.4830846898
 20
1243.6076530612
 40
1.0
100
AcDbArc
 50
0.0
 51
90.0
  0
ARC
  5
336
100
AcDbEntity
  8
0
100
AcDbCircle
 62
7
  6
BYLAYER
 10
515.1830846898
 20
1243.5076530612
 40
1.0
100
AcDbArc
 50
0.0
 51
89.8213671908
  0
ARC
  5
337
100
AcDbEntity
  8
0
100
AcDbCircle
 62
7
  6
BYLAYER
 10
501.6830846898
 20
1243.5076530612
 40
1.0
100
AcDbArc
 50
90.0
 51
180.0
  0
ARC
  5
338
100
AcDbEntity
  8
0
100
AcDbCircle
 62
7
  6
BYLAYER
 10
525.1830846936
 20
1243.5076530566
 40
1.0
100
AcDbArc
 50
90.608930484
 51
180.0
  0
ARC
  5
339
100
AcDbEntity
  8
0
100
AcDbCircle
 62
7
  6
BYLAYER
 10
546.6830846896
 20
1243.5076530612
 40
1.0
100
AcDbArc
 50
0.0000000008
 51
89.9999999867
  0
ARC
  5
33A
100
AcDbEntity
  8
0
100
AcDbCircle
 62
7
  6
BYLAYER
 10
532.6830846898
 20
1243.5076530612
 40
1.0
100
AcDbArc
 50
0.0
 51
90.0
  0
ARC
  5
33B
100
AcDbEntity
  8
0
100
AcDbCircle
 62
7
  6
BYLAYER
 10
541.6830846898
 20
1243.5076530612
 40
1.0
100
AcDbArc
 50
90.0
 51
179.9999999997
  0
ARC
  5
33C
100
AcDbEntity
  8
0
100
AcDbCircle
 62
7
  6
BYLAYER
 10
540.1830846898
 20
1242.5076530612
 40
0.5
100
AcDbArc
 50
270.0
 51
360.0
  0
ARC
  5
33D
100
AcDbEntity
  8
0
100
AcDbCircle
 62
7
  6
BYLAYER
 10
500.1830846898
 20
1242.5076530612
 40
0.5
100
AcDbArc
 50
269.9999999999
 51
360.0
  0
ARC
  5
33E
100
AcDbEntity
  8
0
100
AcDbCircle
 62
7
  6
BYLAYER
 10
534.1830846898
 20
1242.5076530612
 40
0.5
100
AcDbArc
 50
180.0
 51
269.9999999999
  0
ARC
  5
33F
100
AcDbEntity
  8
0
100
AcDbCircle
 62
7
  6
BYLAYER
 10
534.4469317101
 20
1252.2038618779
 40
0.3030873911
100
AcDbArc
 50
36.3288858515
 51
54.0937663543
  0
ARC
  5
340
100
AcDbEntity
  8
0
100
AcDbCircle
 62
7
  6
BYLAYER
 10
526.8586646898
 20
1252.2076530612
 40
0.3
100
AcDbArc
 50
90.0
 51
180.0
  0
ARC
  5
341
100
AcDbEntity
  8
0
100
AcDbCircle
 62
7
  6
BYLAYER
 10
504.3593446898
 20
1252.2076530612
 40
0.3
100
AcDbArc
 50
90.0
 51
180.0
  0
ARC
  5
342
100
AcDbEntity
  8
0
100
AcDbCircle
 62
7
  6
BYLAYER
 10
512.0093446898
 20
1252.2076530612
 40
0.3
100
AcDbArc
 50
0.0
 51
90.0
  0
ARC
  5
343
100
AcDbEntity
  8
0
100
AcDbCircle
 62
7
  6
BYLAYER
 10
515.1831722724
 20
1244.2533092355
 40
0.2543420881
100
AcDbArc
 50
84.9226211124
 51
86.9113986973
  0
SPLINE
  5
344
100
AcDbEntity
  8
0
100
AcDbSpline
 62
7
  6
BYLAYER
 70
0
 71
3
 72
8
 73
4
 74
0
 42
0.0000001
 43
0.0000001
 44
0.0000000001
 40
0.0
 40
0.0
 40
0.0
 40
0.0
 40
1.0
 40
1.0
 40
1.0
 40
1.0
 10
534.7488368879
 20
1252.2076530612
 30
0.0
 10
534.7488368879
 20
1252.2693201803
 30
0.0
 10
534.7276041333
 20
1252.3337089881
 30
0.0
 10
534.6911079185
 20
1252.3834167327
 30
0.0
  0
SPLINE
  5
345
100
AcDbEntity
  8
0
100
AcDbSpline
 62
7
  6
BYLAYER
 70
0
 71
3
 72
8
 73
4
 74
0
 42
0.0000001
 43
0.0000001
 44
0.0000000001
 40
0.0
 40
0.0
 40
0.0
 40
0.0
 40
1.0
 40
1.0
 40
1.0
 40
1.0
 10
534.6246294872
 20
1252.449398237
 30
0.0
 10
534.573401725
 20
1252.4864835882
 30
0.0
 10
534.5073093742
 20
1252.5076530612
 30
0.0
 10
534.4440669289
 20
1252.5076530612
 30
0.0
  0
SPLINE
  5
346
100
AcDbEntity
  8
0
100
AcDbSpline
 62
7
  6
BYLAYER
 70
0
 71
3
 72
12
 73
8
 74
0
 42
0.0000001
 43
0.0000001
 44
0.0000000001
 40
0.0
 40
0.0
 40
0.0
 40
0.0
 40
0.1249612752
 40
0.2501494132
 40
0.4995021241
 40
0.7494103699
 40
1.0
 40
1.0
 40
1.0
 40
1.0
 10
501.6830846898
 20
1242.5076530612
 30
0.0
 10
501.6830844695
 20
1242.4246446075
 30
0.0
 10
501.6509379862
 20
1242.257382195
 30
0.0
 10
501.4880487363
 20
1241.9641461887
 30
0.0
 10
501.1632680549
 20
1241.6855509157
 30
0.0
 10
500.6848817154
 20
1241.514572825
 30
0.0
 10
500.3495447206
 20
1241.5076530199
 30
0.0
 10
500.1830846898
 20
1241.5076530612
 30
0.0
  0
SPLINE
  5
347
100
AcDbEntity
  8
0
100
AcDbSpline
 62
7
  6
BYLAYER
 70
0
 71
3
 72
16
 73
12
 74
0
 42
0.0000001
 43
0.0000001
 44
0.0000000001
 40
0.0
 40
0.0
 40
0.0
 40
0.0
 40
0.2636273647
 40
0.4178764038
 40
0.5741876959
 40
0.7240052304
 40
0.8563237188
 40
0.9120390276
 40
0.957262702
 40
0.9883504454
 40
1.0
 40
1.0
 40
1.0
 40
1.0
 10
493.6830847015
 20
1242.5076530612
 30
0.0
 10
493.6830845465
 20
1242.4443590465
 30
0.0
 10
493.6135383702
 20
1242.3544334623
 30
0.0
 10
493.5171709209
 20
1242.260179565
 30
0.0
 10
493.4323857881
 20
1242.1881144633
 30
0.0
 10
493.3504556804
 20
1242.1222982146
 30
0.0
 10
493.2853261012
 20
1242.0738113974
 30
0.0
 10
493.23959396
 20
1242.0415587214
 30
0.0
 10
493.2122957516
 20
1242.025146533
 30
0.0
 10
493.1955391246
 20
1242.0126783688
 30
0.0
 10
493.1848228967
 20
1242.0098442918
 30
0.0
 10
493.1830846981
 20
1242.0076530641
 30
0.0
  0
SPLINE
  5
348
100
AcDbEntity
  8
0
100
AcDbSpline
 62
7
  6
BYLAYER
 70
0
 71
3
 72
11
 73
7
 74
0
 42
0.0000001
 43
0.0000001
 44
0.0000000001
 40
0.0
 40
0.0
 40
0.0
 40
0.0
 40
0.1629735594
 40
0.3807491265
 40
0.6664946527
 40
1.0
 40
1.0
 40
1.0
 40
1.0
 10
525.1689696474
 20
1244.5072642136
 30
0.0
 10
525.104421501
 20
1244.5036985091
 30
0.0
 10
524.958823413
 20
1244.4300269765
 30
0.0
 10
524.8095004559
 20
1244.2052200284
 30
0.0
 10
524.7070245426
 20
1243.8865376309
 30
0.0
 10
524.6832791034
 20
1243.6399441492
 30
0.0
 10
524.6830846898
 20
1243.5076530612
 30
0.0
  0
SPLINE
  5
349
100
AcDbEntity
  8
0
100
AcDbSpline
 62
7
  6
BYLAYER
 70
0
 71
3
 72
10
 73
6
 74
0
 42
0.0000001
 43
0.0000001
 44
0.0000000001
 40
0.0
 40
0.0
 40
0.0
 40
0.0
 40
0.5192781938
 40
0.770670408
 40
1.0
 40
1.0
 40
1.0
 40
1.0
 10
542.0176034838
 20
1241.7131960083
 30
0.0
 10
541.8018891939
 20
1241.7896991964
 30
0.0
 10
541.4760855452
 20
1241.8887421854
 30
0.0
 10
541.0454936896
 20
1241.9826380596
 30
0.0
 10
540.8339183378
 20
1242.0076528331
 30
0.0
 10
540.7328383655
 20
1242.0076530612
 30
0.0
  0
SPLINE
  5
34A
100
AcDbEntity
  8
0
100
AcDbSpline
 62
7
  6
BYLAYER
 70
0
 71
3
 72
9
 73
5
 74
0
 42
0.0000001
 43
0.0000001
 44
0.0000000001
 40
0.0
 40
0.0
 40
0.0
 40
0.0
 40
0.2566268573
 40
1.0
 40
1.0
 40
1.0
 40
1.0
 10
542.0297465224
 20
1241.5076530612
 30
0.0
 10
542.0297465224
 20
1241.5252723169
 30
0.0
 10
542.028741762
 20
1241.5939218674
 30
0.0
 10
542.0238783054
 20
1241.6625451261
 30
0.0
 10
542.0176034136
 20
1241.7131957652
 30
0.0
  0
SPLINE
  5
34B
100
AcDbEntity
  8
0
100
AcDbSpline
 62
7
  6
BYLAYER
 70
0
 71
3
 72
11
 73
7
 74
0
 42
0.0000001
 43
0.0000001
 44
0.0000000001
 40
0.0
 40
0.0
 40
0.0
 40
0.0
 40
0.2853926475
 40
0.5514859482
 40
0.7876080354
 40
1.0
 40
1.0
 40
1.0
 40
1.0
 10
541.0953998009
 20
1242.5076530612
 30
0.0
 10
541.0953998009
 20
1242.4432124638
 30
0.0
 10
541.0780500473
 20
1242.3178743815
 30
0.0
 10
541.0018555524
 20
1242.1539277637
 30
0.0
 10
540.8833137115
 20
1242.0376699026
 30
0.0
 10
540.7807954862
 20
1242.0076530612
 30
0.0
 10
540.7328381712
 20
1242.0076530612
 30
0.0
  0
SPLINE
  5
34C
100
AcDbEntity
  8
0
100
AcDbSpline
 62
7
  6
BYLAYER
 70
0
 71
3
 72
12
 73
8
 74
0
 42
0.0000001
 43
0.0000001
 44
0.0000000001
 40
0.0
 40
0.0
 40
0.0
 40
0.0
 40
0.1249607169
 40
0.2501491118
 40
0.4995020359
 40
0.7494105011
 40
1.0
 40
1.0
 40
1.0
 40
1.0
 10
532.6830846898
 20
1242.5076530612
 30
0.0
 10
532.6830848255
 20
1242.4246449789
 30
0.0
 10
532.715231252
 20
1242.2573827786
 30
0.0
 10
532.8781201465
 20
1241.9641466434
 30
0.0
 10
533.2029011478
 20
1241.6855509436
 30
0.0
 10
533.6812877056
 20
1241.5145728385
 30
0.0
 10
534.0166247474
 20
1241.5076530535
 30
0.0
 10
534.1830846898
 20
1241.5076530612
 30
0.0
  0
SPLINE
  5
34D
100
AcDbEntity
  8
0
100
AcDbSpline
 62
7
  6
BYLAYER
 70
0
 71
3
 72
12
 73
8
 74
0
 42
0.0000001
 43
0.0000001
 44
0.0000000001
 40
0.0
 40
0.0
 40
0.0
 40
0.0
 40
0.1204256772
 40
0.2168040679
 40
0.3384901846
 40
0.6444154225
 40
1.0
 40
1.0
 40
1.0
 40
1.0
 10
545.9578058177
 20
1244.5076530596
 30
0.0
 10
546.0010763656
 20
1244.5076530596
 30
0.0
 10
546.0659718972
 20
1244.4390125872
 30
0.0
 10
546.115571793
 20
1244.332467979
 30
0.0
 10
546.1747955639
 20
1244.1513706903
 30
0.0
 10
546.2199356496
 20
1243.8734736408
 30
0.0
 10
546.2325269456
 20
1243.6354193287
 30
0.0
 10
546.2325269456
 20
1243.5076530596
 30
0.0
  0
SPLINE
  5
34E
100
AcDbEntity
  8
0
100
AcDbSpline
 62
7
  6
BYLAYER
 70
0
 71
3
 72
9
 73
5
 74
0
 42
0.0000001
 43
0.0000001
 44
0.0000000001
 40
0.0
 40
0.0
 40
0.0
 40
0.0
 40
0.246955164
 40
1.0
 40
1.0
 40
1.0
 40
1.0
 10
542.5951663816
 20
1241.5076530612
 30
0.0
 10
542.547801379
 20
1241.5250691951
 30
0.0
 10
542.3558683852
 20
1241.595214365
 30
0.0
 10
542.1633040281
 20
1241.6636730147
 30
0.0
 10
542.0175969402
 20
1241.7131718473
 30
0.0
  0
SPLINE
  5
34F
100
AcDbEntity
  8
0
100
AcDbSpline
 62
7
  6
BYLAYER
 70
0
 71
3
 72
9
 73
5
 74
0
 42
0.0000001
 43
0.0000001
 44
0.0000000001
 40
0.0
 40
0.0
 40
0.0
 40
0.0
 40
0.2520685873
 40
1.0
 40
1.0
 40
1.0
 40
1.0
 10
542.1529310031
 20
1241.9187892856
 30
0.0
 10
542.1912161976
 20
1241.8854910434
 30
0.0
 10
542.3417354039
 20
1241.7518211199
 30
0.0
 10
542.4876912099
 20
1241.6130834052
 30
0.0
 10
542.5951663816
 20
1241.5076530612
 30
0.0
  0
SPLINE
  5
350
100
AcDbEntity
  8
0
100
AcDbSpline
 62
7
  6
BYLAYER
 70
0
 71
3
 72
11
 73
7
 74
0
 42
0.0000001
 43
0.0000001
 44
0.0000000001
 40
0.0
 40
0.0
 40
0.0
 40
0.0
 40
0.1004118823
 40
0.212106958
 40
0.4601412144
 40
1.0
 40
1.0
 40
1.0
 40
1.0
 10
541.0953999193
 20
1242.5076530612
 30
0.0
 10
541.1364401535
 20
1242.5092389657
 30
0.0
 10
541.2231505641
 20
1242.4932965993
 30
0.0
 10
541.4018469487
 20
1242.4343278761
 30
0.0
 10
541.7268546656
 20
1242.2571016036
 30
0.0
 10
541.9862949357
 20
1242.0636746037
 30
0.0
 10
542.152886824
 20
1241.9187384693
 30
0.0
  0
SPLINE
  5
351
100
AcDbEntity
  8
0
100
AcDbSpline
 62
7
  6
BYLAYER
 70
0
 71
3
 72
12
 73
8
 74
0
 42
0.0000001
 43
0.0000001
 44
0.0000000001
 40
0.0
 40
0.0
 40
0.0
 40
0.0
 40
0.3555845775
 40
0.6615098154
 40
0.7831959321
 40
0.8795743228
 40
1.0
 40
1.0
 40
1.0
 40
1.0
 10
542.5951663816
 20
1243.5076530597
 30
0.0
 10
542.5951663816
 20
1243.6354193288
 30
0.0
 10
542.5825750856
 20
1243.8734736408
 30
0.0
 10
542.5374349999
 20
1244.1513706904
 30
0.0
 10
542.478211229
 20
1244.3324679791
 30
0.0
 10
542.4286113333
 20
1244.4390125873
 30
0.0
 10
542.3637158016
 20
1244.5076530597
 30
0.0
 10
542.3204452537
 20
1244.5076530597
 30
0.0
  0
SPLINE
  5
352
100
AcDbEntity
  8
0
100
AcDbSpline
 62
7
  6
BYLAYER
 70
0
 71
3
 72
11
 73
7
 74
0
 42
0.0000001
 43
0.0000001
 44
0.0000000001
 40
0.0
 40
0.0
 40
0.0
 40
0.0
 40
0.3358815198
 40
0.4884203898
 40
0.6252036679
 40
1.0
 40
1.0
 40
1.0
 40
1.0
 10
515.6830846898
 20
1243.5076530612
 30
0.0
 10
515.6828904208
 20
1243.6385056543
 30
0.0
 10
515.6650162344
 20
1243.8291732546
 30
0.0
 10
515.6010118023
 20
1244.0662683125
 30
0.0
 10
515.507587272
 20
1244.3012341898
 30
0.0
 10
515.3511219735
 20
1244.4937302412
 30
0.0
 10
515.2056818118
 20
1244.5066533067
 30
0.0
  0
SPLINE
  5
353
100
AcDbEntity
  8
0
100
AcDbSpline
 62
7
  6
BYLAYER
 70
0
 71
3
 72
16
 73
12
 74
0
 42
0.0000001
 43
0.0000001
 44
0.0000000001
 40
0.0
 40
0.0
 40
0.0
 40
0.0
 40
0.0116495546
 40
0.042737298
 40
0.0879609725
 40
0.1436762813
 40
0.2759947698
 40
0.4258123044
 40
0.5821235967
 40
0.7363726357
 40
1.0
 40
1.0
 40
1.0
 40
1.0
 10
493.18284396
 20
113.5075429199
 30
0.0
 10
493.1845795926
 20
113.5053496592
 30
0.0
 10
493.1953016564
 20
113.5025202058
 30
0.0
 10
493.2120532441
 20
113.4900480491
 30
0.0
 10
493.239353892
 20
113.4736377934
 30
0.0
 10
493.2850848604
 20
113.4413841882
 30
0.0
 10
493.3502151458
 20
113.3928979306
 30
0.0
 10
493.4321449896
 20
113.3270814727
 30
0.0
 10
493.5169301984
 20
113.2550164312
 30
0.0
 10
493.6132976234
 20
113.160762515
 30
0.0
 10
493.6828438077
 20
113.0708369373
 30
0.0
 10
493.6828439625
 20
113.0075429227
 30
0.0
  0
SPLINE
  5
354
100
AcDbEntity
  8
0
100
AcDbSpline
 62
7
  6
BYLAYER
 70
0
 71
3
 72
11
 73
7
 74
0
 42
0.0000001
 43
0.0000001
 44
0.0000000001
 40
0.0
 40
0.0
 40
0.0
 40
0.0
 40
0.1629740155
 40
0.3807502889
 40
0.6664956644
 40
1.0
 40
1.0
 40
1.0
 40
1.0
 10
515.1969654154
 20
111.0079321251
 30
0.0
 10
515.2615133183
 20
111.0114994509
 30
0.0
 10
515.4071091991
 20
111.0851735968
 30
0.0
 10
515.556430033
 20
111.3099803248
 30
0.0
 10
515.6589044421
 20
111.6286612256
 30
0.0
 10
515.6826495406
 20
111.8752529207
 30
0.0
 10
515.6828439526
 20
112.0075429227
 30
0.0
  0
SPLINE
  5
355
100
AcDbEntity
  8
0
100
AcDbSpline
 62
7
  6
BYLAYER
 70
0
 71
3
 72
12
 73
8
 74
0
 42
0.0000001
 43
0.0000001
 44
0.0000000001
 40
0.0
 40
0.0
 40
0.0
 40
0.0
 40
0.1249608927
 40
0.2501492077
 40
0.4995019733
 40
0.7494104792
 40
1.0
 40
1.0
 40
1.0
 40
1.0
 10
501.6828439526
 20
113.0075429227
 30
0.0
 10
501.6828437323
 20
113.090551122
 30
0.0
 10
501.6506973743
 20
113.2578133899
 30
0.0
 10
501.4878083597
 20
113.5510494345
 30
0.0
 10
501.1630274919
 20
113.8296450241
 30
0.0
 10
500.6846409946
 20
114.0006231356
 30
0.0
 10
500.34930391
 20
114.0075429641
 30
0.0
 10
500.1828439526
 20
114.0075429227
 30
0.0
  0
SPLINE
  5
356
100
AcDbEntity
  8
0
100
AcDbSpline
 62
7
  6
BYLAYER
 70
0
 71
3
 72
12
 73
8
 74
0
 42
0.0000001
 43
0.0000001
 44
0.0000000001
 40
0.0
 40
0.0
 40
0.0
 40
0.0
 40
0.1249612752
 40
0.2501494132
 40
0.4995021241
 40
0.7494103699
 40
1.0
 40
1.0
 40
1.0
 40
1.0
 10
532.6828439526
 20
113.0075429227
 30
0.0
 10
532.6828441729
 20
113.0905513765
 30
0.0
 10
532.7149906562
 20
113.257813789
 30
0.0
 10
532.8778799061
 20
113.5510497953
 30
0.0
 10
533.2026605875
 20
113.8296450683
 30
0.0
 10
533.681046927
 20
114.000623159
 30
0.0
 10
534.0163839218
 20
114.0075429641
 30
0.0
 10
534.1828439526
 20
114.0075429227
 30
0.0
  0
SPLINE
  5
357
100
AcDbEntity
  8
0
100
AcDbSpline
 62
7
  6
BYLAYER
 70
0
 71
3
 72
9
 73
5
 74
0
 42
0.0000001
 43
0.0000001
 44
0.0000000001
 40
0.0
 40
0.0
 40
0.0
 40
0.0
 40
0.2472698893
 40
1.0
 40
1.0
 40
1.0
 40
1.0
 10
542.5949256445
 20
114.0075429227
 30
0.0
 10
542.5593952714
 20
113.9726869628
 30
0.0
 10
542.4149243737
 20
113.8325309261
 30
0.0
 10
542.2670175532
 20
113.6958384302
 30
0.0
 10
542.1526925839
 20
113.5964040328
 30
0.0
  0
SPLINE
  5
358
100
AcDbEntity
  8
0
100
AcDbSpline
 62
7
  6
BYLAYER
 70
0
 71
3
 72
11
 73
7
 74
0
 42
0.0000001
 43
0.0000001
 44
0.0000000001
 40
0.0
 40
0.0
 40
0.0
 40
0.0
 40
0.1004117043
 40
0.212105835
 40
0.4601359707
 40
1.0
 40
1.0
 40
1.0
 40
1.0
 10
541.0951591614
 20
113.0075429227
 30
0.0
 10
541.136199328
 20
113.0059570203
 30
0.0
 10
541.2229096951
 20
113.0218970549
 30
0.0
 10
541.4016027128
 20
113.0808697435
 30
0.0
 10
541.7266128951
 20
113.2580899295
 30
0.0
 10
541.986052573
 20
113.4515199394
 30
0.0
 10
542.1526460869
 20
113.5964575147
 30
0.0
  0
SPLINE
  5
359
100
AcDbEntity
  8
0
100
AcDbSpline
 62
7
  6
BYLAYER
 70
0
 71
3
 72
11
 73
7
 74
0
 42
0.0000001
 43
0.0000001
 44
0.0000000001
 40
0.0
 40
0.0
 40
0.0
 40
0.0
 40
0.2123919655
 40
0.4485140518
 40
0.7146073529
 40
1.0
 40
1.0
 40
1.0
 40
1.0
 10
540.732597434
 20
113.5075429227
 30
0.0
 10
540.7805547492
 20
113.5075429227
 30
0.0
 10
540.8830729745
 20
113.4775260813
 30
0.0
 10
541.0016148154
 20
113.3612682201
 30
0.0
 10
541.0778093101
 20
113.1973216024
 30
0.0
 10
541.0951590637
 20
113.0719835201
 30
0.0
 10
541.0951590637
 20
113.0075429227
 30
0.0
  0
SPLINE
  5
35A
100
AcDbEntity
  8
0
100
AcDbSpline
 62
7
  6
BYLAYER
 70
0
 71
3
 72
9
 73
5
 74
0
 42
0.0000001
 43
0.0000001
 44
0.0000000001
 40
0.0
 40
0.0
 40
0.0
 40
0.0
 40
0.2408658181
 40
1.0
 40
1.0
 40
1.0
 40
1.0
 10
542.0173626764
 20
113.8020002187
 30
0.0
 10
542.0193958805
 20
113.8184121487
 30
0.0
 10
542.0266348626
 20
113.8866952252
 30
0.0
 10
542.0295057852
 20
113.9554222013
 30
0.0
 10
542.0295057852
 20
114.0075429227
 30
0.0
  0
SPLINE
  5
35B
100
AcDbEntity
  8
0
100
AcDbSpline
 62
7
  6
BYLAYER
 70
0
 71
3
 72
10
 73
6
 74
0
 42
0.0000001
 43
0.0000001
 44
0.0000000001
 40
0.0
 40
0.0
 40
0.0
 40
0.0
 40
0.2293296054
 40
0.4807218264
 40
1.0
 40
1.0
 40
1.0
 40
1.0
 10
540.7325976389
 20
113.5075429227
 30
0.0
 10
540.8336776165
 20
113.5075431492
 30
0.0
 10
541.0452529761
 20
113.5325579216
 30
0.0
 10
541.4758448289
 20
113.6264537934
 30
0.0
 10
541.8016484719
 20
113.7254967732
 30
0.0
 10
542.017362751
 20
113.8019999603
 30
0.0
  0
SPLINE
  5
35C
100
AcDbEntity
  8
0
100
AcDbSpline
 62
7
  6
BYLAYER
 70
0
 71
3
 72
9
 73
5
 74
0
 42
0.0000001
 43
0.0000001
 44
0.0000000001
 40
0.0
 40
0.0
 40
0.0
 40
0.0
 40
0.2527844722
 40
1.0
 40
1.0
 40
1.0
 40
1.0
 10
542.0173559837
 20
113.8020249473
 30
0.0
 10
542.0662676143
 20
113.8186409019
 30
0.0
 10
542.2594155446
 20
113.885383451
 30
0.0
 10
542.4516132519
 20
113.9548434412
 30
0.0
 10
542.5949256445
 20
114.0075429227
 30
0.0
  0
SPLINE
  5
35D
100
AcDbEntity
  8
0
100
AcDbSpline
 62
7
  6
BYLAYER
 70
0
 71
3
 72
12
 73
8
 74
0
 42
0.0000001
 43
0.0000001
 44
0.0000000001
 40
0.0
 40
0.0
 40
0.0
 40
0.0
 40
0.3555845775
 40
0.6615098154
 40
0.7831959321
 40
0.8795743228
 40
1.0
 40
1.0
 40
1.0
 40
1.0
 10
546.2322862084
 20
112.0075429227
 30
0.0
 10
546.2322862084
 20
111.8797766537
 30
0.0
 10
546.2196949124
 20
111.6417223416
 30
0.0
 10
546.1745548267
 20
111.3638252921
 30
0.0
 10
546.1153310558
 20
111.1827280034
 30
0.0
 10
546.0657311601
 20
111.0761833951
 30
0.0
 10
546.0008356284
 20
111.0075429227
 30
0.0
 10
545.9575650805
 20
111.0075429227
 30
0.0
  0
SPLINE
  5
35E
100
AcDbEntity
  8
0
100
AcDbSpline
 62
7
  6
BYLAYER
 70
0
 71
3
 72
12
 73
8
 74
0
 42
0.0000001
 43
0.0000001
 44
0.0000000001
 40
0.0
 40
0.0
 40
0.0
 40
0.0
 40
0.1204256772
 40
0.2168040679
 40
0.3384901846
 40
0.6444154225
 40
1.0
 40
1.0
 40
1.0
 40
1.0
 10
542.3202045166
 20
111.0075429227
 30
0.0
 10
542.3634750644
 20
111.0075429227
 30
0.0
 10
542.4283705961
 20
111.0761833951
 30
0.0
 10
542.4779704919
 20
111.1827280033
 30
0.0
 10
542.5371942628
 20
111.363825292
 30
0.0
 10
542.5823343484
 20
111.6417223415
 30
0.0
 10
542.5949256444
 20
111.8797766536
 30
0.0
 10
542.5949256444
 20
112.0075429227
 30
0.0
  0
SPLINE
  5
35F
100
AcDbEntity
  8
0
100
AcDbSpline
 62
7
  6
BYLAYER
 70
0
 71
3
 72
9
 73
5
 74
0
 42
0.0000001
 43
0.0000001
 44
0.0000000001
 40
0.0
 40
0.0
 40
0.0
 40
0.0
 40
0.5473210353
 40
1.0
 40
1.0
 40
1.0
 40
1.0
 10
524.6828439526
 20
112.0075429227
 30
0.0
 10
524.6830633247
 20
111.8607345841
 30
0.0
 10
524.7117101134
 20
111.5920542746
 30
0.0
 10
524.8039581171
 20
111.3347619486
 30
0.0
 10
524.8676339664
 20
111.2313751789
 30
0.0
  0
SPLINE
  5
360
100
AcDbEntity
  8
0
100
AcDbSpline
 62
7
  6
BYLAYER
 70
0
 71
3
 72
9
 73
5
 74
0
 42
0.0000001
 43
0.0000001
 44
0.0000000001
 40
0.0
 40
0.0
 40
0.0
 40
0.0
 40
0.5608782594
 40
1.0
 40
1.0
 40
1.0
 40
1.0
 10
524.8676339664
 20
111.2313751789
 30
0.0
 10
524.9047105817
 20
111.171176037
 30
0.0
 10
524.9842210804
 20
111.0697141356
 30
0.0
 10
525.1055429845
 20
111.0133067454
 30
0.0
 10
525.1606872083
 20
111.0085038714
 30
0.0
  0
ENDSEC
  0
SECTION
  2
OBJECTS
  0
DICTIONARY
  5
C
100
AcDbDictionary
280
0
281
1
  3
ACAD_GROUP
350
D
  3
ACAD_MLINESTYLE
350
17
  3
ACAD_LAYOUT
350
1A
  3
ACAD_PLOTSETTINGS
350
19
  3
ACAD_PLOTSTYLENAME
350
E
  0
DICTIONARY
  5
D
102
{ACAD_REACTORS
330
C
102
}
100
AcDbDictionary
280
0
281
1
  0
ACDBDICTIONARYWDFLT
  5
E
102
{ACAD_REACTORS
330
C
102
}
100
AcDbDictionary
281
1
  3
Normal
350
F
100
AcDbDictionaryWithDefault
340
F
  0
DICTIONARY
  5
17
102
{ACAD_REACTORS
330
C
102
}
100
AcDbDictionary
280
0
281
1
  3
Standard
350
18
  0
DICTIONARY
  5
19
102
{ACAD_REACTORS
330
C
102
}
100
AcDbDictionary
281
1
  0
DICTIONARY
  5
1A
102
{ACAD_REACTORS
330
C
102
}
100
AcDbDictionary
281
1
  3
Model
350
361
  3
Layout1
350
362
  0
ACDBPLACEHOLDER
  5
F
102
{ACAD_REACTORS
330
E
102
}
  0
MLINESTYLE
  5
18
102
{ACAD_REACTORS
330
17
102
}
100
AcDbMlineStyle
  2
STANDARD
 70
0
  3

 62
256
 51
90.0
 52
90.0
 71
2
 49
0.5
 62
256
  6
BYLAYER
 49
-0.5
 62
256
  6
BYLAYER
  0
LAYOUT
  5
361
102
{ACAD_REACTORS
330
1A
102
}
100
AcDbPlotSettings
  1

  2
none_device
  4

  6

 40
0.0
 41
0.0
 42
0.0
 43
0.0
 44
210.0
 45
297.0
 46
0.0
 47
0.0
 48
0.0
 49
0.0
140
0.0
141
0.0
142
1.0
143
1.0
 70
1024
 72
1
 73
0
 74
0
  7

 75
0
147
1.0
148
0.0
149
0.0
100
AcDbLayout
  1
Model
 70
0
 71
0
 10
0.0
 20
0.0
 11
210.0
 21
297.0
 12
0.0
 22
0.0
 32
0.0
 14
0.0
 24
0.0
 34
0.0
 15
0.0
 25
0.0
 35
0.0
146
0.0
 13
0.0
 23
0.0
 33
0.0
 16
1.0
 26
0.0
 36
0.0
 17
0.0
 27
1.0
 37
0.0
 76
0
330
212
345
0
346
0
  0
LAYOUT
  5
362
102
{ACAD_REACTORS
330
1A
102
}
100
AcDbPlotSettings
  1

  2
none_device
  4

  6

 40
0.0
 41
0.0
 42
0.0
 43
0.0
 44
210.0
 45
297.0
 46
0.0
 47
0.0
 48
0.0
 49
0.0
140
0.0
141
0.0
142
1.0
143
1.0
 70
0
 72
1
 73
0
 74
0
  7

 75
0
147
1.0
148
0.0
149
0.0
100
AcDbLayout
  1
Layout1
 70
0
 71
1
 10
0.0
 20
0.0
 11
210.0
 21
297.0
 12
0.0
 22
0.0
 32
0.0
 14
0.0
 24
0.0
 34
0.0
 15
0.0
 25
0.0
 35
0.0
146
0.0
 13
0.0
 23
0.0
 33
0.0
 16
1.0
 26
0.0
 36
0.0
 17
0.0
 27
1.0
 37
0.0
 76
0
330
213
345
0
346
0
  0
ENDSEC
  0
EOF
