999
DXF file: C:\Users\sesa63760\Dev\_Creo\CAD\MCADID0000588_3D-CAD\drw0001_1.dxf
999
Pro/ENGINEER 2019471 by Parametric Technology Corporation
  0
SECTION
  2
HEADER
  9
$ACADVER
  1
AC1024
  9
$DWGCODEPAGE
  3
ANSI_1252
  9
$EXTMAX
 10
165.2421469979
 20
233.699607897
 30
0.0
  9
$EXTMIN
 10
0.0
 20
0.0
 30
0.0
  9
$LIMMIN
 10
0.0
 20
0.0
  9
$LIMMAX
 10
165.2421469979
 20
233.699607897
  9
$VIEWCTR
 10
82.6210734989
 20
116.8498039485
  9
$VIEWSIZE
 40
233.699607897
  9
$CLAYER
  8
0
  9
$LTSCALE
 40
15.2337522185
  9
$CELTYPE
  6
BYLAYER
  9
$DIMSCALE
 40
1.0
  9
$DIMASZ
 40
1.9671684166
  9
$DIMEXO
 40
1.0
  9
$DIMDLI
 40
10.5251378964
  9
$DIMEXE
 40
1.0
  9
$DIMCEN
 40
2.4927958176
  9
$DIMLFAC
 40
1.0
  9
$DIMBLK
  1
_FILLED
  9
$DIMALT
 70
0
  9
$DIMALTF
 40
0.0393700787
  9
$DIMTXT
 40
2.7540357833
  9
$DIMTOL
 70
1
  9
$DIMLIM
 70
0
  9
$DIMTFAC
 40
1.0
  9
$DIMTP
 40
0.01
  9
$DIMTM
 40
0.01
  9
$DIMGAP
 40
0.625
  9
$DIMDSEP
 70
46
  9
$AUNITS
 70
0
  9
$PDMODE
 70
3
  9
$PDSIZE
 40
0.3125
  9
$HANDSEED
  5
4BD
  9
$TILEMODE
 70
1
  9
$MEASUREMENT
 70
1
  9
$INSUNITS
 70
4
  0
ENDSEC
  0
SECTION
  2
CLASSES
  0
CLASS
  1
ACDBDICTIONARYWDFLT
  2
AcDbDictionaryWithDefault
  3
AutoCAD 2000
 90
0
 91
1
280
0
281
0
  0
CLASS
  1
ACDBPLACEHOLDER
  2
AcDbPlaceHolder
  3
AutoCAD 2000
 90
0
 91
1
280
0
281
0
  0
CLASS
  1
LAYOUT
  2
AcDbLayout
  3
AutoCAD 2000
 90
0
 91
0
280
0
281
0
  0
ENDSEC
  0
SECTION
  2
TABLES
  0
TABLE
  2
VPORT
  5
8
100
AcDbSymbolTable
 70
2
  0
VPORT
  5
1F4
100
AcDbSymbolTableRecord
100
AcDbViewportTableRecord
  2
*ACTIVE
 70
0
 10
0.0
 20
0.0
 11
1.0
 21
1.0
 12
82.6210734989
 22
116.8498039485
 13
0.0
 23
0.0
 14
1.0
 24
1.0
 15
0.0
 25
0.0
 16
0.0
 26
0.0
 36
1.0
 17
0.0
 27
0.0
 37
0.0
 40
233.699607897
 41
0.7070707071
 42
50.0
 43
0.0
 44
0.0
 50
0.0
 51
0.0
 71
0
 72
100
 73
1
 74
1
 75
0
 76
0
 77
0
 78
0
  0
ENDTAB
  0
TABLE
  2
LTYPE
  5
5
100
AcDbSymbolTable
 70
6
  0
LTYPE
  5
14
100
AcDbSymbolTableRecord
100
AcDbLinetypeTableRecord
  2
BYBLOCK
 70
0
  3

 72
65
 73
0
 40
0.0
  0
LTYPE
  5
15
100
AcDbSymbolTableRecord
100
AcDbLinetypeTableRecord
  2
BYLAYER
 70
0
  3

 72
65
 73
0
 40
0.0
  0
LTYPE
  5
16
100
AcDbSymbolTableRecord
100
AcDbLinetypeTableRecord
  2
CONTINUOUS
 70
64
  3
Solid line
 72
65
 73
0
 40
0.0
  0
LTYPE
  5
1F5
100
AcDbSymbolTableRecord
100
AcDbLinetypeTableRecord
  2
CENTER
 70
64
  3
____ _ ____ _ ____ _ ____ _ ____ _ ____ _ ____
 72
65
 73
4
 40
0.6
 49
0.375
 74
0
 49
-0.075
 74
0
 49
0.075
 74
0
 49
-0.075
 74
0
  0
LTYPE
  5
1F6
100
AcDbSymbolTableRecord
100
AcDbLinetypeTableRecord
  2
HIDDEN
 70
64
  3
- - - - - - - - - - - - - - - - - - - -
 72
65
 73
2
 40
0.2
 49
0.1
 74
0
 49
-0.1
 74
0
  0
LTYPE
  5
1F7
100
AcDbSymbolTableRecord
100
AcDbLinetypeTableRecord
  2
PHANTOM
 70
64
  3
_____ _ _ _____ _ _ _____ _ _ _____
 72
65
 73
6
 40
0.8
 49
0.45
 74
0
 49
-0.05
 74
0
 49
0.1
 74
0
 49
-0.05
 74
0
 49
0.1
 74
0
 49
-0.05
 74
0
  0
LTYPE
  5
1F8
100
AcDbSymbolTableRecord
100
AcDbLinetypeTableRecord
  2
DOT
 70
64
  3
. . . . . . . . . . . . . . . . . . . .
 72
65
 73
2
 40
0.2
 49
0.1
 74
0
 49
-0.1
 74
0
  0
LTYPE
  5
1F9
100
AcDbSymbolTableRecord
100
AcDbLinetypeTableRecord
  2
DASHED
 70
64
  3
- - - - - - - - - - - - - - - - - - - -
 72
65
 73
2
 40
0.2
 49
0.1
 74
0
 49
-0.1
 74
0
  0
ENDTAB
  0
TABLE
  2
LAYER
  5
2
100
AcDbSymbolTable
 70
36
  0
LAYER
  5
10
100
AcDbSymbolTableRecord
100
AcDbLayerTableRecord
  2
0
 70
0
 62
7
  6
CONTINUOUS
370
-3
390
F
  0
LAYER
  5
1FA
100
AcDbSymbolTableRecord
100
AcDbLayerTableRecord
  2
DEFAULT_1
 70
0
 62
7
  6
CENTER
370
-3
390
F
  0
LAYER
  5
1FB
100
AcDbSymbolTableRecord
100
AcDbLayerTableRecord
  2
DEFAULT_2
 70
0
 62
8
  6
HIDDEN
370
-3
390
F
  0
LAYER
  5
1FC
100
AcDbSymbolTableRecord
100
AcDbLayerTableRecord
  2
DEFAULT_3
 70
0
 62
7
  6
PHANTOM
370
-3
390
F
  0
LAYER
  5
1FD
100
AcDbSymbolTableRecord
100
AcDbLayerTableRecord
  2
00_COMPONENTS
 70
0
 62
7
  6
CONTINUOUS
370
-3
390
F
  0
LAYER
  5
1FE
100
AcDbSymbolTableRecord
100
AcDbLayerTableRecord
  2
01_1_DEFAULT_DATUMS
 70
0
 62
7
  6
CONTINUOUS
370
-3
390
F
  0
LAYER
  5
1FF
100
AcDbSymbolTableRecord
100
AcDbLayerTableRecord
  2
01_PLANES
 70
0
 62
7
  6
CONTINUOUS
370
-3
390
F
  0
LAYER
  5
200
100
AcDbSymbolTableRecord
100
AcDbLayerTableRecord
  2
02_COORD_SYS
 70
0
 62
7
  6
CONTINUOUS
370
-3
390
F
  0
LAYER
  5
201
100
AcDbSymbolTableRecord
100
AcDbLayerTableRecord
  2
03_AXES
 70
0
 62
7
  6
CONTINUOUS
370
-3
390
F
  0
LAYER
  5
202
100
AcDbSymbolTableRecord
100
AcDbLayerTableRecord
  2
04_POINTS
 70
0
 62
7
  6
CONTINUOUS
370
-3
390
F
  0
LAYER
  5
203
100
AcDbSymbolTableRecord
100
AcDbLayerTableRecord
  2
05_CURVES
 70
0
 62
7
  6
CONTINUOUS
370
-3
390
F
  0
LAYER
  5
204
100
AcDbSymbolTableRecord
100
AcDbLayerTableRecord
  2
06_SURFS
 70
0
 62
7
  6
CONTINUOUS
370
-3
390
F
  0
LAYER
  5
205
100
AcDbSymbolTableRecord
100
AcDbLayerTableRecord
  2
07_COSMETICS
 70
0
 62
7
  6
CONTINUOUS
370
-3
390
F
  0
LAYER
  5
206
100
AcDbSymbolTableRecord
100
AcDbLayerTableRecord
  2
10_NOTES
 70
0
 62
7
  6
CONTINUOUS
370
-3
390
F
  0
LAYER
  5
207
100
AcDbSymbolTableRecord
100
AcDbLayerTableRecord
  2
11_NOTES_PUB
 70
0
 62
7
  6
CONTINUOUS
370
-3
390
F
  0
LAYER
  5
208
100
AcDbSymbolTableRecord
100
AcDbLayerTableRecord
  2
13_REF_GTOL
 70
0
 62
7
  6
CONTINUOUS
370
-3
390
F
  0
LAYER
  5
209
100
AcDbSymbolTableRecord
100
AcDbLayerTableRecord
  2
16_MISC
 70
0
 62
7
  6
CONTINUOUS
370
-3
390
F
  0
LAYER
  5
20A
100
AcDbSymbolTableRecord
100
AcDbLayerTableRecord
  2
17_NO_PRINT
 70
0
 62
7
  6
CONTINUOUS
370
-3
390
F
  0
LAYER
  5
20B
100
AcDbSymbolTableRecord
100
AcDbLayerTableRecord
  2
18_DATUM_CAMS_JOINTS
 70
0
 62
7
  6
CONTINUOUS
370
-3
390
F
  0
LAYER
  5
20C
100
AcDbSymbolTableRecord
100
AcDbLayerTableRecord
  2
19_DATUM_FUNCTIONAL
 70
0
 62
7
  6
CONTINUOUS
370
-3
390
F
  0
LAYER
  5
20D
100
AcDbSymbolTableRecord
100
AcDbLayerTableRecord
  2
20_DATUM_KINEMATIC_SCHEME
 70
0
 62
7
  6
CONTINUOUS
370
-3
390
F
  0
ENDTAB
  0
TABLE
  2
STYLE
  5
3
100
AcDbSymbolTable
 70
1
  0
STYLE
  5
11
100
AcDbSymbolTableRecord
100
AcDbTextStyleTableRecord
  2
STANDARD
 70
0
 40
0.0
 41
0.8
 50
0.0
 71
0
 42
0.2
  3
txt
  4

  0
STYLE
  5
20E
100
AcDbSymbolTableRecord
100
AcDbTextStyleTableRecord
  2
TEXTSTYLE_1
 70
0
 40
0.0
 41
0.8
 50
0.0
 71
0
 42
0.2
  3
gdt
  4

  0
ENDTAB
  0
TABLE
  2
VIEW
  5
6
100
AcDbSymbolTable
 70
0
  0
ENDTAB
  0
TABLE
  2
UCS
  5
7
100
AcDbSymbolTable
 70
0
  0
ENDTAB
  0
TABLE
  2
APPID
  5
9
100
AcDbSymbolTable
 70
1
  0
APPID
  5
20F
100
AcDbSymbolTableRecord
100
AcDbRegAppTableRecord
  2
ACAD
 70
0
  0
ENDTAB
  0
TABLE
  2
BLOCK_RECORD
  5
1
100
AcDbSymbolTable
 70
0
  0
BLOCK_RECORD
  5
210
100
AcDbSymbolTableRecord
100
AcDbBlockTableRecord
  2
*Model_Space
  0
BLOCK_RECORD
  5
211
100
AcDbSymbolTableRecord
100
AcDbBlockTableRecord
  2
*Paper_Space
  0
BLOCK_RECORD
  5
212
100
AcDbSymbolTableRecord
100
AcDbBlockTableRecord
  2
_FILLED
  0
ENDTAB
  0
TABLE
  2
DIMSTYLE
  5
A
100
AcDbSymbolTable
 70
1
100
AcDbDimStyleTable
 71
0
  0
DIMSTYLE
105
213
100
AcDbSymbolTableRecord
100
AcDbDimStyleTableRecord
  2
STANDARD
 70
0
  3

  4

 40
1.0
 41
1.9671684166
 42
1.0
 43
0.38
 44
1.0
 45
0.0
 46
0.0
 47
0.01
 48
0.01
140
2.7540357833
141
0.09
142
0.0
143
25.4
144
1.0
145
0.0
146
1.0
147
0.625
 71
1
 72
0
 73
0
 74
0
 75
0
 76
0
 77
1
 78
8
 79
2
170
0
171
1
172
0
173
0
174
0
175
0
176
0
177
0
178
0
270
2
179
2
271
2
272
2
273
2
274
2
275
0
280
0
281
0
282
0
283
1
284
8
285
0
286
0
287
3
288
0
340
11
278
46
341
212
342
212
343
212
344
212
  0
ENDTAB
  0
ENDSEC
  0
SECTION
  2
BLOCKS
  0
BLOCK
  5
20
100
AcDbEntity
  8
0
100
AcDbBlockBegin
  2
*Model_Space
 70
0
 10
0.0
 20
0.0
 30
0.0
  3
*Model_Space
  1

  0
ENDBLK
  5
21
100
AcDbEntity
  8
0
100
AcDbBlockEnd
  0
BLOCK
  5
1C
100
AcDbEntity
  8
0
100
AcDbBlockBegin
  2
*Paper_Space
 70
0
 10
0.0
 20
0.0
 30
0.0
  3
*Paper_Space
  1

  0
ENDBLK
  5
1D
100
AcDbEntity
  8
0
100
AcDbBlockEnd
  0
BLOCK
  5
214
100
AcDbEntity
  8
0
100
AcDbBlockBegin
  2
_FILLED
 70
64
 10
0.0
 20
0.0
  3
_FILLED
  1

  0
SOLID
  5
215
100
AcDbEntity
  8
0
  6
BYBLOCK
 62
0
100
AcDbTrace
 10
0.0
 20
0.0
 11
-1.0
 21
0.25
 12
-1.0
 22
-0.25
 13
-1.0
 23
-0.25
  0
ENDBLK
  5
216
100
AcDbEntity
  8
0
  6
BYBLOCK
 62
0
100
AcDbBlockEnd
  0
ENDSEC
  0
SECTION
  2
ENTITIES
  0
LINE
  5
217
100
AcDbEntity
  8
0
100
AcDbLine
 62
7
  6
CONTINUOUS
 10
22.5262745648
 20
171.3742419272
 11
41.1687339169
 21
182.1374066051
  0
LINE
  5
218
100
AcDbEntity
  8
0
100
AcDbLine
 62
7
  6
CONTINUOUS
 10
49.816123698
 20
187.1299496215
 11
58.1581895694
 21
191.9462148487
  0
LINE
  5
219
100
AcDbEntity
  8
0
100
AcDbLine
 62
7
  6
CONTINUOUS
 10
61.4931384099
 20
193.8716369663
 11
62.9726140534
 21
194.7258075286
  0
LINE
  5
21A
100
AcDbEntity
  8
0
100
AcDbLine
 62
7
  6
CONTINUOUS
 10
24.4706094794
 20
170.251705036
 11
26.9454729097
 21
171.6805595745
  0
LINE
  5
21B
100
AcDbEntity
  8
0
100
AcDbLine
 62
7
  6
CONTINUOUS
 10
21.3679245951
 20
167.1439859619
 11
21.9458337295
 21
167.4776399646
  0
LINE
  5
21C
100
AcDbEntity
  8
0
100
AcDbLine
 62
7
  6
CONTINUOUS
 10
24.4706094794
 20
167.8021977846
 11
26.0668020851
 21
168.7237545142
  0
LINE
  5
21D
100
AcDbEntity
  8
0
100
AcDbLine
 62
7
  6
CONTINUOUS
 10
22.5262745648
 20
171.3742419272
 11
21.8543034964
 21
166.8631813249
  0
LINE
  5
21E
100
AcDbEntity
  8
0
100
AcDbLine
 62
7
  6
CONTINUOUS
 10
31.1881312605
 20
169.2311150474
 11
28.7132678303
 21
167.8022605089
  0
LINE
  5
21F
100
AcDbEntity
  8
0
100
AcDbLine
 62
7
  6
CONTINUOUS
 10
29.385033845
 20
162.9237035153
 11
30.7992415195
 21
163.7401918231
  0
LINE
  5
220
100
AcDbEntity
  8
0
100
AcDbLine
 62
7
  6
CONTINUOUS
 10
39.6035403151
 20
176.9259846149
 11
37.3472432495
 21
172.0643286504
  0
LINE
  5
221
100
AcDbEntity
  8
0
100
AcDbLine
 62
7
  6
CONTINUOUS
 10
68.3112505204
 20
177.6003934506
 11
59.1189006366
 21
172.2932194503
  0
LINE
  5
222
100
AcDbEntity
  8
0
100
AcDbLine
 62
7
  6
CONTINUOUS
 10
24.4706094794
 20
170.251705036
 11
24.4706094794
 21
167.8021977846
  0
LINE
  5
223
100
AcDbEntity
  8
0
100
AcDbLine
 62
7
  6
CONTINUOUS
 10
24.4706094794
 20
165.3526905332
 11
24.4706094794
 21
97.419689428
  0
LINE
  5
224
100
AcDbEntity
  8
0
100
AcDbLine
 62
7
  6
CONTINUOUS
 10
26.0668020851
 20
169.312733927
 11
26.0668020851
 21
168.0063300596
  0
LINE
  5
225
100
AcDbEntity
  8
0
100
AcDbLine
 62
7
  6
CONTINUOUS
 10
26.9454729097
 20
171.6805595745
 11
26.9454729097
 21
170.5374561905
  0
LINE
  5
226
100
AcDbEntity
  8
0
100
AcDbLine
 62
7
  6
CONTINUOUS
 10
28.7132678303
 20
167.8022605089
 11
28.7132678303
 21
165.3527532575
  0
LINE
  5
227
100
AcDbEntity
  8
0
100
AcDbLine
 62
7
  6
CONTINUOUS
 10
29.385033845
 20
162.9237035153
 11
29.385033845
 21
142.2661923619
  0
LINE
  5
228
100
AcDbEntity
  8
0
100
AcDbLine
 62
7
  6
CONTINUOUS
 10
56.5740324082
 20
186.7238443078
 11
54.3177353426
 21
181.8621883433
  0
LINE
  5
229
100
AcDbEntity
  8
0
100
AcDbLine
 62
7
  6
CONTINUOUS
 10
59.1189094685
 20
166.1694211475
 11
56.2904705679
 21
164.5364309345
  0
LINE
  5
22A
100
AcDbEntity
  8
0
100
AcDbLine
 62
7
  6
CONTINUOUS
 10
35.9062985334
 20
152.0625989193
 11
35.2540269
 21
151.6860119641
  0
LINE
  5
22B
100
AcDbEntity
  8
0
100
AcDbLine
 62
7
  6
CONTINUOUS
 10
104.0853318245
 20
39.8472569017
 11
99.8426734737
 21
42.2967014288
  0
LINE
  5
22C
100
AcDbEntity
  8
0
100
AcDbLine
 62
7
  6
CONTINUOUS
 10
102.6769680436
 20
42.9602027069
 11
98.4343096927
 21
45.409647234
  0
LINE
  5
22D
100
AcDbEntity
  8
0
100
AcDbLine
 62
7
  6
CONTINUOUS
 10
35.2540269
 20
149.8653262346
 11
35.2540269
 21
151.6860119641
  0
LINE
  5
22E
100
AcDbEntity
  8
0
100
AcDbLine
 62
7
  6
CONTINUOUS
 10
37.3472432495
 20
172.0643286504
 11
37.3472432495
 21
169.614821399
  0
LINE
  5
22F
100
AcDbEntity
  8
0
100
AcDbLine
 62
7
  6
CONTINUOUS
 10
54.7339275188
 20
169.3746824783
 11
56.9902245844
 21
174.2363384428
  0
LINE
  5
230
100
AcDbEntity
  8
0
100
AcDbLine
 62
7
  6
CONTINUOUS
 10
56.9902245844
 20
171.7868311914
 11
54.7339275188
 21
166.9251752269
  0
LINE
  5
231
100
AcDbEntity
  8
0
100
AcDbLine
 62
7
  6
CONTINUOUS
 10
41.0867971897
 20
143.0334887316
 11
43.326509207
 21
145.0699744991
  0
LINE
  5
232
100
AcDbEntity
  8
0
100
AcDbLine
 62
7
  6
CONTINUOUS
 10
33.607617212
 20
148.914776832
 11
36.7895844795
 21
150.7518755244
  0
LINE
  5
233
100
AcDbEntity
  8
0
100
AcDbLine
 62
7
  6
CONTINUOUS
 10
32.4434084183
 20
147.6652751762
 11
33.8576160928
 21
148.481763484
  0
LINE
  5
234
100
AcDbEntity
  8
0
100
AcDbLine
 62
7
  6
CONTINUOUS
 10
71.1397659641
 20
165.3531266234
 11
80.3321158479
 21
170.6603006238
  0
LINE
  5
235
100
AcDbEntity
  8
0
100
AcDbLine
 62
7
  6
CONTINUOUS
 10
43.1123810258
 20
148.0581246741
 11
42.3251241514
 21
147.6036044189
  0
LINE
  5
236
100
AcDbEntity
  8
0
100
AcDbLine
 62
7
  6
CONTINUOUS
 10
59.830304224
 20
73.9938294238
 11
86.2054280831
 21
58.7662444279
  0
LINE
  5
237
100
AcDbEntity
  8
0
100
AcDbLine
 62
7
  6
CONTINUOUS
 10
90.6602882404
 20
56.1945325267
 11
98.4343096927
 21
51.7063006859
  0
LINE
  5
238
100
AcDbEntity
  8
0
100
AcDbLine
 62
7
  6
CONTINUOUS
 10
90.6293609556
 20
56.2287180473
 11
77.9323131877
 21
63.5591961564
  0
LINE
  5
239
100
AcDbEntity
  8
0
100
AcDbLine
 62
7
  6
CONTINUOUS
 10
58.4826131659
 20
75.9870808564
 11
54.239954815
 21
78.4365253835
  0
LINE
  5
23A
100
AcDbEntity
  8
0
100
AcDbLine
 62
7
  6
CONTINUOUS
 10
98.4343096927
 20
53.3297206802
 11
89.6661491009
 21
58.3919060362
  0
LINE
  5
23B
100
AcDbEntity
  8
0
100
AcDbLine
 62
7
  6
CONTINUOUS
 10
76.9381740482
 20
65.7402396176
 11
58.8361650845
 21
76.1912029333
  0
LINE
  5
23C
100
AcDbEntity
  8
0
100
AcDbLine
 62
7
  6
CONTINUOUS
 10
21.9000036006
 20
97.8891583527
 11
37.2090204843
 21
89.0506932867
  0
LINE
  5
23D
100
AcDbEntity
  8
0
100
AcDbLine
 62
7
  6
CONTINUOUS
 10
89.6802911776
 20
58.7738015264
 11
76.952316125
 21
66.1221351077
  0
LINE
  5
23E
100
AcDbEntity
  8
0
100
AcDbLine
 62
7
  6
CONTINUOUS
 10
37.1221373737
 20
90.1154916356
 11
21.0708935428
 21
99.3824719351
  0
LINE
  5
23F
100
AcDbEntity
  8
0
100
AcDbLine
 62
7
  6
CONTINUOUS
 10
37.4293599619
 20
86.3503167665
 11
67.8534233611
 21
68.7841925928
  0
LINE
  5
240
100
AcDbEntity
  8
0
100
AcDbLine
 62
7
  6
CONTINUOUS
 10
37.7225795481
 20
168.8061091039
 11
37.7225795481
 21
171.2556163553
  0
LINE
  5
241
100
AcDbEntity
  8
0
100
AcDbLine
 62
7
  6
CONTINUOUS
 10
39.6687339169
 20
173.1503335466
 11
39.6687339169
 21
175.599840798
  0
LINE
  5
242
100
AcDbEntity
  8
0
100
AcDbLine
 62
7
  6
CONTINUOUS
 10
41.1687339169
 20
175.599840798
 11
41.1687339169
 21
183.7648649693
  0
LINE
  5
243
100
AcDbEntity
  8
0
100
AcDbLine
 62
7
  6
CONTINUOUS
 10
41.9187339169
 20
183.7648649693
 11
41.9187339169
 21
184.5813673864
  0
LINE
  5
244
100
AcDbEntity
  8
0
100
AcDbLine
 62
7
  6
CONTINUOUS
 10
42.3251241514
 20
147.6036044189
 11
42.3251241514
 21
144.1594527902
  0
LINE
  5
245
100
AcDbEntity
  8
0
100
AcDbLine
 62
7
  6
CONTINUOUS
 10
43.7393318259
 20
145.4285011178
 11
43.7393318259
 21
147.6961626496
  0
LINE
  5
246
100
AcDbEntity
  8
0
100
AcDbLine
 62
7
  6
CONTINUOUS
 10
43.8870192159
 20
167.6966559681
 11
43.8870192159
 21
165.2471487167
  0
LINE
  5
247
100
AcDbEntity
  8
0
100
AcDbLine
 62
7
  6
CONTINUOUS
 10
35.9433927493
 20
141.6030883032
 11
37.3576004237
 21
142.4195766109
  0
LINE
  5
248
100
AcDbEntity
  8
0
100
AcDbLine
 62
7
  6
CONTINUOUS
 10
45.5872650638
 20
146.6292820333
 11
44.3082685298
 21
145.8908574479
  0
LINE
  5
249
100
AcDbEntity
  8
0
100
AcDbLine
 62
7
  6
CONTINUOUS
 10
37.6075993045
 20
141.9865632629
 11
40.7895665719
 21
143.8236619553
  0
LINE
  5
24A
100
AcDbEntity
  8
0
100
AcDbLine
 62
7
  6
CONTINUOUS
 10
36.6682640141
 20
140.3475193583
 11
40.2037832001
 21
142.3887401277
  0
LINE
  5
24B
100
AcDbEntity
  8
0
100
AcDbLine
 62
7
  6
CONTINUOUS
 10
42.5929405072
 20
141.925133719
 11
43.0660050501
 21
142.1982560299
  0
LINE
  5
24C
100
AcDbEntity
  8
0
100
AcDbLine
 62
7
  6
CONTINUOUS
 10
71.1397659641
 20
157.1881024521
 11
80.3321158479
 21
162.4952764525
  0
LINE
  5
24D
100
AcDbEntity
  8
0
100
AcDbLine
 62
7
  6
CONTINUOUS
 10
45.2877731499
 20
165.0304580356
 11
45.2877731499
 21
167.479965287
  0
LINE
  5
24E
100
AcDbEntity
  8
0
100
AcDbLine
 62
7
  6
CONTINUOUS
 10
71.7044196119
 20
179.1725421712
 11
73.9607166775
 21
184.0341981357
  0
LINE
  5
24F
100
AcDbEntity
  8
0
100
AcDbLine
 62
7
  6
CONTINUOUS
 10
73.9607166775
 20
181.5846908843
 11
71.7567899566
 21
176.8358775958
  0
LINE
  5
250
100
AcDbEntity
  8
0
100
AcDbLine
 62
7
  6
CONTINUOUS
 10
50.6327784792
 20
137.5222385456
 11
52.8724904965
 21
139.5587243131
  0
LINE
  5
251
100
AcDbEntity
  8
0
100
AcDbLine
 62
7
  6
CONTINUOUS
 10
71.8468845211
 20
155.555134335
 11
83.1605459165
 21
162.087040797
  0
LINE
  5
252
100
AcDbEntity
  8
0
100
AcDbLine
 62
7
  6
CONTINUOUS
 10
52.6583623153
 20
142.5468744881
 11
51.3793657813
 21
141.8084499027
  0
LINE
  5
253
100
AcDbEntity
  8
0
100
AcDbLine
 62
7
  6
CONTINUOUS
 10
71.8468845211
 20
153.5138782922
 11
83.1605459165
 21
160.0457847542
  0
LINE
  5
254
100
AcDbEntity
  8
0
100
AcDbLine
 62
7
  6
CONTINUOUS
 10
45.5929270766
 20
136.7289735422
 11
46.1082699766
 21
137.0265051282
  0
LINE
  5
255
100
AcDbEntity
  8
0
100
AcDbLine
 62
7
  6
CONTINUOUS
 10
55.1332463533
 20
141.1180318472
 11
53.8542498193
 21
140.3796072619
  0
LINE
  5
256
100
AcDbEntity
  8
0
100
AcDbLine
 62
7
  6
CONTINUOUS
 10
66.1900832631
 20
146.1655005193
 11
68.6649466933
 21
147.5943550578
  0
LINE
  5
257
100
AcDbEntity
  8
0
100
AcDbLine
 62
7
  6
CONTINUOUS
 10
104.1615593215
 20
168.0882115822
 11
106.6364227517
 21
169.5170661207
  0
LINE
  5
258
100
AcDbEntity
  8
0
100
AcDbLine
 62
7
  6
CONTINUOUS
 10
63.043456762
 20
143.4914436002
 11
64.4576644365
 21
144.3079319079
  0
LINE
  5
259
100
AcDbEntity
  8
0
100
AcDbLine
 62
7
  6
CONTINUOUS
 10
117.0722318736
 20
59.0751622851
 11
115.6580124233
 21
59.8916437942
  0
LINE
  5
25A
100
AcDbEntity
  8
0
100
AcDbLine
 62
7
  6
CONTINUOUS
 10
52.4187339169
 20
183.7648649693
 11
52.4187339169
 21
184.5813673864
  0
LINE
  5
25B
100
AcDbEntity
  8
0
100
AcDbLine
 62
7
  6
CONTINUOUS
 10
53.1687339169
 20
175.599840798
 11
53.1687339169
 21
183.7648649693
  0
LINE
  5
25C
100
AcDbEntity
  8
0
100
AcDbLine
 62
7
  6
CONTINUOUS
 10
53.2853131153
 20
139.9172509317
 11
53.2853131153
 21
142.1849124635
  0
LINE
  5
25D
100
AcDbEntity
  8
0
100
AcDbLine
 62
7
  6
CONTINUOUS
 10
53.7085098833
 20
168.7826608643
 11
53.7085098833
 21
166.3331536129
  0
LINE
  5
25E
100
AcDbEntity
  8
0
100
AcDbLine
 62
7
  6
CONTINUOUS
 10
54.239954815
 20
78.4365253835
 11
54.239954815
 21
104.5646027316
  0
LINE
  5
25F
100
AcDbEntity
  8
0
100
AcDbLine
 62
7
  6
CONTINUOUS
 10
54.3177353426
 20
181.8621883433
 11
54.3177353426
 21
179.4126810919
  0
LINE
  5
260
100
AcDbEntity
  8
0
100
AcDbLine
 62
7
  6
CONTINUOUS
 10
54.6687339169
 20
173.1503335466
 11
54.6687339169
 21
175.599840798
  0
LINE
  5
261
100
AcDbEntity
  8
0
100
AcDbLine
 62
7
  6
CONTINUOUS
 10
54.6930716412
 20
178.6039687968
 11
54.6930716412
 21
181.0534760482
  0
LINE
  5
262
100
AcDbEntity
  8
0
100
AcDbLine
 62
7
  6
CONTINUOUS
 10
54.7339275188
 20
166.9251752269
 11
54.7339275188
 21
169.3746824783
  0
LINE
  5
263
100
AcDbEntity
  8
0
100
AcDbLine
 62
7
  6
CONTINUOUS
 10
56.2904705679
 20
164.5364309345
 11
56.2904705679
 21
162.4951748917
  0
LINE
  5
264
100
AcDbEntity
  8
0
100
AcDbLine
 62
7
  6
CONTINUOUS
 10
56.6392260101
 20
182.9481932395
 11
56.6392260101
 21
184.9894492823
  0
LINE
  5
265
100
AcDbEntity
  8
0
100
AcDbLine
 62
7
  6
CONTINUOUS
 10
56.9902245844
 20
174.2363384428
 11
56.9902245844
 21
171.7868311914
  0
LINE
  5
266
100
AcDbEntity
  8
0
100
AcDbLine
 62
7
  6
CONTINUOUS
 10
57.2556911381
 20
158.2101651504
 11
57.2556911381
 21
156.1689091076
  0
LINE
  5
267
100
AcDbEntity
  8
0
100
AcDbLine
 62
7
  6
CONTINUOUS
 10
57.3512116987
 20
122.2010657171
 11
57.3512116987
 21
110.6702020958
  0
LINE
  5
268
100
AcDbEntity
  8
0
100
AcDbLine
 62
7
  6
CONTINUOUS
 10
57.3892260101
 20
184.9894492823
 11
57.3892260101
 21
190.2967149936
  0
LINE
  5
269
100
AcDbEntity
  8
0
100
AcDbLine
 62
7
  6
CONTINUOUS
 10
57.4219220825
 20
110.7372725797
 11
57.4219220825
 21
122.1602419816
  0
LINE
  5
26A
100
AcDbEntity
  8
0
100
AcDbLine
 62
7
  6
CONTINUOUS
 10
52.1389217967
 20
136.413883533
 11
52.6119863395
 21
136.6870058439
  0
LINE
  5
26B
100
AcDbEntity
  8
0
100
AcDbLine
 62
7
  6
CONTINUOUS
 10
66.1900832631
 20
143.7159932679
 11
67.7862758688
 21
144.6375499975
  0
LINE
  5
26C
100
AcDbEntity
  8
0
100
AcDbLine
 62
7
  6
CONTINUOUS
 10
75.3824714184
 20
146.1655226151
 11
106.6364610233
 21
164.2099142162
  0
LINE
  5
26D
100
AcDbEntity
  8
0
100
AcDbLine
 62
7
  6
CONTINUOUS
 10
72.9076079882
 20
142.2871608251
 11
75.3824714184
 21
143.7160153637
  0
LINE
  5
26E
100
AcDbEntity
  8
0
100
AcDbLine
 62
7
  6
CONTINUOUS
 10
106.6364610233
 20
161.7604069648
 11
109.1113244535
 21
163.1892615033
  0
LINE
  5
26F
100
AcDbEntity
  8
0
100
AcDbLine
 62
7
  6
CONTINUOUS
 10
74.1803948952
 20
142.6137490935
 11
107.8385375465
 21
162.0461708178
  0
LINE
  5
270
100
AcDbEntity
  8
0
100
AcDbLine
 62
7
  6
CONTINUOUS
 10
55.1389083661
 20
131.2177233562
 11
55.654251266
 21
131.5152549422
  0
LINE
  5
271
100
AcDbEntity
  8
0
100
AcDbLine
 62
7
  6
CONTINUOUS
 10
45.7997094075
 20
134.8704365922
 11
47.120182181
 21
135.292377344
  0
LINE
  5
272
100
AcDbEntity
  8
0
100
AcDbLine
 62
7
  6
CONTINUOUS
 10
58.2402621956
 20
159.7192098867
 11
58.2402621956
 21
158.4128060193
  0
LINE
  5
273
100
AcDbEntity
  8
0
100
AcDbLine
 62
7
  6
CONTINUOUS
 10
58.4826131659
 20
75.9870808564
 11
58.4826131659
 21
102.1151582045
  0
LINE
  5
274
100
AcDbEntity
  8
0
100
AcDbLine
 62
7
  6
CONTINUOUS
 10
58.8361650845
 20
76.1912029333
 11
58.8361650845
 21
102.3192802814
  0
LINE
  5
275
100
AcDbEntity
  8
0
100
AcDbLine
 62
7
  6
CONTINUOUS
 10
59.1189006366
 20
172.2932194503
 11
59.1189094685
 21
162.9034679164
  0
LINE
  5
276
100
AcDbEntity
  8
0
100
AcDbLine
 62
7
  6
CONTINUOUS
 10
60.1392260101
 20
190.2967149936
 11
60.1392260101
 21
191.9297198279
  0
LINE
  5
277
100
AcDbEntity
  8
0
100
AcDbLine
 62
7
  6
CONTINUOUS
 10
60.6711850699
 20
179.1088605005
 11
60.6711850699
 21
181.1501165433
  0
LINE
  5
278
100
AcDbEntity
  8
0
100
AcDbLine
 62
7
  6
CONTINUOUS
 10
60.8575113091
 20
177.494515661
 11
60.8575113091
 21
175.0450084097
  0
LINE
  5
279
100
AcDbEntity
  8
0
100
AcDbLine
 62
7
  6
CONTINUOUS
 10
60.8893060761
 20
154.0710880041
 11
60.8893060761
 21
156.1123440469
  0
LINE
  5
27A
100
AcDbEntity
  8
0
100
AcDbLine
 62
7
  6
CONTINUOUS
 10
61.6645804333
 20
108.5327787777
 11
61.6645804333
 21
108.2878280526
  0
LINE
  5
27B
100
AcDbEntity
  8
0
100
AcDbLine
 62
7
  6
CONTINUOUS
 10
62.2582652431
 20
174.8283177285
 11
62.2582652431
 21
177.2778249799
  0
LINE
  5
27C
100
AcDbEntity
  8
0
100
AcDbLine
 62
7
  6
CONTINUOUS
 10
62.9816700064
 20
181.150122097
 11
62.9816700064
 21
186.4573878083
  0
LINE
  5
27D
100
AcDbEntity
  8
0
100
AcDbLine
 62
7
  6
CONTINUOUS
 10
63.043456762
 20
122.8339324468
 11
63.043456762
 21
143.4914436002
  0
LINE
  5
27E
100
AcDbEntity
  8
0
100
AcDbLine
 62
7
  6
CONTINUOUS
 10
64.2402621956
 20
159.7192098867
 11
64.2402621956
 21
158.4128060193
  0
LINE
  5
27F
100
AcDbEntity
  8
0
100
AcDbLine
 62
7
  6
CONTINUOUS
 10
64.4576644365
 20
144.3079319079
 11
64.4576644365
 21
123.6504207545
  0
LINE
  5
280
100
AcDbEntity
  8
0
100
AcDbLine
 62
7
  6
CONTINUOUS
 10
109.2527569968
 20
161.2296893088
 11
75.5946143455
 21
141.7972675845
  0
LINE
  5
281
100
AcDbEntity
  8
0
100
AcDbLine
 62
7
  6
CONTINUOUS
 10
74.1803948952
 20
140.5724930507
 11
72.9076079882
 21
139.8376535737
  0
LINE
  5
282
100
AcDbEntity
  8
0
100
AcDbLine
 62
7
  6
CONTINUOUS
 10
56.4065466284
 20
129.6981698053
 11
55.760226593
 21
129.3250189863
  0
LINE
  5
283
100
AcDbEntity
  8
0
100
AcDbLine
 62
7
  6
CONTINUOUS
 10
101.9695874735
 20
150.0845039783
 11
82.8777838688
 21
139.0619118238
  0
LINE
  5
284
100
AcDbEntity
  8
0
100
AcDbLine
 62
7
  6
CONTINUOUS
 10
55.345690697
 20
129.3591864062
 11
56.6661634705
 21
129.7811271579
  0
LINE
  5
285
100
AcDbEntity
  8
0
100
AcDbLine
 62
7
  6
CONTINUOUS
 10
54.239954815
 20
104.5646027316
 11
58.4826131659
 21
102.1151582045
  0
LINE
  5
286
100
AcDbEntity
  8
0
100
AcDbLine
 62
7
  6
CONTINUOUS
 10
58.8361650845
 20
102.3192802814
 11
76.9381740482
 21
91.8683169657
  0
LINE
  5
287
100
AcDbEntity
  8
0
100
AcDbLine
 62
7
  6
CONTINUOUS
 10
89.6661491009
 20
84.5199833843
 11
98.4343096927
 21
79.4577980283
  0
LINE
  5
288
100
AcDbEntity
  8
0
100
AcDbLine
 62
7
  6
CONTINUOUS
 10
76.952316125
 20
92.2175523592
 11
89.6802911776
 21
84.8692187778
  0
LINE
  5
289
100
AcDbEntity
  8
0
100
AcDbLine
 62
7
  6
CONTINUOUS
 10
92.012725725
 20
89.586325647
 11
79.2847506724
 21
96.9346592283
  0
LINE
  5
28A
100
AcDbEntity
  8
0
100
AcDbLine
 62
7
  6
CONTINUOUS
 10
98.4343096927
 20
85.908752861
 11
92.0215738946
 21
89.6110638428
  0
LINE
  5
28B
100
AcDbEntity
  8
0
100
AcDbLine
 62
7
  6
CONTINUOUS
 10
79.2935988419
 20
96.9593974242
 11
61.1915898782
 21
107.4103607399
  0
LINE
  5
28C
100
AcDbEntity
  8
0
100
AcDbLine
 62
7
  6
CONTINUOUS
 10
61.0833947089
 20
107.736559544
 11
37.0981787357
 21
121.5841171691
  0
LINE
  5
28D
100
AcDbEntity
  8
0
100
AcDbLine
 62
7
  6
CONTINUOUS
 10
57.2556911381
 20
156.1689091076
 11
56.2904705679
 21
162.4951748917
  0
LINE
  5
28E
100
AcDbEntity
  8
0
100
AcDbLine
 62
7
  6
CONTINUOUS
 10
56.2904705679
 20
164.5364309345
 11
57.2556911381
 21
158.2101651504
  0
LINE
  5
28F
100
AcDbEntity
  8
0
100
AcDbLine
 62
7
  6
CONTINUOUS
 10
65.2968373869
 20
186.4573933733
 11
65.2968373869
 21
181.150127662
  0
LINE
  5
290
100
AcDbEntity
  8
0
100
AcDbLine
 62
7
  6
CONTINUOUS
 10
66.1900832631
 20
146.1655005193
 11
66.1900832631
 21
143.7159932679
  0
LINE
  5
291
100
AcDbEntity
  8
0
100
AcDbLine
 62
7
  6
CONTINUOUS
 10
67.6073223234
 20
181.1501332157
 11
67.6073223234
 21
179.1088771729
  0
LINE
  5
292
100
AcDbEntity
  8
0
100
AcDbLine
 62
7
  6
CONTINUOUS
 10
67.7862758688
 20
145.2265294103
 11
67.7862758688
 21
143.9201255429
  0
LINE
  5
293
100
AcDbEntity
  8
0
100
AcDbLine
 62
7
  6
CONTINUOUS
 10
68.1392260101
 20
190.2967149936
 11
68.1392260101
 21
191.9297198279
  0
LINE
  5
294
100
AcDbEntity
  8
0
100
AcDbLine
 62
7
  6
CONTINUOUS
 10
68.6649466933
 20
147.5943550578
 11
68.6649466933
 21
146.4512516738
  0
LINE
  5
295
100
AcDbEntity
  8
0
100
AcDbLine
 62
7
  6
CONTINUOUS
 10
68.6649673011
 20
142.2871506271
 11
68.6649673011
 21
116.7306249709
  0
LINE
  5
296
100
AcDbEntity
  8
0
100
AcDbLine
 62
7
  6
CONTINUOUS
 10
69.0184456205
 20
165.3531215244
 11
69.0184456205
 21
157.1880973531
  0
LINE
  5
297
100
AcDbEntity
  8
0
100
AcDbLine
 62
7
  6
CONTINUOUS
 10
70.6790019765
 20
178.5805205572
 11
70.6790019765
 21
177.4581246991
  0
LINE
  5
298
100
AcDbEntity
  8
0
100
AcDbLine
 62
7
  6
CONTINUOUS
 10
70.8570068603
 20
115.465076881
 11
70.8570068603
 21
103.225648969
  0
LINE
  5
299
100
AcDbEntity
  8
0
100
AcDbLine
 62
7
  6
CONTINUOUS
 10
70.8892260101
 20
184.9894492823
 11
70.8892260101
 21
190.2967149936
  0
LINE
  5
29A
100
AcDbEntity
  8
0
100
AcDbLine
 62
7
  6
CONTINUOUS
 10
71.1397659641
 20
165.3531266234
 11
71.1397659641
 21
157.1881024521
  0
LINE
  5
29B
100
AcDbEntity
  8
0
100
AcDbLine
 62
7
  6
CONTINUOUS
 10
57.3512116987
 20
110.6702020958
 11
57.4219220825
 21
110.7372725797
  0
LINE
  5
29C
100
AcDbEntity
  8
0
100
AcDbLine
 62
7
  6
CONTINUOUS
 10
64.4576644365
 20
123.6504207545
 11
63.043456762
 21
122.8339324468
  0
LINE
  5
29D
100
AcDbEntity
  8
0
100
AcDbLine
 62
7
  6
CONTINUOUS
 10
63.4635270112
 20
121.4530482347
 11
62.0493193368
 21
120.636559927
  0
LINE
  5
29E
100
AcDbEntity
  8
0
100
AcDbLine
 62
7
  6
CONTINUOUS
 10
88.3772849803
 20
134.888439017
 11
87.5302556112
 21
134.3994093019
  0
LINE
  5
29F
100
AcDbEntity
  8
0
100
AcDbLine
 62
7
  6
CONTINUOUS
 10
79.8091575102
 20
129.941657844
 11
79.342235243
 21
129.6720817565
  0
LINE
  5
2A0
100
AcDbEntity
  8
0
100
AcDbLine
 62
7
  6
CONTINUOUS
 10
37.8123533359
 20
121.950712032
 11
57.3512116987
 21
110.6702020958
  0
LINE
  5
2A1
100
AcDbEntity
  8
0
100
AcDbLine
 62
7
  6
CONTINUOUS
 10
57.4219220825
 20
110.7372725797
 11
61.6645804333
 21
108.2878280526
  0
LINE
  5
2A2
100
AcDbEntity
  8
0
100
AcDbLine
 62
7
  6
CONTINUOUS
 10
70.8570068603
 20
103.225648969
 11
61.6645804333
 21
108.5327787777
  0
LINE
  5
2A3
100
AcDbEntity
  8
0
100
AcDbLine
 62
7
  6
CONTINUOUS
 10
98.4343096927
 20
87.3778714745
 11
102.6769680436
 21
84.9284269473
  0
LINE
  5
2A4
100
AcDbEntity
  8
0
100
AcDbLine
 62
7
  6
CONTINUOUS
 10
141.3356198158
 20
63.5421097582
 11
125.0720961374
 21
72.9316471121
  0
LINE
  5
2A5
100
AcDbEntity
  8
0
100
AcDbLine
 62
7
  6
CONTINUOUS
 10
73.0920353721
 20
105.3456267706
 11
82.443188412
 21
99.9468581823
  0
LINE
  5
2A6
100
AcDbEntity
  8
0
100
AcDbLine
 62
7
  6
CONTINUOUS
 10
95.1711634646
 20
92.5985246009
 11
99.0739201879
 21
90.3453179305
  0
LINE
  5
2A7
100
AcDbEntity
  8
0
100
AcDbLine
 62
7
  6
CONTINUOUS
 10
82.4650726371
 20
99.9623801944
 11
95.1930476897
 21
92.6140466131
  0
LINE
  5
2A8
100
AcDbEntity
  8
0
100
AcDbLine
 62
7
  6
CONTINUOUS
 10
38.7372607582
 20
142.6387697141
 11
38.7895755257
 21
142.5736898366
  0
LINE
  5
2A9
100
AcDbEntity
  8
0
100
AcDbLine
 62
7
  6
CONTINUOUS
 10
42.3251241514
 20
147.6036044189
 11
40.9615788093
 21
149.2998628209
  0
LINE
  5
2AA
100
AcDbEntity
  8
0
100
AcDbLine
 62
7
  6
CONTINUOUS
 10
71.6392260101
 20
182.9481932395
 11
71.6392260101
 21
184.9894492823
  0
LINE
  5
2AB
100
AcDbEntity
  8
0
100
AcDbLine
 62
7
  6
CONTINUOUS
 10
71.7044196119
 20
176.8661129444
 11
71.7044196119
 21
179.1725421712
  0
LINE
  5
2AC
100
AcDbEntity
  8
0
100
AcDbLine
 62
7
  6
CONTINUOUS
 10
71.8468845211
 20
155.555134335
 11
71.8468845211
 21
153.5138782922
  0
LINE
  5
2AD
100
AcDbEntity
  8
0
100
AcDbLine
 62
7
  6
CONTINUOUS
 10
72.9075873804
 20
146.4512618719
 11
72.9075873804
 21
147.5943652559
  0
LINE
  5
2AE
100
AcDbEntity
  8
0
100
AcDbLine
 62
7
  6
CONTINUOUS
 10
72.9076079882
 20
116.730635169
 11
72.9076079882
 21
142.2871608251
  0
LINE
  5
2AF
100
AcDbEntity
  8
0
100
AcDbLine
 62
7
  6
CONTINUOUS
 10
73.7862758688
 20
145.2265294103
 11
73.7862758688
 21
143.9201255429
  0
LINE
  5
2B0
100
AcDbEntity
  8
0
100
AcDbLine
 62
7
  6
CONTINUOUS
 10
73.9470400306
 20
123.2911902045
 11
73.9470400306
 21
140.437766361
  0
LINE
  5
2B1
100
AcDbEntity
  8
0
100
AcDbLine
 62
7
  6
CONTINUOUS
 10
73.9607166775
 20
184.0341981357
 11
73.9607166775
 21
181.5846908843
  0
LINE
  5
2B2
100
AcDbEntity
  8
0
100
AcDbLine
 62
7
  6
CONTINUOUS
 10
74.1803948952
 20
121.9562379401
 11
74.1803948952
 21
142.6137490935
  0
LINE
  5
2B3
100
AcDbEntity
  8
0
100
AcDbLine
 62
7
  6
CONTINUOUS
 10
75.3824714184
 20
146.1655226151
 11
75.3824714184
 21
143.7160153637
  0
LINE
  5
2B4
100
AcDbEntity
  8
0
100
AcDbLine
 62
7
  6
CONTINUOUS
 10
75.5946143455
 20
141.7972675845
 11
75.5946143455
 21
121.1397564311
  0
LINE
  5
2B5
100
AcDbEntity
  8
0
100
AcDbLine
 62
7
  6
CONTINUOUS
 10
76.9381740482
 20
65.7402396176
 11
76.9381740482
 21
91.8683169657
  0
LINE
  5
2B6
100
AcDbEntity
  8
0
100
AcDbLine
 62
7
  6
CONTINUOUS
 10
76.952316125
 20
92.2175523592
 11
76.952316125
 21
66.1221351077
  0
LINE
  5
2B7
100
AcDbEntity
  8
0
100
AcDbLine
 62
7
  6
CONTINUOUS
 10
76.952316125
 20
92.2176030549
 11
76.9381740482
 21
91.8683169657
  0
LINE
  5
2B8
100
AcDbEntity
  8
0
100
AcDbLine
 62
7
  6
CONTINUOUS
 10
75.1155317541
 20
108.5892329955
 11
76.1279518269
 21
112.8106244174
  0
LINE
  5
2B9
100
AcDbEntity
  8
0
100
AcDbLine
 62
7
  6
CONTINUOUS
 10
80.7564546933
 20
129.8570382642
 11
80.8087798591
 21
129.9221318708
  0
LINE
  5
2BA
100
AcDbEntity
  8
0
100
AcDbLine
 62
7
  6
CONTINUOUS
 10
61.6645804333
 20
108.2878280526
 11
61.0833947089
 21
107.736559544
  0
LINE
  5
2BB
100
AcDbEntity
  8
0
100
AcDbLine
 62
7
  6
CONTINUOUS
 10
61.1915898782
 20
107.4103607399
 11
62.1061509363
 21
108.2778436964
  0
LINE
  5
2BC
100
AcDbEntity
  8
0
100
AcDbLine
 62
7
  6
CONTINUOUS
 10
82.8777838688
 20
127.6308779839
 11
92.6094840861
 21
133.2494441858
  0
LINE
  5
2BD
100
AcDbEntity
  8
0
100
AcDbLine
 62
7
  6
CONTINUOUS
 10
97.1256491573
 20
135.8568377413
 11
101.9695874735
 21
138.6534701385
  0
LINE
  5
2BE
100
AcDbEntity
  8
0
100
AcDbLine
 62
7
  6
CONTINUOUS
 10
100.9924144213
 20
93.6683156331
 11
97.0896792492
 21
95.9215098612
  0
LINE
  5
2BF
100
AcDbEntity
  8
0
100
AcDbLine
 62
7
  6
CONTINUOUS
 10
84.3617041965
 20
103.2698434426
 11
75.1236592372
 21
108.6033105275
  0
LINE
  5
2C0
100
AcDbEntity
  8
0
100
AcDbLine
 62
7
  6
CONTINUOUS
 10
97.1038213259
 20
95.9296747443
 11
84.3758462733
 21
103.2780083257
  0
LINE
  5
2C1
100
AcDbEntity
  8
0
100
AcDbLine
 62
7
  6
CONTINUOUS
 10
145.3355519477
 20
70.4703521717
 11
129.0720282693
 21
79.8598895256
  0
LINE
  5
2C2
100
AcDbEntity
  8
0
100
AcDbLine
 62
7
  6
CONTINUOUS
 10
107.4852741367
 20
93.2567036301
 11
103.2426157858
 21
95.7061481573
  0
LINE
  5
2C3
100
AcDbEntity
  8
0
100
AcDbLine
 62
7
  6
CONTINUOUS
 10
32.7791605257
 20
136.387425138
 11
59.6493300813
 21
120.8742764663
  0
LINE
  5
2C4
100
AcDbEntity
  8
0
100
AcDbLine
 62
7
  6
CONTINUOUS
 10
70.8570068603
 20
115.465076881
 11
62.0118687411
 21
120.5717063186
  0
LINE
  5
2C5
100
AcDbEntity
  8
0
100
AcDbLine
 62
7
  6
CONTINUOUS
 10
76.1360793099
 20
112.8247019494
 11
85.3741242693
 21
107.4912348645
  0
LINE
  5
2C6
100
AcDbEntity
  8
0
100
AcDbLine
 62
7
  6
CONTINUOUS
 10
98.1020993219
 20
100.1429012832
 11
104.5147748035
 21
96.4406251243
  0
LINE
  5
2C7
100
AcDbEntity
  8
0
100
AcDbLine
 62
7
  6
CONTINUOUS
 10
85.388266346
 20
107.4993997476
 11
98.1162413987
 21
100.1510661663
  0
LINE
  5
2C8
100
AcDbEntity
  8
0
100
AcDbLine
 62
7
  6
CONTINUOUS
 10
80.3321158479
 20
162.4952764525
 11
80.332107016
 21
171.8850279864
  0
LINE
  5
2C9
100
AcDbEntity
  8
0
100
AcDbLine
 62
7
  6
CONTINUOUS
 10
81.2107542888
 20
169.5170695796
 11
81.2107542888
 21
168.2106657122
  0
LINE
  5
2CA
100
AcDbEntity
  8
0
100
AcDbLine
 62
7
  6
CONTINUOUS
 10
83.1605459165
 20
162.087040797
 11
83.1605459165
 21
160.0457847542
  0
LINE
  5
2CB
100
AcDbEntity
  8
0
100
AcDbLine
 62
7
  6
CONTINUOUS
 10
84.2919738794
 20
138.9693773884
 11
84.2919738794
 21
137.1487064229
  0
LINE
  5
2CC
100
AcDbEntity
  8
0
100
AcDbLine
 62
7
  6
CONTINUOUS
 10
109.1113244535
 20
137.6327358472
 11
108.1465899812
 21
137.0757494647
  0
LINE
  5
2CD
100
AcDbEntity
  8
0
100
AcDbLine
 62
7
  6
CONTINUOUS
 10
76.7007604481
 20
118.9205996905
 11
72.9076079882
 21
116.730635169
  0
LINE
  5
2CE
100
AcDbEntity
  8
0
100
AcDbLine
 62
7
  6
CONTINUOUS
 10
111.1619255814
 20
138.7349936517
 11
108.0408152861
 21
136.9330305388
  0
LINE
  5
2CF
100
AcDbEntity
  8
0
100
AcDbLine
 62
7
  6
CONTINUOUS
 10
76.8065389388
 20
118.9000203243
 11
70.8570068603
 21
115.465076881
  0
LINE
  5
2D0
100
AcDbEntity
  8
0
100
AcDbLine
 62
7
  6
CONTINUOUS
 10
78.9887127641
 20
119.1801167675
 11
105.8586585782
 21
134.6933946146
  0
LINE
  5
2D1
100
AcDbEntity
  8
0
100
AcDbLine
 62
7
  6
CONTINUOUS
 10
102.3231276163
 20
130.9374837518
 11
79.6958048254
 21
117.8736708279
  0
LINE
  5
2D2
100
AcDbEntity
  8
0
100
AcDbLine
 62
7
  6
CONTINUOUS
 10
36.6682640141
 20
140.3475193583
 11
41.5147145698
 21
137.5494831254
  0
LINE
  5
2D3
100
AcDbEntity
  8
0
100
AcDbLine
 62
7
  6
CONTINUOUS
 10
46.0284588008
 20
134.9435306331
 11
51.0606958593
 21
132.0382329394
  0
LINE
  5
2D4
100
AcDbEntity
  8
0
100
AcDbLine
 62
7
  6
CONTINUOUS
 10
55.5744400903
 20
129.4322804471
 11
55.760226593
 21
129.3250189863
  0
LINE
  5
2D5
100
AcDbEntity
  8
0
100
AcDbLine
 62
7
  6
CONTINUOUS
 10
101.0379900295
 20
104.5414394492
 11
88.3100149769
 21
111.8897730306
  0
LINE
  5
2D6
100
AcDbEntity
  8
0
100
AcDbLine
 62
7
  6
CONTINUOUS
 10
75.1745340346
 20
119.7588644306
 11
76.5887534849
 21
118.9423829216
  0
LINE
  5
2D7
100
AcDbEntity
  8
0
100
AcDbLine
 62
7
  6
CONTINUOUS
 10
110.1015230067
 20
99.6661164498
 11
101.3333624149
 21
104.7283018059
  0
LINE
  5
2D8
100
AcDbEntity
  8
0
100
AcDbLine
 62
7
  6
CONTINUOUS
 10
88.6053873623
 20
112.0766353872
 11
79.2295493936
 21
117.4896555035
  0
LINE
  5
2D9
100
AcDbEntity
  8
0
100
AcDbLine
 62
7
  6
CONTINUOUS
 10
75.5946143455
 20
121.1397564311
 11
74.1803948952
 21
121.9562379401
  0
LINE
  5
2DA
100
AcDbEntity
  8
0
100
AcDbLine
 62
7
  6
CONTINUOUS
 10
40.592747698
 20
142.1641764504
 11
40.2037832001
 21
142.3887401277
  0
LINE
  5
2DB
100
AcDbEntity
  8
0
100
AcDbLine
 62
7
  6
CONTINUOUS
 10
85.3526178593
 20
140.4907493654
 11
85.3526178593
 21
136.5363571888
  0
LINE
  5
2DC
100
AcDbEntity
  8
0
100
AcDbLine
 62
7
  6
CONTINUOUS
 10
89.6661491009
 20
58.3919060362
 11
89.6661491009
 21
84.5199833843
  0
LINE
  5
2DD
100
AcDbEntity
  8
0
100
AcDbLine
 62
7
  6
CONTINUOUS
 10
89.6661491009
 20
84.5199833843
 11
89.6802911776
 21
84.8692695034
  0
LINE
  5
2DE
100
AcDbEntity
  8
0
100
AcDbLine
 62
7
  6
CONTINUOUS
 10
85.3741242693
 20
107.4912348645
 11
84.3617041965
 21
103.2698434426
  0
LINE
  5
2DF
100
AcDbEntity
  8
0
100
AcDbLine
 62
7
  6
CONTINUOUS
 10
84.3758462733
 20
103.2780083257
 11
85.388266346
 21
107.4993997476
  0
LINE
  5
2E0
100
AcDbEntity
  8
0
100
AcDbLine
 62
7
  6
CONTINUOUS
 10
70.8570068603
 20
103.225648969
 11
73.4254107058
 21
105.6618412185
  0
LINE
  5
2E1
100
AcDbEntity
  8
0
100
AcDbLine
 62
7
  6
CONTINUOUS
 10
88.6053873623
 20
112.0766353872
 11
88.3099930123
 21
111.890051935
  0
LINE
  5
2E2
100
AcDbEntity
  8
0
100
AcDbLine
 62
7
  6
CONTINUOUS
 10
88.6053873623
 20
112.0766353872
 11
111.2327101531
 21
125.1404483111
  0
LINE
  5
2E3
100
AcDbEntity
  8
0
100
AcDbLine
 62
7
  6
CONTINUOUS
 10
110.9090536142
 20
124.9372561883
 11
88.3100149769
 21
111.8897730306
  0
LINE
  5
2E4
100
AcDbEntity
  8
0
100
AcDbLine
 62
7
  6
CONTINUOUS
 10
137.0718925331
 20
93.7163743526
 11
135.6576730828
 21
94.5328558617
  0
LINE
  5
2E5
100
AcDbEntity
  8
0
100
AcDbLine
 62
7
  6
CONTINUOUS
 10
55.760226593
 20
140.7560528261
 11
36.6682640141
 21
151.7785531982
  0
LINE
  5
2E6
100
AcDbEntity
  8
0
100
AcDbLine
 62
7
  6
CONTINUOUS
 10
83.1605459165
 20
162.087040797
 11
82.1953253463
 21
168.4133065811
  0
LINE
  5
2E7
100
AcDbEntity
  8
0
100
AcDbLine
 62
7
  6
CONTINUOUS
 10
94.3632813606
 20
171.2725500681
 11
94.3632813606
 21
168.4147916082
  0
LINE
  5
2E8
100
AcDbEntity
  8
0
100
AcDbLine
 62
7
  6
CONTINUOUS
 10
94.8985196617
 20
146.0020454427
 11
94.8985196617
 21
143.7343609166
  0
LINE
  5
2E9
100
AcDbEntity
  8
0
100
AcDbLine
 62
7
  6
CONTINUOUS
 10
79.2847506724
 20
96.9346592283
 11
82.4650726371
 21
99.9623801944
  0
LINE
  5
2EA
100
AcDbEntity
  8
0
100
AcDbLine
 62
7
  6
CONTINUOUS
 10
82.4438636671
 20
99.9448449643
 11
79.2935988419
 21
96.9593974242
  0
LINE
  5
2EB
100
AcDbEntity
  8
0
100
AcDbLine
 62
7
  6
CONTINUOUS
 10
37.666602496
 20
121.9333850264
 11
37.8123533359
 21
121.950712032
  0
LINE
  5
2EC
100
AcDbEntity
  8
0
100
AcDbLine
 62
7
  6
CONTINUOUS
 10
78.0025183641
 20
130.103040194
 11
80.7564546933
 21
129.8570382642
  0
LINE
  5
2ED
100
AcDbEntity
  8
0
100
AcDbLine
 62
7
  6
CONTINUOUS
 10
82.8777838688
 20
127.6308779839
 11
79.342235243
 21
129.6720817565
  0
LINE
  5
2EE
100
AcDbEntity
  8
0
100
AcDbLine
 62
7
  6
CONTINUOUS
 10
81.9384823905
 20
129.2699125653
 11
78.7564886274
 21
131.1069959607
  0
LINE
  5
2EF
100
AcDbEntity
  8
0
100
AcDbLine
 62
7
  6
CONTINUOUS
 10
83.6026975991
 20
128.8864462071
 11
82.1884781488
 21
129.7029277162
  0
LINE
  5
2F0
100
AcDbEntity
  8
0
100
AcDbLine
 62
7
  6
CONTINUOUS
 10
68.6649673011
 20
139.8376433757
 11
64.4576644365
 21
142.2666758651
  0
LINE
  5
2F1
100
AcDbEntity
  8
0
100
AcDbLine
 62
7
  6
CONTINUOUS
 10
29.385033845
 20
162.5154104906
 11
21.3679245951
 21
167.1439859619
  0
LINE
  5
2F2
100
AcDbEntity
  8
0
100
AcDbLine
 62
7
  6
CONTINUOUS
 10
63.043456762
 20
143.4914436002
 11
29.385033845
 21
162.9237035153
  0
LINE
  5
2F3
100
AcDbEntity
  8
0
100
AcDbLine
 62
7
  6
CONTINUOUS
 10
30.7992415195
 20
163.7401918231
 11
64.4576644365
 21
144.3079319079
  0
LINE
  5
2F4
100
AcDbEntity
  8
0
100
AcDbLine
 62
7
  6
CONTINUOUS
 10
24.4706094794
 20
167.8021977846
 11
28.7132678303
 21
165.3527532575
  0
LINE
  5
2F5
100
AcDbEntity
  8
0
100
AcDbLine
 62
7
  6
CONTINUOUS
 10
66.1900832631
 20
143.7159932679
 11
68.6649673011
 21
142.2871506271
  0
LINE
  5
2F6
100
AcDbEntity
  8
0
100
AcDbLine
 62
7
  6
CONTINUOUS
 10
98.4343096927
 20
45.409647234
 11
98.4343096927
 21
53.3297206802
  0
LINE
  5
2F7
100
AcDbEntity
  8
0
100
AcDbLine
 62
7
  6
CONTINUOUS
 10
98.4343096927
 20
79.4577980283
 11
98.4343096927
 21
87.3778714745
  0
LINE
  5
2F8
100
AcDbEntity
  8
0
100
AcDbLine
 62
7
  6
CONTINUOUS
 10
102.3632813606
 20
171.2725500681
 11
102.3632813606
 21
168.4147916082
  0
LINE
  5
2F9
100
AcDbEntity
  8
0
100
AcDbLine
 62
7
  6
CONTINUOUS
 10
102.6769680436
 20
42.9602027069
 11
102.6769680436
 21
84.9284269473
  0
LINE
  5
2FA
100
AcDbEntity
  8
0
100
AcDbLine
 62
7
  6
CONTINUOUS
 10
104.1615593215
 20
166.9451081982
 11
104.1615593215
 21
168.0882115822
  0
LINE
  5
2FB
100
AcDbEntity
  8
0
100
AcDbLine
 62
7
  6
CONTINUOUS
 10
97.0896792492
 20
95.9215098612
 11
98.1020993219
 21
100.1429012832
  0
LINE
  5
2FC
100
AcDbEntity
  8
0
100
AcDbLine
 62
7
  6
CONTINUOUS
 10
101.0379680778
 20
104.5417181891
 11
101.3333624149
 21
104.7283018059
  0
LINE
  5
2FD
100
AcDbEntity
  8
0
100
AcDbLine
 62
7
  6
CONTINUOUS
 10
101.3333624149
 20
104.7283018059
 11
123.9606852058
 21
117.7921147298
  0
LINE
  5
2FE
100
AcDbEntity
  8
0
100
AcDbLine
 62
7
  6
CONTINUOUS
 10
92.8382662111
 20
133.1763412755
 11
91.5177930267
 21
133.598272983
  0
LINE
  5
2FF
100
AcDbEntity
  8
0
100
AcDbLine
 62
7
  6
CONTINUOUS
 10
22.5262745648
 20
171.3742419272
 11
24.4706094794
 21
170.251705036
  0
LINE
  5
300
100
AcDbEntity
  8
0
100
AcDbLine
 62
7
  6
CONTINUOUS
 10
28.7132678303
 20
167.8022605089
 11
66.1900832631
 21
146.1655005193
  0
LINE
  5
301
100
AcDbEntity
  8
0
100
AcDbLine
 62
7
  6
CONTINUOUS
 10
87.1026382145
 20
134.9486583189
 11
85.6884187642
 21
135.765139828
  0
LINE
  5
302
100
AcDbEntity
  8
0
100
AcDbLine
 62
7
  6
CONTINUOUS
 10
75.5946143455
 20
141.7972675845
 11
74.1803948952
 21
142.6137490935
  0
LINE
  5
303
100
AcDbEntity
  8
0
100
AcDbLine
 62
7
  6
CONTINUOUS
 10
86.0007919241
 20
136.1264195278
 11
87.2585810639
 21
135.4002510575
  0
LINE
  5
304
100
AcDbEntity
  8
0
100
AcDbLine
 62
7
  6
CONTINUOUS
 10
85.9384145224
 20
136.1981549788
 11
82.7564207593
 21
138.0352383742
  0
LINE
  5
305
100
AcDbEntity
  8
0
100
AcDbLine
 62
7
  6
CONTINUOUS
 10
73.7862758688
 20
144.6375584459
 11
75.3824714184
 21
143.7160153637
  0
LINE
  5
306
100
AcDbEntity
  8
0
100
AcDbLine
 62
7
  6
CONTINUOUS
 10
83.5047346688
 20
139.4238798763
 11
84.2919738794
 21
138.9693773884
  0
LINE
  5
307
100
AcDbEntity
  8
0
100
AcDbLine
 62
7
  6
CONTINUOUS
 10
93.0450402971
 20
135.0348778125
 11
92.529196589
 21
135.3326935788
  0
LINE
  5
308
100
AcDbEntity
  8
0
100
AcDbLine
 62
7
  6
CONTINUOUS
 10
110.9090536142
 20
124.9372561883
 11
123.6370286669
 21
117.588922607
  0
LINE
  5
309
100
AcDbEntity
  8
0
100
AcDbLine
 62
7
  6
CONTINUOUS
 10
101.7574300608
 20
130.6108800654
 11
111.2327101531
 21
125.1404483111
  0
LINE
  5
30A
100
AcDbEntity
  8
0
100
AcDbLine
 62
7
  6
CONTINUOUS
 10
123.9606852058
 20
117.7921147298
 11
132.7288457976
 21
112.7299293737
  0
LINE
  5
30B
100
AcDbEntity
  8
0
100
AcDbLine
 62
7
  6
CONTINUOUS
 10
72.9075873804
 20
147.5943652559
 11
75.3824714184
 21
146.1655226151
  0
LINE
  5
30C
100
AcDbEntity
  8
0
100
AcDbLine
 62
7
  6
CONTINUOUS
 10
106.6364227517
 20
169.5170661207
 11
106.6364227517
 21
167.4379559001
  0
LINE
  5
30D
100
AcDbEntity
  8
0
100
AcDbLine
 62
7
  6
CONTINUOUS
 10
106.6364610233
 20
164.2099142162
 11
106.6364610233
 21
161.7604069648
  0
LINE
  5
30E
100
AcDbEntity
  8
0
100
AcDbLine
 62
7
  6
CONTINUOUS
 10
109.1113244535
 20
163.1892615033
 11
109.1113244535
 21
161.3113435785
  0
LINE
  5
30F
100
AcDbEntity
  8
0
100
AcDbLine
 62
7
  6
CONTINUOUS
 10
109.1113244535
 20
139.6703985288
 11
109.1113244535
 21
137.6327358472
  0
LINE
  5
310
100
AcDbEntity
  8
0
100
AcDbLine
 62
7
  6
CONTINUOUS
 10
109.2527569968
 20
140.5721781554
 11
109.2527569968
 21
161.2296893088
  0
LINE
  5
311
100
AcDbEntity
  8
0
100
AcDbLine
 62
7
  6
CONTINUOUS
 10
109.2828884969
 20
165.7203859346
 11
109.2828884969
 21
164.4139820672
  0
LINE
  5
312
100
AcDbEntity
  8
0
100
AcDbLine
 62
7
  6
CONTINUOUS
 10
109.9899952781
 20
138.8574581107
 11
109.9899952781
 21
164.4139837669
  0
LINE
  5
313
100
AcDbEntity
  8
0
100
AcDbLine
 62
7
  6
CONTINUOUS
 10
111.1619255814
 20
126.8046345137
 11
111.1619255814
 21
138.7349936517
  0
LINE
  5
314
100
AcDbEntity
  8
0
100
AcDbLine
 62
7
  6
CONTINUOUS
 10
92.0215738946
 20
89.6110638428
 11
95.1930476897
 21
92.6140466131
  0
LINE
  5
315
100
AcDbEntity
  8
0
100
AcDbLine
 62
7
  6
CONTINUOUS
 10
84.2919738794
 20
138.9693773884
 11
82.9284704849
 21
139.0911755806
  0
LINE
  5
316
100
AcDbEntity
  8
0
100
AcDbLine
 62
7
  6
CONTINUOUS
 10
102.3841680135
 20
138.6876373528
 11
101.0636948291
 21
139.1095690603
  0
LINE
  5
317
100
AcDbEntity
  8
0
100
AcDbLine
 62
7
  6
CONTINUOUS
 10
85.9795980991
 20
140.8527344148
 11
87.2585810639
 21
140.1143299608
  0
LINE
  5
318
100
AcDbEntity
  8
0
100
AcDbLine
 62
7
  6
CONTINUOUS
 10
37.7225795481
 20
168.8061091039
 11
43.8870192159
 21
165.2471487167
  0
LINE
  5
319
100
AcDbEntity
  8
0
100
AcDbLine
 62
7
  6
CONTINUOUS
 10
126.3155748986
 20
118.0395392946
 11
113.6185273555
 21
125.3700172739
  0
LINE
  5
31A
100
AcDbEntity
  8
0
100
AcDbLine
 62
7
  6
CONTINUOUS
 10
103.3910392994
 20
131.291056304
 11
121.9057843277
 21
120.6015604769
  0
LINE
  5
31B
100
AcDbEntity
  8
0
100
AcDbLine
 62
7
  6
CONTINUOUS
 10
126.3606444849
 20
118.0298485756
 11
134.1347019384
 21
113.54159595
  0
LINE
  5
31C
100
AcDbEntity
  8
0
100
AcDbLine
 62
7
  6
CONTINUOUS
 10
103.5522714963
 20
131.3444383208
 11
105.8909806148
 21
129.9942145278
  0
LINE
  5
31D
100
AcDbEntity
  8
0
100
AcDbLine
 62
7
  6
CONTINUOUS
 10
43.8870192159
 20
167.6966559681
 11
37.7225795481
 21
171.2556163553
  0
LINE
  5
31E
100
AcDbEntity
  8
0
100
AcDbLine
 62
7
  6
CONTINUOUS
 10
96.044989396
 20
140.2310596226
 11
95.5717572508
 21
140.5042741482
  0
LINE
  5
31F
100
AcDbEntity
  8
0
100
AcDbLine
 62
7
  6
CONTINUOUS
 10
59.1189094685
 20
162.9034679164
 11
61.7467956808
 21
161.3862914274
  0
LINE
  5
320
100
AcDbEntity
  8
0
100
AcDbLine
 62
7
  6
CONTINUOUS
 10
64.1695186666
 20
159.9875633029
 11
69.0184456205
 21
157.1880973531
  0
LINE
  5
321
100
AcDbEntity
  8
0
100
AcDbLine
 62
7
  6
CONTINUOUS
 10
139.5877530186
 20
116.6898976663
 11
143.8304113694
 21
114.2404531391
  0
LINE
  5
322
100
AcDbEntity
  8
0
100
AcDbLine
 62
7
  6
CONTINUOUS
 10
101.323217392
 20
139.0266436367
 11
101.9695874735
 21
138.6534701385
  0
LINE
  5
323
100
AcDbEntity
  8
0
100
AcDbLine
 62
7
  6
CONTINUOUS
 10
97.5511204933
 20
141.3394290104
 11
95.3114256951
 21
143.3758659101
  0
LINE
  5
324
100
AcDbEntity
  8
0
100
AcDbLine
 62
7
  6
CONTINUOUS
 10
105.8909806148
 20
129.9942145278
 11
105.9510679708
 21
129.8130564983
  0
LINE
  5
325
100
AcDbEntity
  8
0
100
AcDbLine
 62
7
  6
CONTINUOUS
 10
103.2426157858
 20
95.7061481573
 11
110.1015230067
 21
99.6661164498
  0
LINE
  5
326
100
AcDbEntity
  8
0
100
AcDbLine
 62
7
  6
CONTINUOUS
 10
132.7288457976
 20
112.7299293737
 11
139.5877530186
 21
116.6898976663
  0
LINE
  5
327
100
AcDbEntity
  8
0
100
AcDbLine
 62
7
  6
CONTINUOUS
 10
107.4852741367
 20
93.2567036301
 11
143.8304113694
 21
114.2404531391
  0
LINE
  5
328
100
AcDbEntity
  8
0
100
AcDbLine
 62
7
  6
CONTINUOUS
 10
38.7895755257
 20
142.5736898366
 11
40.8931381538
 21
142.7616041326
  0
LINE
  5
329
100
AcDbEntity
  8
0
100
AcDbLine
 62
7
  6
CONTINUOUS
 10
93.0506364712
 20
144.9351759536
 11
94.329619436
 21
144.1967714995
  0
LINE
  5
32A
100
AcDbEntity
  8
0
100
AcDbLine
 62
7
  6
CONTINUOUS
 10
147.2303536816
 20
114.5772427541
 11
142.9876953307
 21
117.0266872813
  0
LINE
  5
32B
100
AcDbEntity
  8
0
100
AcDbLine
 62
7
  6
CONTINUOUS
 10
102.5909420995
 20
140.5461738898
 11
102.0750983914
 21
140.843989656
  0
LINE
  5
32C
100
AcDbEntity
  8
0
100
AcDbLine
 62
7
  6
CONTINUOUS
 10
95.5254999015
 20
146.3640304921
 11
96.8044828663
 21
145.625626038
  0
LINE
  5
32D
100
AcDbEntity
  8
0
100
AcDbLine
 62
7
  6
CONTINUOUS
 10
111.1619255814
 20
138.7349936517
 11
109.9899952781
 21
139.4115926211
  0
LINE
  5
32E
100
AcDbEntity
  8
0
100
AcDbLine
 62
7
  6
CONTINUOUS
 10
59.1189094685
 20
171.0684920877
 11
69.0184456205
 21
165.3531215244
  0
LINE
  5
32F
100
AcDbEntity
  8
0
100
AcDbLine
 62
7
  6
CONTINUOUS
 10
76.1501773233
 20
161.3756594255
 11
76.5037321859
 21
161.1715390483
  0
LINE
  5
330
100
AcDbEntity
  8
0
100
AcDbLine
 62
7
  6
CONTINUOUS
 10
36.5951331847
 20
151.8058149307
 11
35.2540269
 21
151.6860119641
  0
LINE
  5
331
100
AcDbEntity
  8
0
100
AcDbLine
 62
7
  6
CONTINUOUS
 10
71.1397659641
 20
157.1881024521
 11
69.0184456205
 21
157.1880973531
  0
LINE
  5
332
100
AcDbEntity
  8
0
100
AcDbLine
 62
7
  6
CONTINUOUS
 10
71.8468845211
 20
153.5138782922
 11
60.8893060761
 21
154.0710880041
  0
LINE
  5
333
100
AcDbEntity
  8
0
100
AcDbLine
 62
7
  6
CONTINUOUS
 10
60.8893060761
 20
156.1123440469
 11
71.8468845211
 21
155.555134335
  0
LINE
  5
334
100
AcDbEntity
  8
0
100
AcDbLine
 62
7
  6
CONTINUOUS
 10
74.9859536312
 20
162.6251560854
 11
75.7657825328
 21
162.1749318446
  0
LINE
  5
335
100
AcDbEntity
  8
0
100
AcDbLine
 62
7
  6
CONTINUOUS
 10
105.5908911984
 20
145.7423556999
 11
105.1176590531
 21
146.0155702254
  0
LINE
  5
336
100
AcDbEntity
  8
0
100
AcDbLine
 62
7
  6
CONTINUOUS
 10
54.4238525253
 20
176.3100172066
 11
56.6148882858
 21
175.0450507378
  0
LINE
  5
337
100
AcDbEntity
  8
0
100
AcDbLine
 62
7
  6
CONTINUOUS
 10
76.4859281807
 20
165.2232469905
 11
77.2674243722
 21
164.7720601611
  0
LINE
  5
338
100
AcDbEntity
  8
0
100
AcDbLine
 62
7
  6
CONTINUOUS
 10
102.73074722
 20
150.3689882124
 11
103.8755212384
 21
149.7080675768
  0
LINE
  5
339
100
AcDbEntity
  8
0
100
AcDbLine
 62
7
  6
CONTINUOUS
 10
78.1501433892
 20
164.8397806323
 11
78.5036982518
 21
164.635660255
  0
LINE
  5
33A
100
AcDbEntity
  8
0
100
AcDbLine
 62
7
  6
CONTINUOUS
 10
54.6930716412
 20
178.6039687968
 11
60.8575113091
 21
175.0450084097
  0
LINE
  5
33B
100
AcDbEntity
  8
0
100
AcDbLine
 62
7
  6
CONTINUOUS
 10
60.8575113091
 20
177.494515661
 11
54.6930716412
 21
181.0534760482
  0
LINE
  5
33C
100
AcDbEntity
  8
0
100
AcDbLine
 62
7
  6
CONTINUOUS
 10
107.0970222957
 20
146.8507250877
 11
104.8573274975
 21
148.8871619874
  0
LINE
  5
33D
100
AcDbEntity
  8
0
100
AcDbLine
 62
7
  6
CONTINUOUS
 10
80.332107016
 20
171.8850279864
 11
70.4325708639
 21
177.6003985496
  0
LINE
  5
33E
100
AcDbEntity
  8
0
100
AcDbLine
 62
7
  6
CONTINUOUS
 10
53.7085098833
 20
166.3331536129
 11
45.2877731499
 21
165.0304580356
  0
LINE
  5
33F
100
AcDbEntity
  8
0
100
AcDbLine
 62
7
  6
CONTINUOUS
 10
69.0184456205
 20
165.3531215244
 11
71.1397659641
 21
165.3531266234
  0
LINE
  5
340
100
AcDbEntity
  8
0
100
AcDbLine
 62
7
  6
CONTINUOUS
 10
109.2527569968
 20
161.2296893088
 11
107.8385375465
 21
162.0461708178
  0
LINE
  5
341
100
AcDbEntity
  8
0
100
AcDbLine
 62
7
  6
CONTINUOUS
 10
106.6364610233
 20
164.2099142162
 11
104.1615769853
 21
165.638756857
  0
LINE
  5
342
100
AcDbEntity
  8
0
100
AcDbLine
 62
7
  6
CONTINUOUS
 10
71.2893052236
 20
186.1685200504
 11
73.5853803789
 21
184.8429104307
  0
LINE
  5
343
100
AcDbEntity
  8
0
100
AcDbLine
 62
7
  6
CONTINUOUS
 10
45.2877731499
 20
167.479965287
 11
53.7085098833
 21
168.7826608643
  0
LINE
  5
344
100
AcDbEntity
  8
0
100
AcDbLine
 62
7
  6
CONTINUOUS
 10
63.967961381
 20
175.0928092651
 11
62.2582652431
 21
174.8283177285
  0
LINE
  5
345
100
AcDbEntity
  8
0
100
AcDbLine
 62
7
  6
CONTINUOUS
 10
70.4325708639
 20
177.6003985496
 11
68.3112505204
 21
177.6003934506
  0
LINE
  5
346
100
AcDbEntity
  8
0
100
AcDbLine
 62
7
  6
CONTINUOUS
 10
106.6364227517
 20
169.5170661207
 11
101.9022629503
 21
172.2502727231
  0
LINE
  5
347
100
AcDbEntity
  8
0
100
AcDbLine
 62
7
  6
CONTINUOUS
 10
100.0567414161
 20
173.315760973
 11
70.8892260101
 21
190.1552528841
  0
LINE
  5
348
100
AcDbEntity
  8
0
100
AcDbLine
 62
7
  6
CONTINUOUS
 10
63.9170739588
 20
194.1805356837
 11
62.9726140534
 21
194.7258075286
  0
LINE
  5
349
100
AcDbEntity
  8
0
100
AcDbLine
 62
7
  6
CONTINUOUS
 10
148.6387174625
 20
111.464296949
 11
148.6387174625
 21
69.4960727085
  0
LINE
  5
34A
100
AcDbEntity
  8
0
100
AcDbLine
 62
7
  6
CONTINUOUS
 10
62.2582652431
 20
177.2778249799
 11
70.6790019765
 21
178.5805205572
  0
LINE
  5
34B
100
AcDbEntity
  8
0
100
AcDbLine
 62
7
  6
CONTINUOUS
 10
67.6073223234
 20
179.1088771729
 11
60.6711850699
 21
179.1088605005
  0
LINE
  5
34C
100
AcDbEntity
  8
0
100
AcDbLine
 62
7
  6
CONTINUOUS
 10
60.6711850699
 20
181.1501165433
 11
62.9816700064
 21
181.150122097
  0
LINE
  5
34D
100
AcDbEntity
  8
0
100
AcDbLine
 62
7
  6
CONTINUOUS
 10
65.2968373869
 20
181.150127662
 11
67.6073223234
 21
181.1501332157
  0
LINE
  5
34E
100
AcDbEntity
  8
0
100
AcDbLine
 62
7
  6
CONTINUOUS
 10
62.9816700064
 20
186.4573878083
 11
65.2968373869
 21
186.4573933733
  0
LINE
  5
34F
100
AcDbEntity
  8
0
100
AcDbLine
 62
7
  6
CONTINUOUS
 10
143.8304113694
 20
61.1677960257
 11
107.4852741367
 21
40.1840465167
  0
ARC
  5
350
100
AcDbEntity
  8
0
100
AcDbCircle
 62
7
  6
CONTINUOUS
 10
63.706396442
 20
102.1125310402
 40
5.2237839368
100
AcDbArc
 50
177.3726199927
 51
179.9711845984
  0
ARC
  5
351
100
AcDbEntity
  8
0
100
AcDbCircle
 62
7
  6
CONTINUOUS
 10
113.6686326326
 20
120.900834386
 40
4.8895784404
100
AcDbArc
 50
120.0714047485
 51
124.3592305634
  0
ARC
  5
352
100
AcDbEntity
  8
0
100
AcDbCircle
 62
7
  6
CONTINUOUS
 10
81.7228090759
 20
65.7545300025
 40
4.7846354624
100
AcDbArc
 50
175.5936041897
 51
179.9755751277
  0
ARC
  5
353
100
AcDbEntity
  8
0
100
AcDbCircle
 62
7
  6
CONTINUOUS
 10
87.0110962383
 20
60.1610706832
 40
1.6107776455
100
AcDbArc
 50
232.8604252942
 51
239.988760486
  0
ARC
  5
354
100
AcDbEntity
  8
0
100
AcDbCircle
 62
7
  6
CONTINUOUS
 10
121.1008945867
 20
119.2068403856
 40
1.6102942696
100
AcDbArc
 50
60.010855783
 51
66.9314170156
  0
ARC
  5
355
100
AcDbEntity
  8
0
100
AcDbCircle
 62
7
  6
CONTINUOUS
 10
112.8305221495
 20
123.9885197112
 40
1.6045264123
100
AcDbArc
 50
54.6393136064
 51
60.0054014109
  0
ARC
  5
356
100
AcDbEntity
  8
0
100
AcDbCircle
 62
7
  6
CONTINUOUS
 10
78.7346902595
 20
64.9323833835
 40
1.6045155953
100
AcDbArc
 50
239.9957058214
 51
245.3576541977
  0
ARC
  5
357
100
AcDbEntity
  8
0
100
AcDbCircle
 62
7
  6
CONTINUOUS
 10
121.1045666191
 20
119.2137666904
 40
1.6024598687
100
AcDbArc
 50
58.1594881965
 51
60.0007873963
  0
ARC
  5
358
100
AcDbEntity
  8
0
100
AcDbCircle
 62
7
  6
CONTINUOUS
 10
87.0066043349
 20
60.1539141254
 40
1.602333902
100
AcDbArc
 50
239.9998513513
 51
241.8699098434
  0
ARC
  5
359
100
AcDbEntity
  8
0
100
AcDbCircle
 62
7
  6
CONTINUOUS
 10
112.8318713346
 20
123.990656412
 40
1.6020013952
100
AcDbArc
 50
60.0089892312
 51
60.4197700771
  0
ARC
  5
35A
100
AcDbEntity
  8
0
100
AcDbCircle
 62
7
  6
CONTINUOUS
 10
125.5598469861
 20
116.6423237477
 40
1.6020003034
100
AcDbArc
 50
60.0089913891
 51
61.5822525378
  0
ARC
  5
35B
100
AcDbEntity
  8
0
100
AcDbCircle
 62
7
  6
CONTINUOUS
 10
91.4614937037
 20
57.5818209556
 40
1.6019995621
100
AcDbArc
 50
238.418885266
 51
239.9921304095
  0
ARC
  5
35C
100
AcDbEntity
  8
0
100
AcDbCircle
 62
7
  6
CONTINUOUS
 10
78.7335181587
 20
64.9301535641
 40
1.6019984753
100
AcDbArc
 50
239.581338229
 51
239.9921282528
  0
ARC
  5
35D
100
AcDbEntity
  8
0
100
AcDbCircle
 62
7
  6
CONTINUOUS
 10
47.0706188982
 20
181.1911041464
 40
16.2586906508
100
AcDbArc
 50
258.708006814
 51
263.704575237
  0
ARC
  5
35E
100
AcDbEntity
  8
0
100
AcDbCircle
 62
7
  6
CONTINUOUS
 10
64.0411109913
 20
190.9889638393
 40
16.2586906508
100
AcDbArc
 50
258.708006814
 51
263.704575237
  0
ARC
  5
35F
100
AcDbEntity
  8
0
100
AcDbCircle
 62
7
  6
CONTINUOUS
 10
47.0393209432
 20
183.4382919747
 40
16.0541617764
100
AcDbArc
 50
258.6761582775
 51
263.7364237736
  0
ARC
  5
360
100
AcDbEntity
  8
0
100
AcDbCircle
 62
7
  6
CONTINUOUS
 10
64.0098130363
 20
193.2361516677
 40
16.0541617765
100
AcDbArc
 50
258.6761582775
 51
263.7364237736
  0
ARC
  5
361
100
AcDbEntity
  8
0
100
AcDbCircle
 62
7
  6
CONTINUOUS
 10
49.2316051199
 20
177.7585703351
 40
10.0304350398
100
AcDbArc
 50
296.5085953077
 51
299.9538958529
  0
ARC
  5
362
100
AcDbEntity
  8
0
100
AcDbCircle
 62
7
  6
CONTINUOUS
 10
66.202097213
 20
187.5564300281
 40
10.0304350399
100
AcDbArc
 50
296.5085953077
 51
299.9538958529
  0
ARC
  5
363
100
AcDbEntity
  8
0
100
AcDbCircle
 62
7
  6
CONTINUOUS
 10
49.3137534317
 20
175.1560575428
 40
9.8568513241
100
AcDbArc
 50
296.4782492513
 51
299.9842419093
  0
ARC
  5
364
100
AcDbEntity
  8
0
100
AcDbCircle
 62
7
  6
CONTINUOUS
 10
61.9634220955
 20
178.5456230999
 40
9.7958533659
100
AcDbArc
 50
117.8384397392
 51
119.9822164381
  0
ARC
  5
365
100
AcDbEntity
  8
0
100
AcDbCircle
 62
7
  6
CONTINUOUS
 10
44.9902889666
 20
168.7525140076
 40
9.7904186805
100
AcDbArc
 50
117.8696895449
 51
119.982722126
  0
ARC
  5
366
100
AcDbEntity
  8
0
100
AcDbCircle
 62
7
  6
CONTINUOUS
 10
44.5965179215
 20
169.4350371828
 40
9.0024507112
100
AcDbArc
 50
119.9827745882
 51
123.6848389692
  0
ARC
  5
367
100
AcDbEntity
  8
0
100
AcDbCircle
 62
7
  6
CONTINUOUS
 10
61.5670100146
 20
179.2328968758
 40
9.0024507111
100
AcDbArc
 50
119.9827745882
 51
123.6848389693
  0
ARC
  5
368
100
AcDbEntity
  8
0
100
AcDbCircle
 62
7
  6
CONTINUOUS
 10
49.7409499123
 20
176.8656299103
 40
9.0024507112
100
AcDbArc
 50
299.9827745882
 51
303.6848389692
  0
ARC
  5
369
100
AcDbEntity
  8
0
100
AcDbCircle
 62
7
  6
CONTINUOUS
 10
66.7114420055
 20
186.6634896032
 40
9.0024507112
100
AcDbArc
 50
299.9827745882
 51
303.6848389692
  0
ARC
  5
36A
100
AcDbEntity
  8
0
100
AcDbCircle
 62
7
  6
CONTINUOUS
 10
49.8292870168
 20
174.2738370213
 40
8.8350624572
100
AcDbArc
 50
299.9476925529
 51
303.7199210045
  0
ARC
  5
36B
100
AcDbEntity
  8
0
100
AcDbCircle
 62
7
  6
CONTINUOUS
 10
43.7213831948
 20
148.4692716388
 40
7.0246973728
100
AcDbArc
 50
236.4866183773
 51
239.9505301939
  0
ARC
  5
36C
100
AcDbEntity
  8
0
100
AcDbCircle
 62
7
  6
CONTINUOUS
 10
98.588112306
 20
144.5081701788
 40
6.7610566387
100
AcDbArc
 50
300.0092656966
 51
301.508732225
  0
ARC
  5
36D
100
AcDbEntity
  8
0
100
AcDbCircle
 62
7
  6
CONTINUOUS
 10
70.7862788756
 20
144.4865549601
 40
5.1562245781
100
AcDbArc
 50
263.5258730156
 51
276.4737961813
  0
ARC
  5
36E
100
AcDbEntity
  8
0
100
AcDbCircle
 62
7
  6
CONTINUOUS
 10
29.0625075972
 20
172.687621684
 40
5.1068003856
100
AcDbArc
 50
266.0731906645
 51
266.2771437937
  0
ARC
  5
36F
100
AcDbEntity
  8
0
100
AcDbCircle
 62
7
  6
CONTINUOUS
 10
106.2871838314
 20
169.0952625307
 40
5.1067891937
100
AcDbArc
 50
273.723133953
 51
273.927243542
  0
ARC
  5
370
100
AcDbEntity
  8
0
100
AcDbCircle
 62
7
  6
CONTINUOUS
 10
29.0620468347
 20
172.6809935718
 40
5.10015628
100
AcDbArc
 50
265.6065755675
 51
266.0732555267
  0
ARC
  5
371
100
AcDbEntity
  8
0
100
AcDbCircle
 62
7
  6
CONTINUOUS
 10
106.2876448463
 20
169.0886314756
 40
5.1001421348
100
AcDbArc
 50
273.9271786807
 51
274.3938670823
  0
ARC
  5
372
100
AcDbEntity
  8
0
100
AcDbCircle
 62
7
  6
CONTINUOUS
 10
45.1586045285
 20
183.5392418157
 40
3.6024865405
100
AcDbArc
 50
129.8108218451
 51
131.6285498659
  0
ARC
  5
373
100
AcDbEntity
  8
0
100
AcDbCircle
 62
7
  6
CONTINUOUS
 10
79.4217753076
 20
167.0026144074
 40
3.2685552598
100
AcDbArc
 50
54.148188492
 51
56.1930200838
  0
ARC
  5
374
100
AcDbEntity
  8
0
100
AcDbCircle
 62
7
  6
CONTINUOUS
 10
78.9550847308
 20
168.3563951681
 40
2.7543134928
100
AcDbArc
 50
58.7062448429
 51
60.0042197212
  0
ARC
  5
375
100
AcDbEntity
  8
0
100
AcDbCircle
 62
7
  6
CONTINUOUS
 10
94.4937391916
 20
136.3419136993
 40
2.0660341193
100
AcDbArc
 50
189.5582097366
 51
191.6454332382
  0
ARC
  5
376
100
AcDbEntity
  8
0
100
AcDbCircle
 62
7
  6
CONTINUOUS
 10
104.0396409939
 20
141.8532097765
 40
2.0660341192
100
AcDbArc
 50
189.5582097366
 51
191.6454332383
  0
ARC
  5
377
100
AcDbEntity
  8
0
100
AcDbCircle
 62
7
  6
CONTINUOUS
 10
53.6919158838
 20
132.5244459571
 40
2.0642975997
100
AcDbArc
 50
348.2951726532
 51
350.4397728069
  0
ARC
  5
378
100
AcDbEntity
  8
0
100
AcDbCircle
 62
7
  6
CONTINUOUS
 10
44.1459345943
 20
138.0356961431
 40
2.0642975998
100
AcDbArc
 50
348.2951726533
 51
350.4397728068
  0
ARC
  5
379
100
AcDbEntity
  8
0
100
AcDbCircle
 62
7
  6
CONTINUOUS
 10
33.2277195433
 20
146.3067859031
 40
0.9686216443
100
AcDbArc
 50
119.9994246272
 51
121.1501284935
  0
ARC
  5
37A
100
AcDbEntity
  8
0
100
AcDbCircle
 62
7
  6
CONTINUOUS
 10
86.3183662856
 20
133.5901861396
 40
0.9685859773
100
AcDbArc
 50
58.8593659045
 51
60.0018216585
  0
ARC
  5
37B
100
AcDbEntity
  8
0
100
AcDbCircle
 62
7
  6
CONTINUOUS
 10
76.9468335471
 20
161.8492795873
 40
0.8162385304
100
AcDbArc
 50
213.2929199836
 51
214.5333680427
  0
ARC
  5
37C
100
AcDbEntity
  8
0
100
AcDbCircle
 62
7
  6
CONTINUOUS
 10
333.7828544458
 20
118.3565697162
 40
297.9491830749
100
AcDbArc
 50
179.6530319219
 51
180.0011073703
  0
SPLINE
  5
37D
100
AcDbEntity
  8
0
100
AcDbSpline
 62
7
  6
CONTINUOUS
 70
0
 71
3
 72
19
 73
15
 74
0
 42
0.0000001
 43
0.0000001
 44
0.0000000001
 40
0.0
 40
0.0
 40
0.0
 40
0.0
 40
0.1286318569
 40
0.2701557821
 40
0.4172444299
 40
0.5615282561
 40
0.6301793701
 40
0.6953188225
 40
0.7563136478
 40
0.8127944348
 40
0.8647364871
 40
0.9125494784
 40
0.9571591054
 40
1.0
 40
1.0
 40
1.0
 40
1.0
 10
31.7185165458
 20
146.0630243805
 30
0.0
 10
31.7185165458
 20
145.7638602627
 30
0.0
 10
31.802213787
 20
145.1348413439
 30
0.0
 10
32.1145773948
 20
144.2111996918
 30
0.0
 10
32.5958972808
 20
143.3216353871
 30
0.0
 10
33.1141804967
 20
142.6579339625
 30
0.0
 10
33.5806130456
 20
142.208625634
 30
0.0
 10
33.9380311217
 20
141.9288037861
 30
0.0
 10
34.3012394184
 20
141.7066078166
 30
0.0
 10
34.6628782
 20
141.5467923281
 30
0.0
 10
35.015737403
 20
141.4530244514
 30
0.0
 10
35.3529086554
 20
141.4281979375
 30
0.0
 10
35.6668806334
 20
141.4742489237
 30
0.0
 10
35.8571026741
 20
141.5532736247
 30
0.0
 10
35.9433857789
 20
141.6031003753
 30
0.0
  0
SPLINE
  5
37E
100
AcDbEntity
  8
0
100
AcDbSpline
 62
7
  6
CONTINUOUS
 70
0
 71
3
 72
12
 73
8
 74
0
 42
0.0000001
 43
0.0000001
 44
0.0000000001
 40
0.0
 40
0.0
 40
0.0
 40
0.0
 40
0.2895533927
 40
0.5486500607
 40
0.7816322278
 40
0.8918394749
 40
1.0
 40
1.0
 40
1.0
 40
1.0
 10
36.2440187867
 20
143.4502835516
 30
0.0
 10
36.2440187867
 20
143.3033091037
 30
0.0
 10
36.221723345
 20
143.0238300641
 30
0.0
 10
36.1087692465
 20
142.6400395386
 30
0.0
 10
35.9463076806
 20
142.3752902019
 30
0.0
 10
35.7823653117
 20
142.2139520948
 30
0.0
 10
35.6909301681
 20
142.1501718552
 30
0.0
 10
35.6433840225
 20
142.1227217622
 30
0.0
  0
SPLINE
  5
37F
100
AcDbEntity
  8
0
100
AcDbSpline
 62
7
  6
CONTINUOUS
 70
0
 71
3
 72
10
 73
6
 74
0
 42
0.0000001
 43
0.0000001
 44
0.0000000001
 40
0.0
 40
0.0
 40
0.0
 40
0.0
 40
0.5229464116
 40
0.7647587228
 40
1.0
 40
1.0
 40
1.0
 40
1.0
 10
36.4561531643
 20
141.8452228019
 30
0.0
 10
36.6578450011
 20
141.8020172498
 30
0.0
 10
36.9663110286
 20
141.7788230933
 30
0.0
 10
37.3537717103
 20
141.8631127028
 30
0.0
 10
37.5272406272
 20
141.940174493
 30
0.0
 10
37.607596866
 20
141.9865674871
 30
0.0
  0
SPLINE
  5
380
100
AcDbEntity
  8
0
100
AcDbSpline
 62
7
  6
CONTINUOUS
 70
0
 71
3
 72
12
 73
8
 74
0
 42
0.0000001
 43
0.0000001
 44
0.0000000001
 40
0.0
 40
0.0
 40
0.0
 40
0.0
 40
0.1081591195
 40
0.218361299
 40
0.4513561916
 40
0.7104295629
 40
1.0
 40
1.0
 40
1.0
 40
1.0
 10
42.5929464462
 20
141.9251234334
 30
0.0
 10
42.5437643152
 20
141.8967217929
 30
0.0
 10
42.44919207
 20
141.8307286267
 30
0.0
 10
42.2795548584
 20
141.6638639446
 30
0.0
 10
42.1115351128
 20
141.3899588386
 30
0.0
 10
41.9946539066
 20
140.9929467105
 30
0.0
 10
41.9716046165
 20
140.7038278361
 30
0.0
 10
41.9716046165
 20
140.5517758942
 30
0.0
  0
SPLINE
  5
381
100
AcDbEntity
  8
0
100
AcDbSpline
 62
7
  6
CONTINUOUS
 70
0
 71
3
 72
19
 73
15
 74
0
 42
0.0000001
 43
0.0000001
 44
0.0000000001
 40
0.0
 40
0.0
 40
0.0
 40
0.0
 40
0.0428407238
 40
0.0874504909
 40
0.1352637852
 40
0.1872061954
 40
0.24368704
 40
0.3046814396
 40
0.3698200266
 40
0.4384699092
 40
0.5827513759
 40
0.7298403841
 40
0.8713662678
 40
1.0
 40
1.0
 40
1.0
 40
1.0
 10
41.9893957952
 20
142.1540144473
 30
0.0
 10
42.0756784693
 20
142.2038411522
 30
0.0
 10
42.2659012547
 20
142.282864182
 30
0.0
 10
42.5798736107
 20
142.3289147691
 30
0.0
 10
42.9170469752
 20
142.3040900044
 30
0.0
 10
43.2699074596
 20
142.2103198146
 30
0.0
 10
43.6315457001
 20
142.0505034351
 30
0.0
 10
43.9947516459
 20
141.8283091803
 30
0.0
 10
44.3521654943
 20
141.5484914122
 30
0.0
 10
44.8185903398
 20
141.0991901291
 30
0.0
 10
45.336872989
 20
140.435497973
 30
0.0
 10
45.8181940791
 20
139.5459343412
 30
0.0
 10
46.1305665252
 20
138.622285406
 30
0.0
 10
46.2142659113
 20
137.9932573958
 30
0.0
 10
46.2142659113
 20
137.6940889129
 30
0.0
  0
SPLINE
  5
382
100
AcDbEntity
  8
0
100
AcDbSpline
 62
7
  6
CONTINUOUS
 70
0
 71
3
 72
11
 73
7
 74
0
 42
0.0000001
 43
0.0000001
 44
0.0000000001
 40
0.0
 40
0.0
 40
0.0
 40
0.0
 40
0.2190098651
 40
0.4554836677
 40
0.7151567722
 40
1.0
 40
1.0
 40
1.0
 40
1.0
 10
41.0868061695
 20
143.0334754961
 30
0.0
 10
40.9706185628
 20
142.927845122
 30
0.0
 10
40.7600198894
 20
142.6723233955
 30
0.0
 10
40.539149002
 20
142.2050475437
 30
0.0
 10
40.4071314975
 20
141.6575933101
 30
0.0
 10
40.3806106788
 20
141.2663031434
 30
0.0
 10
40.3806106788
 20
141.0620751377
 30
0.0
  0
SPLINE
  5
383
100
AcDbEntity
  8
0
100
AcDbSpline
 62
7
  6
CONTINUOUS
 70
0
 71
3
 72
12
 73
8
 74
0
 42
0.0000001
 43
0.0000001
 44
0.0000000001
 40
0.0
 40
0.0
 40
0.0
 40
0.0
 40
0.2895802184
 40
0.5486333627
 40
0.7816359182
 40
0.8918377609
 40
1.0
 40
1.0
 40
1.0
 40
1.0
 10
59.6493300813
 20
120.8742764663
 30
0.0
 10
59.8600223717
 20
120.7526359676
 30
0.0
 10
60.2790573281
 20
120.5532742583
 30
0.0
 10
60.922660801
 20
120.3976756963
 30
0.0
 10
61.4365984227
 20
120.4112981102
 30
0.0
 10
61.8035000728
 20
120.5129290669
 30
0.0
 10
61.9706190623
 20
120.5911320453
 30
0.0
 10
62.0493152395
 20
120.6365670237
 30
0.0
  0
SPLINE
  5
384
100
AcDbEntity
  8
0
100
AcDbSpline
 62
7
  6
CONTINUOUS
 70
0
 71
3
 72
15
 73
11
 74
0
 42
0.0000001
 43
0.0000001
 44
0.0000000001
 40
0.0
 40
0.0
 40
0.0
 40
0.0
 40
0.1141555516
 40
0.2373276756
 40
0.3669773296
 40
0.5000011
 40
0.6330247168
 40
0.7626739247
 40
0.885845342
 40
1.0
 40
1.0
 40
1.0
 40
1.0
 10
29.385033845
 20
142.2661923619
 30
0.0
 10
29.385033845
 20
141.9978912023
 30
0.0
 10
29.4341770196
 20
141.4395761265
 30
0.0
 10
29.6300852984
 20
140.5972972102
 30
0.0
 10
29.9439190584
 20
139.744136216
 30
0.0
 10
30.363949706
 20
138.9121747285
 30
0.0
 10
30.8744373119
 20
138.1324400798
 30
0.0
 10
31.4563812675
 20
137.4340769918
 30
0.0
 10
32.0878623362
 20
136.8432832669
 30
0.0
 10
32.5468054106
 20
136.5215723915
 30
0.0
 10
32.7791605257
 20
136.387425138
 30
0.0
  0
SPLINE
  5
385
100
AcDbEntity
  8
0
100
AcDbSpline
 62
7
  6
CONTINUOUS
 70
0
 71
3
 72
23
 73
19
 74
0
 42
0.0000001
 43
0.0000001
 44
0.0000000001
 40
0.0
 40
0.0
 40
0.0
 40
0.0
 40
0.0623887508
 40
0.1287448192
 40
0.1983452307
 40
0.2703336926
 40
0.3437214983
 40
0.417465931
 40
0.4905029719
 40
0.5618014601
 40
0.6304098088
 40
0.6955077439
 40
0.7564651473
 40
0.8129117479
 40
0.8648209192
 40
0.9126035888
 40
0.9571854212
 40
1.0
 40
1.0
 40
1.0
 40
1.0
 10
55.760226593
 20
140.7560528261
 30
0.0
 10
56.0117079951
 20
140.6108632556
 30
0.0
 10
56.5113267456
 20
140.2769640048
 30
0.0
 10
57.2188713548
 20
139.6815697382
 30
0.0
 10
57.8951870147
 20
138.9871350963
 30
0.0
 10
58.525858957
 20
138.2086446812
 30
0.0
 10
59.0975069446
 20
137.3625263012
 30
0.0
 10
59.5979552193
 20
136.4668725277
 30
0.0
 10
60.0165089092
 20
135.5407668635
 30
0.0
 10
60.3442460658
 20
134.6039584148
 30
0.0
 10
60.574191361
 20
133.676341674
 30
0.0
 10
60.7014219263
 20
132.7774873294
 30
0.0
 10
60.7230915803
 20
131.9261750044
 30
0.0
 10
60.6382870533
 20
131.1399672325
 30
0.0
 10
60.4478073255
 20
130.4350248359
 30
0.0
 10
60.1536195503
 20
129.8262156092
 30
0.0
 10
59.7599259858
 20
129.3283987365
 30
0.0
 10
59.4327785736
 20
129.0780080427
 30
0.0
 10
59.2601991682
 20
128.9783694283
 30
0.0
  0
SPLINE
  5
386
100
AcDbEntity
  8
0
100
AcDbSpline
 62
7
  6
CONTINUOUS
 70
0
 71
3
 72
12
 73
8
 74
0
 42
0.0000001
 43
0.0000001
 44
0.0000000001
 40
0.0
 40
0.0
 40
0.0
 40
0.0
 40
0.1081591195
 40
0.218361299
 40
0.4513561916
 40
0.7104295629
 40
1.0
 40
1.0
 40
1.0
 40
1.0
 10
52.1389277357
 20
136.4138732474
 30
0.0
 10
52.0897456047
 20
136.3854716069
 30
0.0
 10
51.9951733595
 20
136.3194784407
 30
0.0
 10
51.8255361478
 20
136.1526137586
 30
0.0
 10
51.6575164023
 20
135.8787086526
 30
0.0
 10
51.5406351961
 20
135.4816965245
 30
0.0
 10
51.5175859059
 20
135.1925776501
 30
0.0
 10
51.5175859059
 20
135.0405257082
 30
0.0
  0
SPLINE
  5
387
100
AcDbEntity
  8
0
100
AcDbSpline
 62
7
  6
CONTINUOUS
 70
0
 71
3
 72
12
 73
8
 74
0
 42
0.0000001
 43
0.0000001
 44
0.0000000001
 40
0.0
 40
0.0
 40
0.0
 40
0.0
 40
0.289581202
 40
0.5486347013
 40
0.7816368512
 40
0.8918382666
 40
1.0
 40
1.0
 40
1.0
 40
1.0
 10
64.4576644365
 20
123.6504207545
 30
0.0
 10
64.4576644365
 20
123.4071282922
 30
0.0
 10
64.4208025797
 20
122.9445386302
 30
0.0
 10
64.2337531331
 20
122.3093430149
 30
0.0
 10
63.9649820974
 20
121.8710582006
 30
0.0
 10
63.6935098632
 20
121.6041210411
 30
0.0
 10
63.5422208253
 20
121.4984913205
 30
0.0
 10
63.463522914
 20
121.4530553315
 30
0.0
  0
SPLINE
  5
388
100
AcDbEntity
  8
0
100
AcDbSpline
 62
7
  6
CONTINUOUS
 70
0
 71
3
 72
19
 73
15
 74
0
 42
0.0000001
 43
0.0000001
 44
0.0000000001
 40
0.0
 40
0.0
 40
0.0
 40
0.0
 40
0.0428407238
 40
0.0874504909
 40
0.1352637852
 40
0.1872061954
 40
0.24368704
 40
0.3046814396
 40
0.3698200266
 40
0.4384699092
 40
0.5827513759
 40
0.7298403841
 40
0.8713662678
 40
1.0
 40
1.0
 40
1.0
 40
1.0
 10
51.5353770847
 20
136.6427642613
 30
0.0
 10
51.6216597587
 20
136.6925909662
 30
0.0
 10
51.8118825442
 20
136.7716139959
 30
0.0
 10
52.1258549001
 20
136.8176645831
 30
0.0
 10
52.4630282647
 20
136.7928398184
 30
0.0
 10
52.8158887491
 20
136.6990696286
 30
0.0
 10
53.1775269896
 20
136.539253249
 30
0.0
 10
53.5407329354
 20
136.3170589942
 30
0.0
 10
53.8981467838
 20
136.0372412262
 30
0.0
 10
54.3645716293
 20
135.587939943
 30
0.0
 10
54.8828542785
 20
134.924247787
 30
0.0
 10
55.3641753686
 20
134.0346841552
 30
0.0
 10
55.6765478147
 20
133.11103522
 30
0.0
 10
55.7602472008
 20
132.4820072098
 30
0.0
 10
55.7602472008
 20
132.1828387268
 30
0.0
  0
SPLINE
  5
389
100
AcDbEntity
  8
0
100
AcDbSpline
 62
7
  6
CONTINUOUS
 70
0
 71
3
 72
11
 73
7
 74
0
 42
0.0000001
 43
0.0000001
 44
0.0000000001
 40
0.0
 40
0.0
 40
0.0
 40
0.0
 40
0.2190098651
 40
0.4554836677
 40
0.7151567722
 40
1.0
 40
1.0
 40
1.0
 40
1.0
 10
50.632787459
 20
137.5222253101
 30
0.0
 10
50.5165998522
 20
137.4165949359
 30
0.0
 10
50.3060011789
 20
137.1610732095
 30
0.0
 10
50.0851302915
 20
136.6937973577
 30
0.0
 10
49.9531127869
 20
136.1463431241
 30
0.0
 10
49.9265919683
 20
135.7550529573
 30
0.0
 10
49.9265919683
 20
135.5508249516
 30
0.0
  0
SPLINE
  5
38A
100
AcDbEntity
  8
0
100
AcDbSpline
 62
7
  6
CONTINUOUS
 70
0
 71
3
 72
14
 73
10
 74
0
 42
0.0000001
 43
0.0000001
 44
0.0000000001
 40
0.0
 40
0.0
 40
0.0
 40
0.0
 40
0.1080468545
 40
0.2181297577
 40
0.332104429
 40
0.4515035364
 40
0.57745166
 40
0.7107185255
 40
1.0
 40
1.0
 40
1.0
 40
1.0
 10
33.1682914389
 20
152.1252027561
 30
0.0
 10
33.2830565106
 20
152.1914623002
 30
0.0
 10
33.5267101087
 20
152.3055955248
 30
0.0
 10
33.9209837493
 20
152.4145933729
 30
0.0
 10
34.3412838073
 20
152.4614864245
 30
0.0
 10
34.7831178649
 20
152.4461069698
 30
0.0
 10
35.2423108829
 20
152.3691030665
 30
0.0
 10
35.8892530038
 20
152.1804767709
 30
0.0
 10
36.3609937616
 20
151.9559517479
 30
0.0
 10
36.6682640141
 20
151.7785531982
 30
0.0
  0
SPLINE
  5
38B
100
AcDbEntity
  8
0
100
AcDbSpline
 62
7
  6
CONTINUOUS
 70
0
 71
3
 72
10
 73
6
 74
0
 42
0.0000001
 43
0.0000001
 44
0.0000000001
 40
0.0
 40
0.0
 40
0.0
 40
0.0
 40
0.2352955031
 40
0.4771460935
 40
1.0
 40
1.0
 40
1.0
 40
1.0
 10
33.6076196505
 20
148.9147726078
 30
0.0
 10
33.5274362293
 20
148.8684793885
 30
0.0
 10
33.3742713788
 20
148.757075383
 30
0.0
 10
33.1080147714
 20
148.4645289079
 30
0.0
 10
32.9738614025
 20
148.1866672594
 30
0.0
 10
32.9103438881
 20
147.9909773724
 30
0.0
  0
SPLINE
  5
38C
100
AcDbEntity
  8
0
100
AcDbSpline
 62
7
  6
CONTINUOUS
 70
0
 71
3
 72
12
 73
8
 74
0
 42
0.0000001
 43
0.0000001
 44
0.0000000001
 40
0.0
 40
0.0
 40
0.0
 40
0.0
 40
0.1081597158
 40
0.2183621399
 40
0.4513573357
 40
0.7104307796
 40
1.0
 40
1.0
 40
1.0
 40
1.0
 10
32.4434153887
 20
147.6652631041
 30
0.0
 10
32.3860359411
 20
147.632127632
 30
0.0
 10
32.2757013378
 20
147.5551351807
 30
0.0
 10
32.0777904115
 20
147.3604595261
 30
0.0
 10
31.8817682819
 20
147.0409024723
 30
0.0
 10
31.7454067499
 20
146.5777223243
 30
0.0
 10
31.7185165458
 20
146.2404175738
 30
0.0
 10
31.7185165458
 20
146.0630243805
 30
0.0
  0
SPLINE
  5
38D
100
AcDbEntity
  8
0
100
AcDbSpline
 62
7
  6
CONTINUOUS
 70
0
 71
3
 72
18
 73
14
 74
0
 42
0.0000001
 43
0.0000001
 44
0.0000000001
 40
0.0
 40
0.0
 40
0.0
 40
0.0
 40
0.0428472479
 40
0.0874654641
 40
0.1352875187
 40
0.1872373105
 40
0.2437297169
 40
0.3047360136
 40
0.438368952
 40
0.5826752274
 40
0.7297918525
 40
0.871341624
 40
1.0
 40
1.0
 40
1.0
 40
1.0
 10
32.7434171451
 20
147.1456417172
 30
0.0
 10
32.8149110885
 20
147.1869177317
 30
0.0
 10
32.97250519
 20
147.2524321877
 30
0.0
 10
33.2326633453
 20
147.2905604438
 30
0.0
 10
33.5120276866
 20
147.2699760236
 30
0.0
 10
33.8044036919
 20
147.1923199481
 30
0.0
 10
34.1040624897
 20
147.0598905688
 30
0.0
 10
34.5177173603
 20
146.8066897242
 30
0.0
 10
35.0105082321
 20
146.3702656353
 30
0.0
 10
35.5169303453
 20
145.7219180315
 30
0.0
 10
35.915854121
 20
144.9846225559
 30
0.0
 10
36.174666324
 20
144.2193772247
 30
0.0
 10
36.2440187867
 20
143.698169002
 30
0.0
 10
36.2440187867
 20
143.4502835516
 30
0.0
  0
SPLINE
  5
38E
100
AcDbEntity
  8
0
100
AcDbSpline
 62
7
  6
CONTINUOUS
 70
0
 71
3
 72
18
 73
14
 74
0
 42
0.0000001
 43
0.0000001
 44
0.0000000001
 40
0.0
 40
0.0
 40
0.0
 40
0.0
 40
0.1286553692
 40
0.2702039128
 40
0.4173172991
 40
0.5616261289
 40
0.6952631328
 40
0.7562695859
 40
0.8127610362
 40
0.8647127357
 40
0.9125343589
 40
0.9571517573
 40
1.0
 40
1.0
 40
1.0
 40
1.0
 10
41.9716046165
 20
140.5517758942
 30
0.0
 10
41.9716046165
 20
140.2953484084
 30
0.0
 10
42.0433526082
 20
139.7561774684
 30
0.0
 10
42.3110551942
 20
138.9645472078
 30
0.0
 10
42.7237546813
 20
138.2018396226
 30
0.0
 10
43.2476361588
 20
137.5311278748
 30
0.0
 10
43.7574099165
 20
137.0796187945
 30
0.0
 10
44.1853469078
 20
136.817698938
 30
0.0
 10
44.4953469309
 20
136.6807216917
 30
0.0
 10
44.7977947851
 20
136.6003463553
 30
0.0
 10
45.0868005065
 20
136.5790679463
 30
0.0
 10
45.3559182892
 20
136.6185399303
 30
0.0
 10
45.5189646761
 20
136.6862755353
 30
0.0
 10
45.5929211376
 20
136.7289838278
 30
0.0
  0
SPLINE
  5
38F
100
AcDbEntity
  8
0
100
AcDbSpline
 62
7
  6
CONTINUOUS
 70
0
 71
3
 72
12
 73
8
 74
0
 42
0.0000001
 43
0.0000001
 44
0.0000000001
 40
0.0
 40
0.0
 40
0.0
 40
0.0
 40
0.2895700176
 40
0.5486410293
 40
0.7816368525
 40
0.8918393703
 40
1.0
 40
1.0
 40
1.0
 40
1.0
 10
46.2142659113
 20
137.6940889129
 30
0.0
 10
46.2142659113
 20
137.5166951456
 30
0.0
 10
46.1873768943
 20
137.1793908191
 30
0.0
 10
46.0510136039
 20
136.7162124273
 30
0.0
 10
45.8549963085
 20
136.3966525991
 30
0.0
 10
45.6570813138
 20
136.201979609
 30
0.0
 10
45.5467478529
 20
136.1249845295
 30
0.0
 10
45.4893679513
 20
136.0918486601
 30
0.0
  0
SPLINE
  5
390
100
AcDbEntity
  8
0
100
AcDbSpline
 62
7
  6
CONTINUOUS
 70
0
 71
3
 72
20
 73
16
 74
0
 42
0.0000001
 43
0.0000001
 44
0.0000000001
 40
0.0
 40
0.0
 40
0.0
 40
0.0
 40
0.0612087565
 40
0.1261610212
 40
0.2644599673
 40
0.4087376424
 40
0.5516489394
 40
0.6203905653
 40
0.6862109268
 40
0.7484610507
 40
0.8066779304
 40
0.8606448529
 40
0.9104578973
 40
0.9566011284
 40
1.0
 40
1.0
 40
1.0
 40
1.0
 10
40.3806106788
 20
141.0620751377
 30
0.0
 10
40.3806106788
 20
140.875826839
 30
0.0
 10
40.4044734904
 20
140.4916831977
 30
0.0
 10
40.5387279086
 20
139.6971345262
 30
0.0
 10
40.8644111341
 20
138.684579107
 30
0.0
 10
41.4575098682
 20
137.5282021517
 30
0.0
 10
42.1002542634
 20
136.6497414294
 30
0.0
 10
42.6833439336
 20
136.0377892913
 30
0.0
 10
43.1355345677
 20
135.6436760683
 30
0.0
 10
43.5995251461
 20
135.3161544248
 30
0.0
 10
44.066744262
 20
135.0614590812
 30
0.0
 10
44.528642892
 20
134.8845515694
 30
0.0
 10
44.9770645407
 20
134.7893166656
 30
0.0
 10
45.4035883542
 20
134.7785753293
 30
0.0
 10
45.6739116051
 20
134.8302552524
 30
0.0
 10
45.7996988685
 20
134.8704581856
 30
0.0
  0
SPLINE
  5
391
100
AcDbEntity
  8
0
100
AcDbSpline
 62
7
  6
CONTINUOUS
 70
0
 71
3
 72
9
 73
5
 74
0
 42
0.0000001
 43
0.0000001
 44
0.0000000001
 40
0.0
 40
0.0
 40
0.0
 40
0.0
 40
0.5164118446
 40
1.0
 40
1.0
 40
1.0
 40
1.0
 10
44.3082685298
 20
145.8908574479
 30
0.0
 10
44.1355513633
 20
145.7540782064
 30
0.0
 10
43.8034794479
 20
145.4862096912
 30
0.0
 10
43.4791538344
 20
145.2087725118
 30
0.0
 10
43.3265088621
 20
145.0699744089
 30
0.0
  0
SPLINE
  5
392
100
AcDbEntity
  8
0
100
AcDbSpline
 62
7
  6
CONTINUOUS
 70
0
 71
3
 72
12
 73
8
 74
0
 42
0.0000001
 43
0.0000001
 44
0.0000000001
 40
0.0
 40
0.0
 40
0.0
 40
0.0
 40
0.2471893105
 40
0.4969673726
 40
0.7493019648
 40
0.875661122
 40
1.0
 40
1.0
 40
1.0
 40
1.0
 10
50.1135318926
 20
136.5161744881
 30
0.0
 10
49.87038018
 20
136.406929575
 30
0.0
 10
49.3806136551
 20
136.1893166005
 30
0.0
 10
48.6383080169
 20
135.8700542404
 30
0.0
 10
48.0108243068
 20
135.6136910288
 30
0.0
 10
47.5033888973
 20
135.4218467752
 30
0.0
 10
47.2479042927
 20
135.333190642
 30
0.0
 10
47.1201816137
 20
135.2923764565
 30
0.0
  0
SPLINE
  5
393
100
AcDbEntity
  8
0
100
AcDbSpline
 62
7
  6
CONTINUOUS
 70
0
 71
3
 72
18
 73
14
 74
0
 42
0.0000001
 43
0.0000001
 44
0.0000000001
 40
0.0
 40
0.0
 40
0.0
 40
0.0
 40
0.1286553692
 40
0.2702039128
 40
0.4173172991
 40
0.5616261289
 40
0.6952631328
 40
0.7562695859
 40
0.8127610362
 40
0.8647127357
 40
0.9125343589
 40
0.9571517573
 40
1.0
 40
1.0
 40
1.0
 40
1.0
 10
51.5175859059
 20
135.0405257082
 30
0.0
 10
51.5175859059
 20
134.7840982224
 30
0.0
 10
51.5893338977
 20
134.2449272824
 30
0.0
 10
51.8570364837
 20
133.4532970218
 30
0.0
 10
52.2697359708
 20
132.6905894366
 30
0.0
 10
52.7936174483
 20
132.0198776888
 30
0.0
 10
53.303391206
 20
131.5683686084
 30
0.0
 10
53.7313281973
 20
131.306448752
 30
0.0
 10
54.0413282204
 20
131.1694715057
 30
0.0
 10
54.3437760746
 20
131.0890961693
 30
0.0
 10
54.632781796
 20
131.0678177603
 30
0.0
 10
54.9018995787
 20
131.1072897442
 30
0.0
 10
55.0649459656
 20
131.1750253493
 30
0.0
 10
55.1389024271
 20
131.2177336418
 30
0.0
  0
SPLINE
  5
394
100
AcDbEntity
  8
0
100
AcDbSpline
 62
7
  6
CONTINUOUS
 70
0
 71
3
 72
12
 73
8
 74
0
 42
0.0000001
 43
0.0000001
 44
0.0000000001
 40
0.0
 40
0.0
 40
0.0
 40
0.0
 40
0.2895700176
 40
0.5486410293
 40
0.7816368525
 40
0.8918393703
 40
1.0
 40
1.0
 40
1.0
 40
1.0
 10
55.7602472008
 20
132.1828387268
 30
0.0
 10
55.7602472008
 20
132.0054449596
 30
0.0
 10
55.7333581837
 20
131.6681406331
 30
0.0
 10
55.5969948934
 20
131.2049622413
 30
0.0
 10
55.400977598
 20
130.8854024131
 30
0.0
 10
55.2030626033
 20
130.690729423
 30
0.0
 10
55.0927291424
 20
130.6137343435
 30
0.0
 10
55.0353492408
 20
130.5805984741
 30
0.0
  0
SPLINE
  5
395
100
AcDbEntity
  8
0
100
AcDbSpline
 62
7
  6
CONTINUOUS
 70
0
 71
3
 72
20
 73
16
 74
0
 42
0.0000001
 43
0.0000001
 44
0.0000000001
 40
0.0
 40
0.0
 40
0.0
 40
0.0
 40
0.0612087565
 40
0.1261610212
 40
0.2644599673
 40
0.4087376424
 40
0.5516489394
 40
0.6203905653
 40
0.6862109268
 40
0.7484610507
 40
0.8066779304
 40
0.8606448529
 40
0.9104578973
 40
0.9566011284
 40
1.0
 40
1.0
 40
1.0
 40
1.0
 10
49.9265919683
 20
135.5508249516
 30
0.0
 10
49.9265919683
 20
135.364576653
 30
0.0
 10
49.9504547799
 20
134.9804330117
 30
0.0
 10
50.0847091981
 20
134.1858843402
 30
0.0
 10
50.4103924236
 20
133.173328921
 30
0.0
 10
51.0034911577
 20
132.0169519656
 30
0.0
 10
51.6462355528
 20
131.1384912434
 30
0.0
 10
52.2293252231
 20
130.5265391053
 30
0.0
 10
52.6815158572
 20
130.1324258822
 30
0.0
 10
53.1455064356
 20
129.8049042388
 30
0.0
 10
53.6127255515
 20
129.5502088952
 30
0.0
 10
54.0746241815
 20
129.3733013834
 30
0.0
 10
54.5230458302
 20
129.2780664796
 30
0.0
 10
54.9495696437
 20
129.2673251433
 30
0.0
 10
55.2198928946
 20
129.3190050664
 30
0.0
 10
55.3456801579
 20
129.3592079996
 30
0.0
  0
SPLINE
  5
396
100
AcDbEntity
  8
0
100
AcDbSpline
 62
7
  6
CONTINUOUS
 70
0
 71
3
 72
9
 73
5
 74
0
 42
0.0000001
 43
0.0000001
 44
0.0000000001
 40
0.0
 40
0.0
 40
0.0
 40
0.0
 40
0.5164118446
 40
1.0
 40
1.0
 40
1.0
 40
1.0
 10
53.8542498193
 20
140.3796072619
 30
0.0
 10
53.6815326528
 20
140.2428280204
 30
0.0
 10
53.3494607374
 20
139.9749595052
 30
0.0
 10
53.0251351239
 20
139.6975223258
 30
0.0
 10
52.8724901516
 20
139.5587242228
 30
0.0
  0
SPLINE
  5
397
100
AcDbEntity
  8
0
100
AcDbSpline
 62
7
  6
CONTINUOUS
 70
0
 71
3
 72
12
 73
8
 74
0
 42
0.0000001
 43
0.0000001
 44
0.0000000001
 40
0.0
 40
0.0
 40
0.0
 40
0.0
 40
0.24598788
 40
0.4949046066
 40
0.7473667995
 40
0.8745375055
 40
1.0
 40
1.0
 40
1.0
 40
1.0
 10
60.6362138395
 20
131.4495764649
 30
0.0
 10
60.3153447751
 20
131.3018042972
 30
0.0
 10
59.6686751026
 20
131.0068878732
 30
0.0
 10
58.6872745088
 20
130.5723558614
 30
0.0
 10
57.8555461983
 20
130.2212601295
 30
0.0
 10
57.1797856897
 20
129.9575660037
 30
0.0
 10
56.8377888752
 20
129.8359698919
 30
0.0
 10
56.6661629031
 20
129.7811262705
 30
0.0
  0
SPLINE
  5
398
100
AcDbEntity
  8
0
100
AcDbSpline
 62
7
  6
CONTINUOUS
 70
0
 71
3
 72
12
 73
8
 74
0
 42
0.0000001
 43
0.0000001
 44
0.0000000001
 40
0.0
 40
0.0
 40
0.0
 40
0.0
 40
0.2891681651
 40
0.5483743399
 40
0.7816736613
 40
0.8919435443
 40
1.0
 40
1.0
 40
1.0
 40
1.0
 10
32.1427823809
 20
145.8180799278
 30
0.0
 10
32.1427823809
 20
145.9629993274
 30
0.0
 10
32.1644850982
 20
146.238765539
 30
0.0
 10
32.2741852761
 20
146.6181103635
 30
0.0
 10
32.4318754706
 20
146.8812001253
 30
0.0
 10
32.5912873117
 20
147.0430903091
 30
0.0
 10
32.6803233236
 20
147.1077340309
 30
0.0
 10
32.7266687255
 20
147.1357466789
 30
0.0
  0
SPLINE
  5
399
100
AcDbEntity
  8
0
100
AcDbSpline
 62
7
  6
CONTINUOUS
 70
0
 71
3
 72
12
 73
8
 74
0
 42
0.0000001
 43
0.0000001
 44
0.0000000001
 40
0.0
 40
0.0
 40
0.0
 40
0.0
 40
0.1081617394
 40
0.2183631591
 40
0.4513653165
 40
0.7104188067
 40
1.0
 40
1.0
 40
1.0
 40
1.0
 10
62.0493152395
 20
120.6365670237
 30
0.0
 10
62.1280131593
 20
120.6820030082
 30
0.0
 10
62.2793021982
 20
120.7876327445
 30
0.0
 10
62.5507744471
 20
121.0545699094
 30
0.0
 10
62.8195454678
 20
121.4928547385
 30
0.0
 10
63.0065949144
 20
122.1280503428
 30
0.0
 10
63.043456762
 20
122.5906399916
 30
0.0
 10
63.043456762
 20
122.8339324468
 30
0.0
  0
SPLINE
  5
39A
100
AcDbEntity
  8
0
100
AcDbSpline
 62
7
  6
CONTINUOUS
 70
0
 71
3
 72
9
 73
5
 74
0
 42
0.0000001
 43
0.0000001
 44
0.0000000001
 40
0.0
 40
0.0
 40
0.0
 40
0.0
 40
0.4842934529
 40
1.0
 40
1.0
 40
1.0
 40
1.0
 10
36.6682640141
 20
140.3475193583
 30
0.0
 10
36.4101369629
 20
140.4965457094
 30
0.0
 10
35.8975524106
 20
140.8403558937
 30
0.0
 10
35.4273511192
 20
141.2393898176
 30
0.0
 10
35.1957597094
 20
141.4564207052
 30
0.0
  0
SPLINE
  5
39B
100
AcDbEntity
  8
0
100
AcDbSpline
 62
7
  6
CONTINUOUS
 70
0
 71
3
 72
15
 73
11
 74
0
 42
0.0000001
 43
0.0000001
 44
0.0000000001
 40
0.0
 40
0.0
 40
0.0
 40
0.0
 40
0.1555254231
 40
0.3026892344
 40
0.4404877815
 40
0.5684616131
 40
0.6868437043
 40
0.7967158842
 40
0.9001187084
 40
1.0
 40
1.0
 40
1.0
 40
1.0
 10
31.9387249856
 20
147.1077342704
 30
0.0
 10
31.8743104852
 20
147.385907906
 30
0.0
 10
31.7729297419
 20
147.9333040439
 30
0.0
 10
31.7060671323
 20
148.7407150496
 30
0.0
 10
31.7293920823
 20
149.5003456452
 30
0.0
 10
31.8429414788
 20
150.1987780903
 30
0.0
 10
32.0455110179
 20
150.8237173078
 30
0.0
 10
32.3350105111
 20
151.3637258414
 30
0.0
 10
32.7074899526
 20
151.8074066223
 30
0.0
 10
33.0094836708
 20
152.0335151882
 30
0.0
 10
33.1682914389
 20
152.1252027561
 30
0.0
  0
SPLINE
  5
39C
100
AcDbEntity
  8
0
100
AcDbSpline
 62
7
  6
CONTINUOUS
 70
0
 71
3
 72
12
 73
8
 74
0
 42
0.0000001
 43
0.0000001
 44
0.0000000001
 40
0.0
 40
0.0
 40
0.0
 40
0.0
 40
0.1081593386
 40
0.2183587446
 40
0.4513618558
 40
0.7104187393
 40
1.0
 40
1.0
 40
1.0
 40
1.0
 10
37.607596866
 20
141.9865674871
 30
0.0
 10
37.6731772138
 20
142.0244297457
 30
0.0
 10
37.79925113
 20
142.1124499403
 30
0.0
 10
38.0254736633
 20
142.3348991031
 30
0.0
 10
38.2494552623
 20
142.7001346178
 30
0.0
 10
38.4053283874
 20
143.2294693508
 30
0.0
 10
38.4360471588
 20
143.6149630936
 30
0.0
 10
38.4360471588
 20
143.8177070294
 30
0.0
  0
SPLINE
  5
39D
100
AcDbEntity
  8
0
100
AcDbSpline
 62
7
  6
CONTINUOUS
 70
0
 71
3
 72
12
 73
8
 74
0
 42
0.0000001
 43
0.0000001
 44
0.0000000001
 40
0.0
 40
0.0
 40
0.0
 40
0.0
 40
0.2895810392
 40
0.5486360765
 40
0.7816397385
 40
0.8918396265
 40
1.0
 40
1.0
 40
1.0
 40
1.0
 10
41.6180144263
 20
145.6548057218
 30
0.0
 10
41.6180144263
 20
145.4520618907
 30
0.0
 10
41.5872965792
 20
145.0665692849
 30
0.0
 10
41.4314229133
 20
144.5372360737
 30
0.0
 10
41.207444033
 20
144.1719991413
 30
0.0
 10
40.9812199468
 20
143.9495496244
 30
0.0
 10
40.855146108
 20
143.8615271107
 30
0.0
 10
40.7895644642
 20
143.8236656102
 30
0.0
  0
SPLINE
  5
39E
100
AcDbEntity
  8
0
100
AcDbSpline
 62
7
  6
CONTINUOUS
 70
0
 71
3
 72
12
 73
8
 74
0
 42
0.0000001
 43
0.0000001
 44
0.0000000001
 40
0.0
 40
0.0
 40
0.0
 40
0.0
 40
0.1081597158
 40
0.2183621399
 40
0.4513573357
 40
0.7104307796
 40
1.0
 40
1.0
 40
1.0
 40
1.0
 10
35.9433857789
 20
141.6031003753
 30
0.0
 10
36.0007652265
 20
141.6362358475
 30
0.0
 10
36.1110998298
 20
141.7132282987
 30
0.0
 10
36.3090107561
 20
141.9079039533
 30
0.0
 10
36.5050328857
 20
142.2274610071
 30
0.0
 10
36.6413944178
 20
142.6906411551
 30
0.0
 10
36.6682846218
 20
143.0279459056
 30
0.0
 10
36.6682846218
 20
143.2053390989
 30
0.0
  0
SPLINE
  5
39F
100
AcDbEntity
  8
0
100
AcDbSpline
 62
7
  6
CONTINUOUS
 70
0
 71
3
 72
11
 73
7
 74
0
 42
0.0000001
 43
0.0000001
 44
0.0000000001
 40
0.0
 40
0.0
 40
0.0
 40
0.0
 40
0.2296517625
 40
0.4683644036
 40
0.7234838883
 40
1.0
 40
1.0
 40
1.0
 40
1.0
 10
55.1389024271
 20
131.2177336418
 30
0.0
 10
55.2110303405
 20
131.2593859864
 30
0.0
 10
55.3479223954
 20
131.3634078475
 30
0.0
 10
55.5138832764
 20
131.5695027505
 30
0.0
 10
55.6395319253
 20
131.8210808569
 30
0.0
 10
55.6929225355
 20
132.0074642049
 30
0.0
 10
55.7132879048
 20
132.1056623217
 30
0.0
  0
SPLINE
  5
3A0
100
AcDbEntity
  8
0
100
AcDbSpline
 62
7
  6
CONTINUOUS
 70
0
 71
3
 72
9
 73
5
 74
0
 42
0.0000001
 43
0.0000001
 44
0.0000000001
 40
0.0
 40
0.0
 40
0.0
 40
0.0
 40
0.2453100136
 40
1.0
 40
1.0
 40
1.0
 40
1.0
 10
55.7275436201
 20
132.1815986153
 30
0.0
 10
55.7304032289
 20
132.1985565272
 30
0.0
 10
55.741223479
 20
132.267824581
 30
0.0
 10
55.7487661208
 20
132.3375961412
 30
0.0
 10
55.7527772483
 20
132.3903510157
 30
0.0
  0
SPLINE
  5
3A1
100
AcDbEntity
  8
0
100
AcDbSpline
 62
7
  6
CONTINUOUS
 70
0
 71
3
 72
19
 73
15
 74
0
 42
0.0000001
 43
0.0000001
 44
0.0000000001
 40
0.0
 40
0.0
 40
0.0
 40
0.0
 40
0.0428407238
 40
0.0874504909
 40
0.1352637852
 40
0.1872061954
 40
0.24368704
 40
0.3046814396
 40
0.3698200266
 40
0.4384699092
 40
0.5827513759
 40
0.7298403841
 40
0.8713662678
 40
1.0
 40
1.0
 40
1.0
 40
1.0
 10
33.8576221802
 20
148.481752941
 30
0.0
 10
33.9439048542
 20
148.531579646
 30
0.0
 10
34.1341276397
 20
148.6106026757
 30
0.0
 10
34.4480999956
 20
148.6566532629
 30
0.0
 10
34.7852733601
 20
148.6318284982
 30
0.0
 10
35.1381338446
 20
148.5380583084
 30
0.0
 10
35.4997720851
 20
148.3782419288
 30
0.0
 10
35.8629780308
 20
148.156047674
 30
0.0
 10
36.2203918792
 20
147.8762299059
 30
0.0
 10
36.6868167247
 20
147.4269286228
 30
0.0
 10
37.205099374
 20
146.7632364668
 30
0.0
 10
37.6864204641
 20
145.873672835
 30
0.0
 10
37.9987929102
 20
144.9500238997
 30
0.0
 10
38.0824922962
 20
144.3209958896
 30
0.0
 10
38.0824922962
 20
144.0218274066
 30
0.0
  0
SPLINE
  5
3A2
100
AcDbEntity
  8
0
100
AcDbSpline
 62
7
  6
CONTINUOUS
 70
0
 71
3
 72
14
 73
10
 74
0
 42
0.0000001
 43
0.0000001
 44
0.0000000001
 40
0.0
 40
0.0
 40
0.0
 40
0.0
 40
0.0946116218
 40
0.1941452176
 40
0.3023707623
 40
0.4214080764
 40
0.5518281297
 40
0.692970665
 40
1.0
 40
1.0
 40
1.0
 40
1.0
 10
35.6433840225
 20
142.1227217622
 30
0.0
 10
35.562524047
 20
142.0760384019
 30
0.0
 10
35.3814523331
 20
142.0044699282
 30
0.0
 10
35.0813316082
 20
141.9749006121
 30
0.0
 10
34.7594415069
 20
142.0201481881
 30
0.0
 10
34.4244642547
 20
142.1370974813
 30
0.0
 10
34.0844430974
 20
142.321732998
 30
0.0
 10
33.6233342987
 20
142.6605822922
 30
0.0
 10
33.3163512042
 20
142.9853910187
 30
0.0
 10
33.1296369133
 20
143.2240200603
 30
0.0
  0
SPLINE
  5
3A3
100
AcDbEntity
  8
0
100
AcDbSpline
 62
7
  6
CONTINUOUS
 70
0
 71
3
 72
11
 73
7
 74
0
 42
0.0000001
 43
0.0000001
 44
0.0000000001
 40
0.0
 40
0.0
 40
0.0
 40
0.0
 40
0.2618132365
 40
0.5229084363
 40
0.7721130537
 40
1.0
 40
1.0
 40
1.0
 40
1.0
 10
33.1296369133
 20
143.2240200603
 30
0.0
 10
32.9779892315
 20
143.4178324396
 30
0.0
 10
32.7045693155
 20
143.8288239056
 30
0.0
 10
32.3933757969
 20
144.4873159675
 30
0.0
 10
32.194641775
 20
145.1549382801
 30
0.0
 10
32.1427823809
 20
145.6038788228
 30
0.0
 10
32.1427823809
 20
145.8180799278
 30
0.0
  0
SPLINE
  5
3A4
100
AcDbEntity
  8
0
100
AcDbSpline
 62
7
  6
CONTINUOUS
 70
0
 71
3
 72
20
 73
16
 74
0
 42
0.0000001
 43
0.0000001
 44
0.0000000001
 40
0.0
 40
0.0
 40
0.0
 40
0.0
 40
0.0624102844
 40
0.12880444
 40
0.2703017636
 40
0.4173610325
 40
0.5616161558
 40
0.6302536445
 40
0.6953787416
 40
0.7563619164
 40
0.8128326753
 40
0.8647633786
 40
0.9125660526
 40
0.957167166
 40
1.0
 40
1.0
 40
1.0
 40
1.0
 10
38.4360471588
 20
143.8177070294
 30
0.0
 10
38.4360471588
 20
143.9836261093
 30
0.0
 10
38.4135503154
 20
144.3263027365
 30
0.0
 10
38.2875094724
 20
145.0348563946
 30
0.0
 10
37.9832939149
 20
145.9344602902
 30
0.0
 10
37.4333483786
 20
146.9506155944
 30
0.0
 10
36.8410076835
 20
147.7092642527
 30
0.0
 10
36.3079426646
 20
148.2227404431
 30
0.0
 10
35.8994496222
 20
148.5425179975
 30
0.0
 10
35.4843641148
 20
148.7964710357
 30
0.0
 10
35.0710681876
 20
148.9791407841
 30
0.0
 10
34.6677913715
 20
149.0862764468
 30
0.0
 10
34.2824602789
 20
149.1146328512
 30
0.0
 10
33.9236243041
 20
149.062048021
 30
0.0
 10
33.7062360752
 20
148.9717079657
 30
0.0
 10
33.6076196505
 20
148.9147726078
 30
0.0
  0
SPLINE
  5
3A5
100
AcDbEntity
  8
0
100
AcDbSpline
 62
7
  6
CONTINUOUS
 70
0
 71
3
 72
19
 73
15
 74
0
 42
0.0000001
 43
0.0000001
 44
0.0000000001
 40
0.0
 40
0.0
 40
0.0
 40
0.0
 40
0.1286318569
 40
0.2701557821
 40
0.4172444299
 40
0.5615282561
 40
0.6301793701
 40
0.6953188225
 40
0.7563136478
 40
0.8127944348
 40
0.8647364871
 40
0.9125494784
 40
0.9571591054
 40
1.0
 40
1.0
 40
1.0
 40
1.0
 10
36.6682846218
 20
143.2053390989
 30
0.0
 10
36.6682846218
 20
143.5045032167
 30
0.0
 10
36.5845873806
 20
144.1335221355
 30
0.0
 10
36.2722237728
 20
145.0571637876
 30
0.0
 10
35.7909038868
 20
145.9467280923
 30
0.0
 10
35.2726206709
 20
146.6104295169
 30
0.0
 10
34.8061881221
 20
147.0597378454
 30
0.0
 10
34.4487700459
 20
147.3395596933
 30
0.0
 10
34.0855617492
 20
147.5617556628
 30
0.0
 10
33.7239229676
 20
147.7215711513
 30
0.0
 10
33.3710637646
 20
147.815339028
 30
0.0
 10
33.0338925122
 20
147.8401655419
 30
0.0
 10
32.7199205342
 20
147.7941145557
 30
0.0
 10
32.5296984935
 20
147.7150898547
 30
0.0
 10
32.4434153887
 20
147.6652631041
 30
0.0
  0
SPLINE
  5
3A6
100
AcDbEntity
  8
0
100
AcDbSpline
 62
7
  6
CONTINUOUS
 70
0
 71
3
 72
11
 73
7
 74
0
 42
0.0000001
 43
0.0000001
 44
0.0000000001
 40
0.0
 40
0.0
 40
0.0
 40
0.0
 40
0.2296517625
 40
0.4683644036
 40
0.7234838883
 40
1.0
 40
1.0
 40
1.0
 40
1.0
 10
45.5929211376
 20
136.7289838278
 30
0.0
 10
45.665049051
 20
136.7706361724
 30
0.0
 10
45.801941106
 20
136.8746580335
 30
0.0
 10
45.9679019869
 20
137.0807529365
 30
0.0
 10
46.0935506359
 20
137.332331043
 30
0.0
 10
46.146941246
 20
137.5187143909
 30
0.0
 10
46.1673066153
 20
137.6169125077
 30
0.0
  0
SPLINE
  5
3A7
100
AcDbEntity
  8
0
100
AcDbSpline
 62
7
  6
CONTINUOUS
 70
0
 71
3
 72
9
 73
5
 74
0
 42
0.0000001
 43
0.0000001
 44
0.0000000001
 40
0.0
 40
0.0
 40
0.0
 40
0.0
 40
0.2453100136
 40
1.0
 40
1.0
 40
1.0
 40
1.0
 10
46.1815623306
 20
137.6928488013
 30
0.0
 10
46.1844219394
 20
137.7098067132
 30
0.0
 10
46.1952421896
 20
137.779074767
 30
0.0
 10
46.2027848313
 20
137.8488463272
 30
0.0
 10
46.2067959588
 20
137.9016012017
 30
0.0
  0
SPLINE
  5
3A8
100
AcDbEntity
  8
0
100
AcDbSpline
 62
7
  6
CONTINUOUS
 70
0
 71
3
 72
19
 73
15
 74
0
 42
0.0000001
 43
0.0000001
 44
0.0000000001
 40
0.0
 40
0.0
 40
0.0
 40
0.0
 40
0.0428407238
 40
0.0874504909
 40
0.1352637852
 40
0.1872061954
 40
0.24368704
 40
0.3046814396
 40
0.3698200266
 40
0.4384699092
 40
0.5827513759
 40
0.7298403841
 40
0.8713662678
 40
1.0
 40
1.0
 40
1.0
 40
1.0
 10
55.0353492408
 20
130.5805984741
 30
0.0
 10
54.9490665668
 20
130.5307717691
 30
0.0
 10
54.7588437813
 20
130.4517487394
 30
0.0
 10
54.4448714254
 20
130.4056981523
 30
0.0
 10
54.1076980609
 20
130.4305229169
 30
0.0
 10
53.7548375765
 20
130.5242931067
 30
0.0
 10
53.3931993359
 20
130.6841094863
 30
0.0
 10
53.0299933902
 20
130.9063037411
 30
0.0
 10
52.6725795418
 20
131.1861215092
 30
0.0
 10
52.2061546963
 20
131.6354227923
 30
0.0
 10
51.687872047
 20
132.2991149484
 30
0.0
 10
51.2065509569
 20
133.1886785801
 30
0.0
 10
50.8941785109
 20
134.1123275154
 30
0.0
 10
50.8104791248
 20
134.7413555255
 30
0.0
 10
50.8104791248
 20
135.0405240085
 30
0.0
  0
SPLINE
  5
3A9
100
AcDbEntity
  8
0
100
AcDbSpline
 62
7
  6
CONTINUOUS
 70
0
 71
3
 72
11
 73
7
 74
0
 42
0.0000001
 43
0.0000001
 44
0.0000000001
 40
0.0
 40
0.0
 40
0.0
 40
0.0
 40
0.2833571739
 40
0.540436489
 40
0.7762631212
 40
1.0
 40
1.0
 40
1.0
 40
1.0
 10
43.8680462516
 20
141.8925872287
 30
0.0
 10
43.7543343362
 20
141.9442371527
 30
0.0
 10
43.5291220903
 20
142.0262120247
 30
0.0
 10
43.1882197181
 20
142.0781129175
 30
0.0
 10
42.8701529912
 20
142.0495173195
 30
0.0
 10
42.6783440849
 20
141.9744387638
 30
0.0
 10
42.5929464462
 20
141.9251234334
 30
0.0
  0
SPLINE
  5
3AA
100
AcDbEntity
  8
0
100
AcDbSpline
 62
7
  6
CONTINUOUS
 70
0
 71
3
 72
14
 73
10
 74
0
 42
0.0000001
 43
0.0000001
 44
0.0000000001
 40
0.0
 40
0.0
 40
0.0
 40
0.0
 40
0.1103473166
 40
0.2204132181
 40
0.3329880888
 40
0.4505624516
 40
0.5750610322
 40
0.7078342453
 40
1.0
 40
1.0
 40
1.0
 40
1.0
 10
55.3456801579
 20
129.3592079996
 30
0.0
 10
55.4451775666
 20
129.3910084185
 30
0.0
 10
55.6384622967
 20
129.4736852276
 30
0.0
 10
55.8995558084
 20
129.6537985415
 30
0.0
 10
56.125642071
 20
129.8858699517
 30
0.0
 10
56.3134943582
 20
130.1660945165
 30
0.0
 10
56.4612697027
 20
130.490258519
 30
0.0
 10
56.6072981385
 20
130.990834175
 30
0.0
 10
56.6441343572
 20
131.3959711201
 30
0.0
 10
56.6441343572
 20
131.6725377837
 30
0.0
  0
SPLINE
  5
3AB
100
AcDbEntity
  8
0
100
AcDbSpline
 62
7
  6
CONTINUOUS
 70
0
 71
3
 72
12
 73
8
 74
0
 42
0.0000001
 43
0.0000001
 44
0.0000000001
 40
0.0
 40
0.0
 40
0.0
 40
0.0
 40
0.2895700176
 40
0.5486410293
 40
0.7816368525
 40
0.8918393703
 40
1.0
 40
1.0
 40
1.0
 40
1.0
 10
41.2644978353
 20
140.5517741945
 30
0.0
 10
41.2644978353
 20
140.7291679617
 30
0.0
 10
41.2913868523
 20
141.0664722883
 30
0.0
 10
41.4277501426
 20
141.5296506801
 30
0.0
 10
41.6237674381
 20
141.8492105082
 30
0.0
 10
41.8216824328
 20
142.0438834983
 30
0.0
 10
41.9320158937
 20
142.1208785778
 30
0.0
 10
41.9893957952
 20
142.1540144473
 30
0.0
  0
SPLINE
  5
3AC
100
AcDbEntity
  8
0
100
AcDbSpline
 62
7
  6
CONTINUOUS
 70
0
 71
3
 72
22
 73
18
 74
0
 42
0.0000001
 43
0.0000001
 44
0.0000000001
 40
0.0
 40
0.0
 40
0.0
 40
0.0
 40
0.0635188232
 40
0.1312575918
 40
0.2023681757
 40
0.2758760439
 40
0.4253460586
 40
0.4990819407
 40
0.5705667319
 40
0.638780482
 40
0.7028861184
 40
0.762310664
 40
0.8168418062
 40
0.8667396053
 40
0.9128461174
 40
0.956623047
 40
1.0
 40
1.0
 40
1.0
 40
1.0
 10
47.0981530677
 20
137.1837879697
 30
0.0
 10
47.0981530677
 20
137.39162963
 30
0.0
 10
47.0683977396
 20
137.8214282626
 30
0.0
 10
46.9467276045
 20
138.4735313364
 30
0.0
 10
46.749206092
 20
139.1410026059
 30
0.0
 10
46.3893299163
 20
140.0345734815
 30
0.0
 10
45.9054732591
 20
140.8835423925
 30
0.0
 10
45.3194510282
 20
141.6505735897
 30
0.0
 10
44.8442073963
 20
142.1639274616
 30
0.0
 10
44.3427997597
 20
142.6055040478
 30
0.0
 10
43.8267289929
 20
142.9650127069
 30
0.0
 10
43.3077161768
 20
143.2339676067
 30
0.0
 10
42.7971927182
 20
143.4057617051
 30
0.0
 10
42.3062268372
 20
143.4753471839
 30
0.0
 10
41.8459178804
 20
143.4387456785
 30
0.0
 10
41.4292648008
 20
143.2941657524
 30
0.0
 10
41.1918271169
 20
143.1289538547
 30
0.0
 10
41.0868061695
 20
143.0334754961
 30
0.0
  0
SPLINE
  5
3AD
100
AcDbEntity
  8
0
100
AcDbSpline
 62
7
  6
CONTINUOUS
 70
0
 71
3
 72
19
 73
15
 74
0
 42
0.0000001
 43
0.0000001
 44
0.0000000001
 40
0.0
 40
0.0
 40
0.0
 40
0.0
 40
0.0428407238
 40
0.0874504909
 40
0.1352637852
 40
0.1872061954
 40
0.24368704
 40
0.3046814396
 40
0.3698200266
 40
0.4384699092
 40
0.5827513759
 40
0.7298403841
 40
0.8713662678
 40
1.0
 40
1.0
 40
1.0
 40
1.0
 10
45.4893679513
 20
136.0918486601
 30
0.0
 10
45.4030852773
 20
136.0420219551
 30
0.0
 10
45.2128624919
 20
135.9629989254
 30
0.0
 10
44.8988901359
 20
135.9169483383
 30
0.0
 10
44.5617167714
 20
135.9417731029
 30
0.0
 10
44.208856287
 20
136.0355432928
 30
0.0
 10
43.8472180465
 20
136.1953596723
 30
0.0
 10
43.4840121007
 20
136.4175539271
 30
0.0
 10
43.1265982523
 20
136.6973716952
 30
0.0
 10
42.6601734068
 20
137.1466729783
 30
0.0
 10
42.1418907575
 20
137.8103651344
 30
0.0
 10
41.6605696675
 20
138.6999287661
 30
0.0
 10
41.3481972214
 20
139.6235777014
 30
0.0
 10
41.2644978353
 20
140.2526057115
 30
0.0
 10
41.2644978353
 20
140.5517741945
 30
0.0
  0
SPLINE
  5
3AE
100
AcDbEntity
  8
0
100
AcDbSpline
 62
7
  6
CONTINUOUS
 70
0
 71
3
 72
34
 73
30
 74
0
 42
0.0000001
 43
0.0000001
 44
0.0000000001
 40
0.0
 40
0.0
 40
0.0
 40
0.0
 40
0.0436714485
 40
0.0844288119
 40
0.1033987142
 40
0.1211903748
 40
0.1375639467
 40
0.1522270279
 40
0.164862335
 40
0.1703696289
 40
0.1753719394
 40
0.1800303503
 40
0.1846899485
 40
0.1961319991
 40
0.2041631103
 40
0.2142315232
 40
0.2408923339
 40
0.2750716038
 40
0.3140803164
 40
0.3556416253
 40
0.398423795
 40
0.4417427265
 40
0.4852555802
 40
0.5722584171
 40
0.6588481892
 40
0.7448975198
 40
0.8304102918
 40
0.9154280758
 40
1.0
 40
1.0
 40
1.0
 40
1.0
 10
52.8724901516
 20
139.5587242228
 30
0.0
 10
52.8142701131
 20
139.5057854933
 30
0.0
 10
52.70296167
 20
139.402058091
 30
0.0
 10
52.5712602909
 20
139.270166666
 30
0.0
 10
52.4770816107
 20
139.1669762105
 30
0.0
 10
52.4153923416
 20
139.0937208705
 30
0.0
 10
52.3624812411
 20
139.023324716
 30
0.0
 10
52.3205046582
 20
138.9566796147
 30
0.0
 10
52.2956103332
 20
138.9026076133
 30
0.0
 10
52.2856990843
 20
138.8619405182
 30
0.0
 10
52.284104015
 20
138.8344520429
 30
0.0
 10
52.2891670667
 20
138.8087740458
 30
0.0
 10
52.3085797963
 20
138.7758043842
 30
0.0
 10
52.3499764282
 20
138.7547725989
 30
0.0
 10
52.4020826732
 20
138.7449921655
 30
0.0
 10
52.483015026
 20
138.7412479992
 30
0.0
 10
52.6104375544
 20
138.7556753755
 30
0.0
 10
52.7865642087
 20
138.7928358919
 30
0.0
 10
52.9860523511
 20
138.8475647423
 30
0.0
 10
53.1980840046
 20
138.9143089698
 30
0.0
 10
53.4156740334
 20
138.9889903777
 30
0.0
 10
53.6351455366
 20
139.0688669151
 30
0.0
 10
53.9279649791
 20
139.1800951842
 30
0.0
 10
54.2913848249
 20
139.3249286664
 30
0.0
 10
54.7234652679
 20
139.504338446
 30
0.0
 10
55.1511805321
 20
139.6871863198
 30
0.0
 10
55.574835698
 20
139.8722811663
 30
0.0
 10
55.994888818
 20
140.0589456311
 30
0.0
 10
56.2734991275
 20
140.1844612903
 30
0.0
 10
56.4123046873
 20
140.2473477913
 30
0.0
  0
SPLINE
  5
3AF
100
AcDbEntity
  8
0
100
AcDbSpline
 62
7
  6
CONTINUOUS
 70
0
 71
3
 72
9
 73
5
 74
0
 42
0.0000001
 43
0.0000001
 44
0.0000000001
 40
0.0
 40
0.0
 40
0.0
 40
0.0
 40
0.2565793853
 40
1.0
 40
1.0
 40
1.0
 40
1.0
 10
59.9409830842
 20
131.0425120691
 30
0.0
 10
59.9898831684
 20
131.0216995065
 30
0.0
 10
60.1816521539
 20
130.9434170826
 30
0.0
 10
60.3782621444
 20
130.8768220827
 30
0.0
 10
60.5265083462
 20
130.8351805903
 30
0.0
  0
SPLINE
  5
3B0
100
AcDbEntity
  8
0
100
AcDbSpline
 62
7
  6
CONTINUOUS
 70
0
 71
3
 72
9
 73
5
 74
0
 42
0.0000001
 43
0.0000001
 44
0.0000000001
 40
0.0
 40
0.0
 40
0.0
 40
0.0
 40
0.2444735579
 40
1.0
 40
1.0
 40
1.0
 40
1.0
 10
35.4045971448
 20
152.2739835533
 30
0.0
 10
35.3939718252
 20
152.2315207735
 30
0.0
 10
35.3531012988
 20
152.057187245
 30
0.0
 10
35.3224167315
 20
151.8805036002
 30
0.0
 10
35.3044305926
 20
151.7464308132
 30
0.0
  0
SPLINE
  5
3B1
100
AcDbEntity
  8
0
100
AcDbSpline
 62
7
  6
CONTINUOUS
 70
0
 71
3
 72
16
 73
12
 74
0
 42
0.0000001
 43
0.0000001
 44
0.0000000001
 40
0.0
 40
0.0
 40
0.0
 40
0.0
 40
0.2450111448
 40
0.3689264915
 40
0.4940953359
 40
0.6208473344
 40
0.7494895757
 40
0.814455243
 40
0.8793300264
 40
0.9425037136
 40
1.0
 40
1.0
 40
1.0
 40
1.0
 10
51.3793657813
 20
141.8084499027
 30
0.0
 10
51.0736115403
 20
141.5074161561
 30
0.0
 10
50.6185324099
 20
141.0486027432
 30
0.0
 10
50.0269825611
 20
140.4170281578
 30
0.0
 10
49.589521534
 20
139.9251035188
 30
0.0
 10
49.1650291131
 20
139.4111322579
 30
0.0
 10
48.8318689506
 20
138.9589313285
 30
0.0
 10
48.5912388819
 20
138.5752447974
 30
0.0
 10
48.4332023253
 20
138.2758239268
 30
0.0
 10
48.3151018278
 20
137.9723285025
 30
0.0
 10
48.2774767832
 20
137.7612353268
 30
0.0
 10
48.2774767832
 20
137.660544693
 30
0.0
  0
SPLINE
  5
3B2
100
AcDbEntity
  8
0
100
AcDbSpline
 62
7
  6
CONTINUOUS
 70
0
 71
3
 72
18
 73
14
 74
0
 42
0.0000001
 43
0.0000001
 44
0.0000000001
 40
0.0
 40
0.0
 40
0.0
 40
0.0
 40
0.1295176707
 40
0.2569642371
 40
0.3819103821
 40
0.5038527579
 40
0.622371763
 40
0.680503277
 40
0.7382528051
 40
0.7965300197
 40
0.8572842788
 40
0.9238776936
 40
1.0
 40
1.0
 40
1.0
 40
1.0
 10
50.2224545472
 20
136.9422025532
 30
0.0
 10
50.1226000574
 20
136.9340058556
 30
0.0
 10
49.9241961131
 20
136.920964688
 30
0.0
 10
49.628739841
 20
136.9140832235
 30
0.0
 10
49.3390947327
 20
136.9237053232
 30
0.0
 10
49.0578931711
 20
136.9554648153
 30
0.0
 10
48.8319799612
 20
137.0084671807
 30
0.0
 10
48.6630749991
 20
137.0754255338
 30
0.0
 10
48.5449253389
 20
137.1411973018
 30
0.0
 10
48.4380435855
 20
137.2279321378
 30
0.0
 10
48.3490076102
 20
137.3425921308
 30
0.0
 10
48.2892955611
 20
137.4904524644
 30
0.0
 10
48.2774767832
 20
137.6016591371
 30
0.0
 10
48.2774767832
 20
137.660544693
 30
0.0
  0
SPLINE
  5
3B3
100
AcDbEntity
  8
0
100
AcDbSpline
 62
7
  6
CONTINUOUS
 70
0
 71
3
 72
26
 73
22
 74
0
 42
0.0000001
 43
0.0000001
 44
0.0000000001
 40
0.0
 40
0.0
 40
0.0
 40
0.0
 40
0.0563453067
 40
0.1127398616
 40
0.1692508358
 40
0.2260257317
 40
0.2834276262
 40
0.3126750778
 40
0.3426163419
 40
0.3737469798
 40
0.4067034736
 40
0.4415486564
 40
0.4771632905
 40
0.5124591281
 40
0.5471123249
 40
0.6146849059
 40
0.6806923036
 40
0.7456671326
 40
0.8099248018
 40
0.8736576633
 40
1.0
 40
1.0
 40
1.0
 40
1.0
 10
47.4063260288
 20
145.5795367255
 30
0.0
 10
47.315425654
 20
145.4432713218
 30
0.0
 10
47.1375792657
 20
145.1678871663
 30
0.0
 10
46.8865835208
 20
144.7445268301
 30
0.0
 10
46.6568860192
 20
144.3076199837
 30
0.0
 10
46.4580634209
 20
143.8524814724
 30
0.0
 10
46.3331944107
 20
143.4528968847
 30
0.0
 10
46.2778748942
 20
143.1178411398
 30
0.0
 10
46.2689306105
 20
142.8544299792
 30
0.0
 10
46.3094942221
 20
142.581997164
 30
0.0
 10
46.4230728421
 20
142.3134861768
 30
0.0
 10
46.6198503193
 20
142.080316706
 30
0.0
 10
46.8752416057
 20
141.9043693709
 30
0.0
 10
47.1573718295
 20
141.7805780573
 30
0.0
 10
47.5419490002
 20
141.6686495673
 30
0.0
 10
48.027339177
 20
141.5956934138
 30
0.0
 10
48.6042698703
 20
141.5672313788
 30
0.0
 10
49.172090775
 20
141.576065299
 30
0.0
 10
49.7321519853
 20
141.610198648
 30
0.0
 10
50.4683162554
 20
141.680049899
 30
0.0
 10
51.0162037199
 20
141.7535294407
 30
0.0
 10
51.3793657813
 20
141.8084499027
 30
0.0
  0
SPLINE
  5
3B4
100
AcDbEntity
  8
0
100
AcDbSpline
 62
7
  6
CONTINUOUS
 70
0
 71
3
 72
11
 73
7
 74
0
 42
0.0000001
 43
0.0000001
 44
0.0000000001
 40
0.0
 40
0.0
 40
0.0
 40
0.0
 40
0.2833571739
 40
0.540436489
 40
0.7762631212
 40
1.0
 40
1.0
 40
1.0
 40
1.0
 10
53.4140275411
 20
136.3813370427
 30
0.0
 10
53.3003156257
 20
136.4329869667
 30
0.0
 10
53.0751033797
 20
136.5149618387
 30
0.0
 10
52.7342010076
 20
136.5668627315
 30
0.0
 10
52.4161342807
 20
136.5382671335
 30
0.0
 10
52.2243253744
 20
136.4631885777
 30
0.0
 10
52.1389277357
 20
136.4138732474
 30
0.0
  0
SPLINE
  5
3B5
100
AcDbEntity
  8
0
100
AcDbSpline
 62
7
  6
CONTINUOUS
 70
0
 71
3
 72
12
 73
8
 74
0
 42
0.0000001
 43
0.0000001
 44
0.0000000001
 40
0.0
 40
0.0
 40
0.0
 40
0.0
 40
0.2895700176
 40
0.5486410293
 40
0.7816368525
 40
0.8918393703
 40
1.0
 40
1.0
 40
1.0
 40
1.0
 10
38.0824922962
 20
144.0218274066
 30
0.0
 10
38.0824922962
 20
143.8444336394
 30
0.0
 10
38.0556032792
 20
143.5071293128
 30
0.0
 10
37.9192399889
 20
143.0439509211
 30
0.0
 10
37.7232226934
 20
142.7243910929
 30
0.0
 10
37.5253076987
 20
142.5297181028
 30
0.0
 10
37.4149742378
 20
142.4527230233
 30
0.0
 10
37.3575943363
 20
142.4195871538
 30
0.0
  0
SPLINE
  5
3B6
100
AcDbEntity
  8
0
100
AcDbSpline
 62
7
  6
CONTINUOUS
 70
0
 71
3
 72
14
 73
10
 74
0
 42
0.0000001
 43
0.0000001
 44
0.0000000001
 40
0.0
 40
0.0
 40
0.0
 40
0.0
 40
0.1080468545
 40
0.2181297577
 40
0.332104429
 40
0.4515035364
 40
0.57745166
 40
0.7107185255
 40
1.0
 40
1.0
 40
1.0
 40
1.0
 10
59.2601991682
 20
128.9783694283
 30
0.0
 10
59.1454340965
 20
128.9121098843
 30
0.0
 10
58.9017804984
 20
128.7979766597
 30
0.0
 10
58.5075068578
 20
128.6889788115
 30
0.0
 10
58.0872067998
 20
128.64208576
 30
0.0
 10
57.6453727421
 20
128.6574652146
 30
0.0
 10
57.1861797241
 20
128.7344691179
 30
0.0
 10
56.5392376033
 20
128.9230954135
 30
0.0
 10
56.0674968455
 20
129.1476204366
 30
0.0
 10
55.760226593
 20
129.3250189863
 30
0.0
  0
SPLINE
  5
3B7
100
AcDbEntity
  8
0
100
AcDbSpline
 62
7
  6
CONTINUOUS
 70
0
 71
3
 72
14
 73
10
 74
0
 42
0.0000001
 43
0.0000001
 44
0.0000000001
 40
0.0
 40
0.0
 40
0.0
 40
0.0
 40
0.1103473166
 40
0.2204132181
 40
0.3329880888
 40
0.4505624516
 40
0.5750610322
 40
0.7078342453
 40
1.0
 40
1.0
 40
1.0
 40
1.0
 10
45.7996988685
 20
134.8704581856
 30
0.0
 10
45.8991962771
 20
134.9022586045
 30
0.0
 10
46.0924810072
 20
134.9849354136
 30
0.0
 10
46.3535745189
 20
135.1650487275
 30
0.0
 10
46.5796607815
 20
135.3971201377
 30
0.0
 10
46.7675130688
 20
135.6773447025
 30
0.0
 10
46.9152884132
 20
136.0015087051
 30
0.0
 10
47.061316849
 20
136.502084361
 30
0.0
 10
47.0981530677
 20
136.9072213061
 30
0.0
 10
47.0981530677
 20
137.1837879697
 30
0.0
  0
SPLINE
  5
3B8
100
AcDbEntity
  8
0
100
AcDbSpline
 62
7
  6
CONTINUOUS
 70
0
 71
3
 72
12
 73
8
 74
0
 42
0.0000001
 43
0.0000001
 44
0.0000000001
 40
0.0
 40
0.0
 40
0.0
 40
0.0
 40
0.2895700176
 40
0.5486410293
 40
0.7816368525
 40
0.8918393703
 40
1.0
 40
1.0
 40
1.0
 40
1.0
 10
50.8104791248
 20
135.0405240085
 30
0.0
 10
50.8104791248
 20
135.2179177757
 30
0.0
 10
50.8373681418
 20
135.5552221023
 30
0.0
 10
50.9737314321
 20
136.018400494
 30
0.0
 10
51.1697487276
 20
136.3379603222
 30
0.0
 10
51.3676637223
 20
136.5326333123
 30
0.0
 10
51.4779971832
 20
136.6096283918
 30
0.0
 10
51.5353770847
 20
136.6427642613
 30
0.0
  0
SPLINE
  5
3B9
100
AcDbEntity
  8
0
100
AcDbSpline
 62
7
  6
CONTINUOUS
 70
0
 71
3
 72
22
 73
18
 74
0
 42
0.0000001
 43
0.0000001
 44
0.0000000001
 40
0.0
 40
0.0
 40
0.0
 40
0.0
 40
0.0635188232
 40
0.1312575918
 40
0.2023681757
 40
0.2758760439
 40
0.4253460586
 40
0.4990819407
 40
0.5705667319
 40
0.638780482
 40
0.7028861184
 40
0.762310664
 40
0.8168418062
 40
0.8667396053
 40
0.9128461174
 40
0.956623047
 40
1.0
 40
1.0
 40
1.0
 40
1.0
 10
56.6441343572
 20
131.6725377837
 30
0.0
 10
56.6441343572
 20
131.880379444
 30
0.0
 10
56.6143790291
 20
132.3101780766
 30
0.0
 10
56.4927088939
 20
132.9622811504
 30
0.0
 10
56.2951873814
 20
133.6297524199
 30
0.0
 10
55.9353112058
 20
134.5233232955
 30
0.0
 10
55.4514545486
 20
135.3722922064
 30
0.0
 10
54.8654323177
 20
136.1393234037
 30
0.0
 10
54.3901886857
 20
136.6526772756
 30
0.0
 10
53.8887810492
 20
137.0942538618
 30
0.0
 10
53.3727102824
 20
137.4537625209
 30
0.0
 10
52.8536974662
 20
137.7227174207
 30
0.0
 10
52.3431740077
 20
137.8945115191
 30
0.0
 10
51.8522081267
 20
137.9640969979
 30
0.0
 10
51.3918991699
 20
137.9274954925
 30
0.0
 10
50.9752460903
 20
137.7829155664
 30
0.0
 10
50.7378084064
 20
137.6177036686
 30
0.0
 10
50.632787459
 20
137.5222253101
 30
0.0
  0
SPLINE
  5
3BA
100
AcDbEntity
  8
0
100
AcDbSpline
 62
7
  6
CONTINUOUS
 70
0
 71
3
 72
34
 73
30
 74
0
 42
0.0000001
 43
0.0000001
 44
0.0000000001
 40
0.0
 40
0.0
 40
0.0
 40
0.0
 40
0.0433538602
 40
0.0837388426
 40
0.1200132983
 40
0.1360801004
 40
0.1503704549
 40
0.1625632966
 40
0.1678445091
 40
0.1726569473
 40
0.1772310964
 40
0.1820115382
 40
0.187607036
 40
0.1946221565
 40
0.2035280571
 40
0.2146029771
 40
0.2432469768
 40
0.2788198939
 40
0.3185175982
 40
0.3602922184
 40
0.4030227164
 40
0.4461487151
 40
0.4893933118
 40
0.5757535506
 40
0.6616482786
 40
0.7469902362
 40
0.8317977414
 40
0.9161174354
 40
1.0
 40
1.0
 40
1.0
 40
1.0
 10
43.3265088621
 20
145.0699744089
 30
0.0
 10
43.2671950906
 20
145.016041162
 30
0.0
 10
43.1538901801
 20
144.910446826
 30
0.0
 10
42.9973183649
 20
144.7531125708
 30
0.0
 10
42.8834552696
 20
144.6246017024
 30
0.0
 10
42.8101301504
 20
144.5254181624
 30
0.0
 10
42.769162508
 20
144.4581540929
 30
0.0
 10
42.7459177646
 20
144.4036345325
 30
0.0
 10
42.7384040091
 20
144.362909677
 30
0.0
 10
42.7391487232
 20
144.3355214233
 30
0.0
 10
42.7475456393
 20
144.3101911674
 30
0.0
 10
42.7653895925
 20
144.2882889771
 30
0.0
 10
42.7932964773
 20
144.271353531
 30
0.0
 10
42.8316904783
 20
144.2598698026
 30
0.0
 10
42.8814597057
 20
144.2541609019
 30
0.0
 10
42.9715246664
 20
144.255004075
 30
0.0
 10
43.1097788264
 20
144.2750136014
 30
0.0
 10
43.2970063928
 20
144.318460345
 30
0.0
 10
43.5050541303
 20
144.3784476337
 30
0.0
 10
43.7234972732
 20
144.4494417717
 30
0.0
 10
43.9462059032
 20
144.5276066128
 30
0.0
 10
44.1700980558
 20
144.6104749973
 30
0.0
 10
44.4681877746
 20
144.7252235599
 30
0.0
 10
44.8378852347
 20
144.8740081428
 30
0.0
 10
45.2773343122
 20
145.0578282513
 30
0.0
 10
45.7122972673
 20
145.2448652364
 30
0.0
 10
46.1431596411
 20
145.4340243951
 30
0.0
 10
46.5704092627
 20
145.6246753216
 30
0.0
 10
46.8538206976
 20
145.7528149715
 30
0.0
 10
46.9950260964
 20
145.8170081186
 30
0.0
  0
SPLINE
  5
3BB
100
AcDbEntity
  8
0
100
AcDbSpline
 62
7
  6
CONTINUOUS
 70
0
 71
3
 72
16
 73
12
 74
0
 42
0.0000001
 43
0.0000001
 44
0.0000000001
 40
0.0
 40
0.0
 40
0.0
 40
0.0
 40
0.2466666411
 40
0.3714925721
 40
0.4975699977
 40
0.6250870752
 40
0.7539421404
 40
0.8184977996
 40
0.8823135958
 40
0.9437485422
 40
1.0
 40
1.0
 40
1.0
 40
1.0
 10
60.0505061871
 20
135.411935752
 30
0.0
 10
59.8225098095
 20
135.1737901662
 30
0.0
 10
59.4841447695
 20
134.8101947331
 30
0.0
 10
59.0477223772
 20
134.3083002728
 30
0.0
 10
58.7274439973
 20
133.9166798943
 30
0.0
 10
58.4207827694
 20
133.5075134529
 30
0.0
 10
58.185401092
 20
133.1481909044
 30
0.0
 10
58.0212106711
 20
132.8458744822
 30
0.0
 10
57.9178026281
 20
132.6137774378
 30
0.0
 10
57.8446070358
 20
132.3818438422
 30
0.0
 10
57.8234580727
 20
132.2244792086
 30
0.0
 10
57.8234580727
 20
132.149294507
 30
0.0
  0
SPLINE
  5
3BC
100
AcDbEntity
  8
0
100
AcDbSpline
 62
7
  6
CONTINUOUS
 70
0
 71
3
 72
27
 73
23
 74
0
 42
0.0000001
 43
0.0000001
 44
0.0000000001
 40
0.0
 40
0.0
 40
0.0
 40
0.0
 40
0.0562936243
 40
0.1126372675
 40
0.1690819598
 40
0.2257262083
 40
0.2827745349
 40
0.3406985563
 40
0.3703577429
 40
0.4008249716
 40
0.4325335493
 40
0.4658957001
 40
0.5008016191
 40
0.5363957127
 40
0.5718322032
 40
0.6067623299
 40
0.675016342
 40
0.741689936
 40
0.8072617081
 40
0.8720473339
 40
0.936248705
 40
1.0
 40
1.0
 40
1.0
 40
1.0
 10
56.8465098373
 20
139.9075850734
 30
0.0
 10
56.7721611456
 20
139.7931008725
 30
0.0
 10
56.6265054566
 20
139.5619862558
 30
0.0
 10
56.419771683
 20
139.2077959395
 30
0.0
 10
56.2282374118
 20
138.8441315481
 30
0.0
 10
56.0573075471
 20
138.4682611236
 30
0.0
 10
55.9161196365
 20
138.0762434178
 30
0.0
 10
55.837598302
 20
137.7327139829
 30
0.0
 10
55.8157269933
 20
137.4466825102
 30
0.0
 10
55.8284225385
 20
137.2234915433
 30
0.0
 10
55.8823118082
 20
136.9965755398
 30
0.0
 10
55.9905925145
 20
136.7769655334
 30
0.0
 10
56.1559927152
 20
136.5836747521
 30
0.0
 10
56.3636764368
 20
136.4295976471
 30
0.0
 10
56.5940430161
 20
136.3137365929
 30
0.0
 10
56.9115297031
 20
136.2014469287
 30
0.0
 10
57.3164336497
 20
136.1176402209
 30
0.0
 10
57.8007347387
 20
136.070140075
 30
0.0
 10
58.2786370272
 20
136.0569685425
 30
0.0
 10
58.7504426264
 20
136.0674403952
 30
0.0
 10
59.2170751948
 20
136.0952016173
 30
0.0
 10
59.5261775748
 20
136.1226029904
 30
0.0
 10
59.6799952505
 20
136.138056542
 30
0.0
  0
SPLINE
  5
3BD
100
AcDbEntity
  8
0
100
AcDbSpline
 62
7
  6
CONTINUOUS
 70
0
 71
3
 72
19
 73
15
 74
0
 42
0.0000001
 43
0.0000001
 44
0.0000000001
 40
0.0
 40
0.0
 40
0.0
 40
0.0
 40
0.1314963855
 40
0.2611822886
 40
0.3886019298
 40
0.513125141
 40
0.6339043283
 40
0.6926670345
 40
0.7503086601
 40
0.8071952426
 40
0.8647242301
 40
0.8949086692
 40
0.9269983115
 40
1.0
 40
1.0
 40
1.0
 40
1.0
 10
60.6330409553
 20
131.5357634349
 30
0.0
 10
60.4947865903
 20
131.5145514875
 30
0.0
 10
60.2196372365
 20
131.4758198012
 30
0.0
 10
59.808594807
 20
131.4313903412
 30
0.0
 10
59.4033155412
 20
131.4051151251
 30
0.0
 10
59.0066066616
 20
131.403439935
 30
0.0
 10
58.6834551371
 20
131.4314335377
 30
0.0
 10
58.4360674989
 20
131.4826221626
 30
0.0
 10
58.2602242055
 20
131.5395940902
 30
0.0
 10
58.0960329952
 20
131.6226251823
 30
0.0
 10
57.976811494
 20
131.7233332657
 30
0.0
 10
57.9018545064
 20
131.8271777889
 30
0.0
 10
57.8398522638
 20
131.957855438
 30
0.0
 10
57.8234580727
 20
132.0716429235
 30
0.0
 10
57.8234580727
 20
132.149294507
 30
0.0
  0
SPLINE
  5
3BE
100
AcDbEntity
  8
0
100
AcDbSpline
 62
7
  6
CONTINUOUS
 70
0
 71
3
 72
12
 73
8
 74
0
 42
0.0000001
 43
0.0000001
 44
0.0000000001
 40
0.0
 40
0.0
 40
0.0
 40
0.0
 40
0.2895709725
 40
0.5486422641
 40
0.7816376893
 40
0.89183982
 40
1.0
 40
1.0
 40
1.0
 40
1.0
 10
87.827531337
 20
133.3464068016
 30
0.0
 10
87.827531337
 20
133.5238013689
 30
0.0
 10
87.8006423437
 20
133.8611068639
 30
0.0
 10
87.6642789329
 20
134.3242863798
 30
0.0
 10
87.468261208
 20
134.6438462318
 30
0.0
 10
87.2703457495
 20
134.8385181912
 30
0.0
 10
87.160012099
 20
134.9155124184
 30
0.0
 10
87.1026321276
 20
134.9486477767
 30
0.0
  0
SPLINE
  5
3BF
100
AcDbEntity
  8
0
100
AcDbSpline
 62
7
  6
CONTINUOUS
 70
0
 71
3
 72
18
 73
14
 74
0
 42
0.0000001
 43
0.0000001
 44
0.0000000001
 40
0.0
 40
0.0
 40
0.0
 40
0.0
 40
0.1286568221
 40
0.2702040422
 40
0.4173194932
 40
0.5616281068
 40
0.6952637526
 40
0.7562705005
 40
0.8127630805
 40
0.8647125873
 40
0.9125341774
 40
0.9571523806
 40
1.0
 40
1.0
 40
1.0
 40
1.0
 10
83.3020667788
 20
130.7336442168
 30
0.0
 10
83.3020667788
 20
130.9815257985
 30
0.0
 10
83.3714163692
 20
131.5027241806
 30
0.0
 10
83.6302166891
 20
132.2679594545
 30
0.0
 10
84.0291295436
 20
133.0052545697
 30
0.0
 10
84.5355478504
 20
133.6536105573
 30
0.0
 10
85.0283377368
 20
134.090048803
 30
0.0
 10
85.4419950468
 20
134.3432546937
 30
0.0
 10
85.7416508091
 20
134.4756892285
 30
0.0
 10
86.0340241724
 20
134.5533486202
 30
0.0
 10
86.3133854588
 20
134.5739323416
 30
0.0
 10
86.5735443329
 20
134.5358137588
 30
0.0
 10
86.7311373999
 20
134.4702962777
 30
0.0
 10
86.8026326046
 20
134.4290215989
 30
0.0
  0
SPLINE
  5
3C0
100
AcDbEntity
  8
0
100
AcDbSpline
 62
7
  6
CONTINUOUS
 70
0
 71
3
 72
10
 73
6
 74
0
 42
0.0000001
 43
0.0000001
 44
0.0000000001
 40
0.0
 40
0.0
 40
0.0
 40
0.0
 40
0.5228926002
 40
0.7647292793
 40
1.0
 40
1.0
 40
1.0
 40
1.0
 10
86.6361085668
 20
135.2730652941
 30
0.0
 10
86.5726313324
 20
135.4690314187
 30
0.0
 10
86.4384724092
 20
135.7473053471
 30
0.0
 10
86.171996855
 20
136.0402690988
 30
0.0
 10
86.018680141
 20
136.1518120493
 30
0.0
 10
85.9384124146
 20
136.1981513238
 30
0.0
  0
SPLINE
  5
3C1
100
AcDbEntity
  8
0
100
AcDbSpline
 62
7
  6
CONTINUOUS
 70
0
 71
3
 72
18
 73
14
 74
0
 42
0.0000001
 43
0.0000001
 44
0.0000000001
 40
0.0
 40
0.0
 40
0.0
 40
0.0
 40
0.0428475388
 40
0.0874645981
 40
0.1352861052
 40
0.1872378663
 40
0.243729151
 40
0.3047349736
 40
0.4383698049
 40
0.5826767595
 40
0.7297914406
 40
0.8713426305
 40
1.0
 40
1.0
 40
1.0
 40
1.0
 10
93.0450453478
 20
135.0348865557
 30
0.0
 10
93.1190005737
 20
134.9921795242
 30
0.0
 10
93.282045638
 20
134.9244474704
 30
0.0
 10
93.5511603127
 20
134.8849789945
 30
0.0
 10
93.8401643007
 20
134.9062571457
 30
0.0
 10
94.14260974
 20
134.9866364161
 30
0.0
 10
94.4526055826
 20
135.123616166
 30
0.0
 10
94.8805346293
 20
135.3855343176
 30
0.0
 10
95.3902957733
 20
135.8370396279
 30
0.0
 10
95.9141723254
 20
136.5077442457
 30
0.0
 10
96.3268696406
 20
137.2704542892
 30
0.0
 10
96.5945773568
 20
138.0620921464
 30
0.0
 10
96.6663263582
 20
138.6012706
 30
0.0
 10
96.6663263582
 20
138.8577011792
 30
0.0
  0
SPLINE
  5
3C2
100
AcDbEntity
  8
0
100
AcDbSpline
 62
7
  6
CONTINUOUS
 70
0
 71
3
 72
12
 73
8
 74
0
 42
0.0000001
 43
0.0000001
 44
0.0000000001
 40
0.0
 40
0.0
 40
0.0
 40
0.0
 40
0.1081592661
 40
0.2183613031
 40
0.4513561008
 40
0.7104298246
 40
1.0
 40
1.0
 40
1.0
 40
1.0
 10
93.1486063713
 20
134.3977543558
 30
0.0
 10
93.0912268539
 20
134.4308893169
 30
0.0
 10
92.980892061
 20
134.5078809158
 30
0.0
 10
92.7829806709
 20
134.7025555396
 30
0.0
 10
92.5869581118
 20
135.0221126173
 30
0.0
 10
92.4505964592
 20
135.4852938894
 30
0.0
 10
92.4237062789
 20
135.8225998083
 30
0.0
 10
92.4237062789
 20
135.9999938017
 30
0.0
  0
SPLINE
  5
3C3
100
AcDbEntity
  8
0
100
AcDbSpline
 62
7
  6
CONTINUOUS
 70
0
 71
3
 72
13
 73
9
 74
0
 42
0.0000001
 43
0.0000001
 44
0.0000000001
 40
0.0
 40
0.0
 40
0.0
 40
0.0
 40
0.1257671048
 40
0.2531249145
 40
0.3798466075
 40
0.505581113
 40
0.7542803556
 40
1.0
 40
1.0
 40
1.0
 40
1.0
 10
91.5177934454
 20
133.5982723461
 30
0.0
 10
91.3330311296
 20
133.6573125256
 30
0.0
 10
90.9653061924
 20
133.7889693374
 30
0.0
 10
90.4201104601
 20
134.0033648924
 30
0.0
 10
89.8791058453
 20
134.2280485215
 30
0.0
 10
89.1690698256
 20
134.5334343716
 30
0.0
 10
88.2955348258
 20
134.9230323838
 30
0.0
 10
87.6024524038
 20
135.2409817762
 30
0.0
 10
87.2585810639
 20
135.4002510575
 30
0.0
  0
SPLINE
  5
3C4
100
AcDbEntity
  8
0
100
AcDbSpline
 62
7
  6
CONTINUOUS
 70
0
 71
3
 72
20
 73
16
 74
0
 42
0.0000001
 43
0.0000001
 44
0.0000000001
 40
0.0
 40
0.0
 40
0.0
 40
0.0
 40
0.0433990618
 40
0.0895426293
 40
0.1393560545
 40
0.1933231922
 40
0.2515400029
 40
0.3137897061
 40
0.3796092146
 40
0.4483496932
 40
0.5912588438
 40
0.735536404
 40
0.8738368429
 40
0.9387906177
 40
1.0
 40
1.0
 40
1.0
 40
1.0
 10
92.8382764378
 20
133.1763621685
 30
0.0
 10
92.9640639353
 20
133.1361593163
 30
0.0
 10
93.234389139
 20
133.084484157
 30
0.0
 10
93.6609141929
 20
133.0952289047
 30
0.0
 10
94.1093361443
 20
133.1904707877
 30
0.0
 10
94.5712323944
 20
133.3673847726
 30
0.0
 10
95.0384461498
 20
133.6220850096
 30
0.0
 10
95.5024280912
 20
133.94960886
 30
0.0
 10
95.9546083109
 20
134.3437201387
 30
0.0
 10
96.5376822187
 20
134.9556663873
 30
0.0
 10
97.1804157102
 20
135.8341180828
 30
0.0
 10
97.7735067723
 20
136.9904918222
 30
0.0
 10
98.0991945925
 20
138.0030518561
 30
0.0
 10
98.2334484504
 20
138.7976094837
 30
0.0
 10
98.2573129359
 20
139.1817584044
 30
0.0
 10
98.2573129359
 20
139.3680080712
 30
0.0
  0
SPLINE
  5
3C5
100
AcDbEntity
  8
0
100
AcDbSpline
 62
7
  6
CONTINUOUS
 70
0
 71
3
 72
9
 73
5
 74
0
 42
0.0000001
 43
0.0000001
 44
0.0000000001
 40
0.0
 40
0.0
 40
0.0
 40
0.0
 40
0.4835873803
 40
1.0
 40
1.0
 40
1.0
 40
1.0
 10
95.3114262611
 20
143.3758657624
 30
0.0
 10
95.1587747278
 20
143.5146683194
 30
0.0
 10
94.8344328953
 20
143.7921126415
 30
0.0
 10
94.5023451569
 20
144.0599884546
 30
0.0
 10
94.329619436
 20
144.1967714995
 30
0.0
  0
SPLINE
  5
3C6
100
AcDbEntity
  8
0
100
AcDbSpline
 62
7
  6
CONTINUOUS
 70
0
 71
3
 72
15
 73
11
 74
0
 42
0.0000001
 43
0.0000001
 44
0.0000000001
 40
0.0
 40
0.0
 40
0.0
 40
0.0
 40
0.1141543519
 40
0.237325601
 40
0.366974755
 40
0.4999984147
 40
0.6330222943
 40
0.7626720931
 40
0.8858443543
 40
1.0
 40
1.0
 40
1.0
 40
1.0
 10
105.8586585782
 20
134.6933946146
 30
0.0
 10
106.0910119641
 20
134.8275431037
 30
0.0
 10
106.5499515022
 20
135.1492564753
 30
0.0
 10
107.1814272475
 20
135.7400532781
 30
0.0
 10
107.7633662721
 20
136.4384191823
 30
0.0
 10
108.2738495335
 20
137.2181562476
 30
0.0
 10
108.6938765877
 20
138.0501196688
 30
0.0
 10
109.0077076342
 20
138.9032820192
 30
0.0
 10
109.2036142226
 20
139.7455616609
 30
0.0
 10
109.2527569968
 20
140.3038769352
 30
0.0
 10
109.2527569968
 20
140.5721781554
 30
0.0
  0
SPLINE
  5
3C7
100
AcDbEntity
  8
0
100
AcDbSpline
 62
7
  6
CONTINUOUS
 70
0
 71
3
 72
14
 73
10
 74
0
 42
0.0000001
 43
0.0000001
 44
0.0000000001
 40
0.0
 40
0.0
 40
0.0
 40
0.0
 40
0.2892791457
 40
0.4225450404
 40
0.5484933843
 40
0.6678929979
 40
0.7818680973
 40
0.8919518968
 40
1.0
 40
1.0
 40
1.0
 40
1.0
 10
101.9695874735
 20
150.0845039783
 30
0.0
 10
102.2768504141
 20
150.2619012608
 30
0.0
 10
102.7485800307
 20
150.4864255674
 30
0.0
 10
103.3955087918
 20
150.6750565898
 30
0.0
 10
103.8546953672
 20
150.752063568
 30
0.0
 10
104.2965255428
 20
150.7674513824
 30
0.0
 10
104.7168232142
 20
150.7205607861
 30
0.0
 10
105.1110971088
 20
150.6115696694
 30
0.0
 10
105.3547506559
 20
150.4974372216
 30
0.0
 10
105.4695163495
 20
150.4311787617
 30
0.0
  0
SPLINE
  5
3C8
100
AcDbEntity
  8
0
100
AcDbSpline
 62
7
  6
CONTINUOUS
 70
0
 71
3
 72
18
 73
14
 74
0
 42
0.0000001
 43
0.0000001
 44
0.0000000001
 40
0.0
 40
0.0
 40
0.0
 40
0.0
 40
0.0428475388
 40
0.0874645981
 40
0.1352861052
 40
0.1872378663
 40
0.243729151
 40
0.3047349736
 40
0.4383698049
 40
0.5826767595
 40
0.7297914406
 40
0.8713426305
 40
1.0
 40
1.0
 40
1.0
 40
1.0
 10
102.5909471502
 20
140.5461826329
 30
0.0
 10
102.6649023761
 20
140.5034756014
 30
0.0
 10
102.8279474404
 20
140.4357435477
 30
0.0
 10
103.0970621151
 20
140.3962750718
 30
0.0
 10
103.3860661031
 20
140.417553223
 30
0.0
 10
103.6885115424
 20
140.4979324934
 30
0.0
 10
103.998507385
 20
140.6349122432
 30
0.0
 10
104.4264364317
 20
140.8968303949
 30
0.0
 10
104.9361975757
 20
141.3483357052
 30
0.0
 10
105.4600741278
 20
142.0190403229
 30
0.0
 10
105.872771443
 20
142.7817503665
 30
0.0
 10
106.1404791591
 20
143.5733882237
 30
0.0
 10
106.2122281606
 20
144.1125666773
 30
0.0
 10
106.2122281606
 20
144.3689972564
 30
0.0
  0
SPLINE
  5
3C9
100
AcDbEntity
  8
0
100
AcDbSpline
 62
7
  6
CONTINUOUS
 70
0
 71
3
 72
12
 73
8
 74
0
 42
0.0000001
 43
0.0000001
 44
0.0000000001
 40
0.0
 40
0.0
 40
0.0
 40
0.0
 40
0.1081592661
 40
0.2183613031
 40
0.4513561008
 40
0.7104298246
 40
1.0
 40
1.0
 40
1.0
 40
1.0
 10
102.6945081737
 20
139.909050433
 30
0.0
 10
102.6371286563
 20
139.9421853941
 30
0.0
 10
102.5267938634
 20
140.0191769931
 30
0.0
 10
102.3288824732
 20
140.2138516169
 30
0.0
 10
102.1328599142
 20
140.5334086945
 30
0.0
 10
101.9964982616
 20
140.9965899667
 30
0.0
 10
101.9696080813
 20
141.3338958856
 30
0.0
 10
101.9696080813
 20
141.511289879
 30
0.0
  0
SPLINE
  5
3CA
100
AcDbEntity
  8
0
100
AcDbSpline
 62
7
  6
CONTINUOUS
 70
0
 71
3
 72
12
 73
8
 74
0
 42
0.0000001
 43
0.0000001
 44
0.0000000001
 40
0.0
 40
0.0
 40
0.0
 40
0.0
 40
0.1243363243
 40
0.2506944523
 40
0.5030288512
 40
0.7528084875
 40
1.0
 40
1.0
 40
1.0
 40
1.0
 10
101.0636952478
 20
139.1095684234
 30
0.0
 10
100.936027269
 20
139.1503642986
 30
0.0
 10
100.6806494933
 20
139.2389784441
 30
0.0
 10
100.173422035
 20
139.4307328726
 30
0.0
 10
99.5461891589
 20
139.6869768359
 30
0.0
 10
98.8041773591
 20
140.006094441
 30
0.0
 10
98.3146033379
 20
140.2236100251
 30
0.0
 10
98.0715469409
 20
140.3328064395
 30
0.0
  0
SPLINE
  5
3CB
100
AcDbEntity
  8
0
100
AcDbSpline
 62
7
  6
CONTINUOUS
 70
0
 71
3
 72
20
 73
16
 74
0
 42
0.0000001
 43
0.0000001
 44
0.0000000001
 40
0.0
 40
0.0
 40
0.0
 40
0.0
 40
0.0433990618
 40
0.0895426293
 40
0.1393560545
 40
0.1933231922
 40
0.2515400029
 40
0.3137897061
 40
0.3796092146
 40
0.4483496932
 40
0.5912588438
 40
0.735536404
 40
0.8738368429
 40
0.9387906177
 40
1.0
 40
1.0
 40
1.0
 40
1.0
 10
102.3841782402
 20
138.6876582458
 30
0.0
 10
102.5099657377
 20
138.6474553936
 30
0.0
 10
102.7802909414
 20
138.5957802343
 30
0.0
 10
103.2068159952
 20
138.606524982
 30
0.0
 10
103.6552379466
 20
138.7017668649
 30
0.0
 10
104.1171341968
 20
138.8786808498
 30
0.0
 10
104.5843479522
 20
139.1333810869
 30
0.0
 10
105.0483298936
 20
139.4609049373
 30
0.0
 10
105.5005101132
 20
139.8550162159
 30
0.0
 10
106.0835840211
 20
140.4669624646
 30
0.0
 10
106.7263175126
 20
141.34541416
 30
0.0
 10
107.3194085747
 20
142.5017878995
 30
0.0
 10
107.6450963949
 20
143.5143479333
 30
0.0
 10
107.7793502528
 20
144.308905561
 30
0.0
 10
107.8032147383
 20
144.6930544816
 30
0.0
 10
107.8032147383
 20
144.8793041485
 30
0.0
  0
SPLINE
  5
3CC
100
AcDbEntity
  8
0
100
AcDbSpline
 62
7
  6
CONTINUOUS
 70
0
 71
3
 72
9
 73
5
 74
0
 42
0.0000001
 43
0.0000001
 44
0.0000000001
 40
0.0
 40
0.0
 40
0.0
 40
0.0
 40
0.4835873803
 40
1.0
 40
1.0
 40
1.0
 40
1.0
 10
104.8573280634
 20
148.8871618397
 30
0.0
 10
104.7046765301
 20
149.0259643966
 30
0.0
 10
104.3803346977
 20
149.3034087188
 30
0.0
 10
104.0482469592
 20
149.5712845318
 30
0.0
 10
103.8755212384
 20
149.7080675768
 30
0.0
  0
SPLINE
  5
3CD
100
AcDbEntity
  8
0
100
AcDbSpline
 62
7
  6
CONTINUOUS
 70
0
 71
3
 72
23
 73
19
 74
0
 42
0.0000001
 43
0.0000001
 44
0.0000000001
 40
0.0
 40
0.0
 40
0.0
 40
0.0
 40
0.0428148306
 40
0.087397106
 40
0.1351803507
 40
0.1870900944
 40
0.2435370823
 40
0.3044945921
 40
0.3695922806
 40
0.4381999985
 40
0.5094975488
 40
0.5825335641
 40
0.6562771683
 40
0.7296645327
 40
0.8016530058
 40
0.871253617
 40
0.9376106706
 40
1.0
 40
1.0
 40
1.0
 40
1.0
 10
79.3778549928
 20
127.2842032005
 30
0.0
 10
79.2052736595
 20
127.3838407576
 30
0.0
 10
78.8781231504
 20
127.6342331787
 30
0.0
 10
78.4844258525
 20
128.1320546299
 30
0.0
 10
78.1902376069
 20
128.740872061
 30
0.0
 10
77.9997608575
 20
129.445822557
 30
0.0
 10
77.9149597404
 20
130.2320354957
 30
0.0
 10
77.9366320407
 20
131.0833487119
 30
0.0
 10
78.0638631487
 20
131.9821991479
 30
0.0
 10
78.2938060338
 20
132.9098075693
 30
0.0
 10
78.6215372748
 20
133.8466050476
 30
0.0
 10
79.0400813853
 20
134.7727005073
 30
0.0
 10
79.5405183701
 20
135.6683480915
 30
0.0
 10
80.1121564373
 20
136.5144659075
 30
0.0
 10
80.7428213649
 20
137.2929603369
 30
0.0
 10
81.4191335848
 20
137.9874059413
 30
0.0
 10
82.1266799036
 20
138.5828107165
 30
0.0
 10
82.6263012202
 20
138.9167191156
 30
0.0
 10
82.8777838688
 20
139.0619118238
 30
0.0
  0
SPLINE
  5
3CE
100
AcDbEntity
  8
0
100
AcDbSpline
 62
7
  6
CONTINUOUS
 70
0
 71
3
 72
12
 73
8
 74
0
 42
0.0000001
 43
0.0000001
 44
0.0000000001
 40
0.0
 40
0.0
 40
0.0
 40
0.0
 40
0.1081620389
 40
0.2183637051
 40
0.4513660653
 40
0.7104193096
 40
1.0
 40
1.0
 40
1.0
 40
1.0
 10
76.5887575822
 20
118.9423900184
 30
0.0
 10
76.667453019
 20
118.8969562169
 30
0.0
 10
76.834570363
 20
118.8187555426
 30
0.0
 10
77.2014680782
 20
118.7171288162
 30
0.0
 10
77.7153995986
 20
118.7035109604
 30
0.0
 10
78.3589945329
 20
118.8591131637
 30
0.0
 10
78.7780234688
 20
119.0584759722
 30
0.0
 10
78.9887127641
 20
119.1801167675
 30
0.0
  0
SPLINE
  5
3CF
100
AcDbEntity
  8
0
100
AcDbSpline
 62
7
  6
CONTINUOUS
 70
0
 71
3
 72
12
 73
8
 74
0
 42
0.0000001
 43
0.0000001
 44
0.0000000001
 40
0.0
 40
0.0
 40
0.0
 40
0.0
 40
0.1081612896
 40
0.2183623225
 40
0.4513640816
 40
0.710417852
 40
1.0
 40
1.0
 40
1.0
 40
1.0
 10
75.1745381319
 20
119.7588715274
 30
0.0
 10
75.0958401153
 20
119.8043068088
 30
0.0
 10
74.9445508153
 20
119.9099353763
 30
0.0
 10
74.6730779342
 20
120.1768711306
 30
0.0
 10
74.4043063215
 20
120.6151559904
 30
0.0
 10
74.2172567108
 20
121.2503531369
 30
0.0
 10
74.1803948952
 20
121.7129443879
 30
0.0
 10
74.1803948952
 20
121.9562379401
 30
0.0
  0
SPLINE
  5
3D0
100
AcDbEntity
  8
0
100
AcDbSpline
 62
7
  6
CONTINUOUS
 70
0
 71
3
 72
10
 73
6
 74
0
 42
0.0000001
 43
0.0000001
 44
0.0000000001
 40
0.0
 40
0.0
 40
0.0
 40
0.0
 40
0.235261379
 40
0.4770848103
 40
1.0
 40
1.0
 40
1.0
 40
1.0
 10
81.9384844984
 20
129.2699162204
 30
0.0
 10
82.0187706933
 20
129.2235662839
 30
0.0
 10
82.192071939
 20
129.1465577953
 30
0.0
 10
82.5791325494
 20
129.0622554854
 30
0.0
 10
82.8872922677
 20
129.085283411
 30
0.0
 10
83.0887975909
 20
129.1283444611
 30
0.0
  0
SPLINE
  5
3D1
100
AcDbEntity
  8
0
100
AcDbSpline
 62
7
  6
CONTINUOUS
 70
0
 71
3
 72
19
 73
15
 74
0
 42
0.0000001
 43
0.0000001
 44
0.0000000001
 40
0.0
 40
0.0
 40
0.0
 40
0.0
 40
0.042840447
 40
0.0874499625
 40
0.1352630485
 40
0.1872053019
 40
0.2436860424
 40
0.3046803881
 40
0.3698189676
 40
0.4384688843
 40
0.5827505247
 40
0.7298398042
 40
0.8713659979
 40
1.0
 40
1.0
 40
1.0
 40
1.0
 10
83.602703686
 20
128.8864567493
 30
0.0
 10
83.6889858585
 20
128.8366311633
 30
0.0
 10
83.8792074996
 20
128.7576104203
 30
0.0
 10
84.1931775095
 20
128.7115632515
 30
0.0
 10
84.5303480024
 20
128.7363913005
 30
0.0
 10
84.8832052076
 20
128.8301645555
 30
0.0
 10
85.244839884
 20
128.9899837254
 30
0.0
 10
85.6080420951
 20
129.2121804596
 30
0.0
 10
85.9654521448
 20
129.4920003715
 30
0.0
 10
86.4318720154
 20
129.9413041939
 30
0.0
 10
86.9501488253
 20
130.604998472
 30
0.0
 10
87.4314642451
 20
131.4945630288
 30
0.0
 10
87.7438329255
 20
132.418211611
 30
0.0
 10
87.827531337
 20
133.0472387415
 30
0.0
 10
87.827531337
 20
133.3464068016
 30
0.0
  0
SPLINE
  5
3D2
100
AcDbEntity
  8
0
100
AcDbSpline
 62
7
  6
CONTINUOUS
 70
0
 71
3
 72
12
 73
8
 74
0
 42
0.0000001
 43
0.0000001
 44
0.0000000001
 40
0.0
 40
0.0
 40
0.0
 40
0.0
 40
0.1081595286
 40
0.2183667051
 40
0.4513482999
 40
0.7104482268
 40
1.0
 40
1.0
 40
1.0
 40
1.0
 10
83.9027032089
 20
129.4060829272
 30
0.0
 10
83.8551568816
 20
129.4335317526
 30
0.0
 10
83.7637215391
 20
129.4973112062
 30
0.0
 10
83.5997810447
 20
129.6586500465
 30
0.0
 10
83.4373154477
 20
129.9233984468
 30
0.0
 10
83.3243631811
 20
130.3071908159
 30
0.0
 10
83.3020667788
 20
130.5866705121
 30
0.0
 10
83.3020667788
 20
130.7336442168
 30
0.0
  0
SPLINE
  5
3D3
100
AcDbEntity
  8
0
100
AcDbSpline
 62
7
  6
CONTINUOUS
 70
0
 71
3
 72
12
 73
8
 74
0
 42
0.0000001
 43
0.0000001
 44
0.0000000001
 40
0.0
 40
0.0
 40
0.0
 40
0.0
 40
0.289573112
 40
0.548644401
 40
0.7816391749
 40
0.8918407396
 40
1.0
 40
1.0
 40
1.0
 40
1.0
 10
96.6663263582
 20
138.8577011792
 30
0.0
 10
96.6663263582
 20
139.0097547904
 30
0.0
 10
96.6432779741
 20
139.2988748674
 30
0.0
 10
96.5263946581
 20
139.6958866304
 30
0.0
 10
96.3583788645
 20
139.9697939538
 30
0.0
 10
96.1887377667
 20
140.1366547016
 30
0.0
 10
96.0941667837
 20
140.2026494255
 30
0.0
 10
96.0449843454
 20
140.2310508795
 30
0.0
  0
SPLINE
  5
3D4
100
AcDbEntity
  8
0
100
AcDbSpline
 62
7
  6
CONTINUOUS
 70
0
 71
3
 72
19
 73
15
 74
0
 42
0.0000001
 43
0.0000001
 44
0.0000000001
 40
0.0
 40
0.0
 40
0.0
 40
0.0
 40
0.1286321268
 40
0.270156362
 40
0.4172452811
 40
0.561529281
 40
0.6301804291
 40
0.695319874
 40
0.7563146454
 40
0.8127953283
 40
0.8647372238
 40
0.9125500068
 40
0.9571593823
 40
1.0
 40
1.0
 40
1.0
 40
1.0
 10
92.4237062789
 20
135.9999938017
 30
0.0
 10
92.4237062789
 20
136.2991574967
 30
0.0
 10
92.5074025456
 20
136.9281755358
 30
0.0
 10
92.8197623878
 20
137.8518168348
 30
0.0
 10
93.3010766035
 20
138.7413820646
 30
0.0
 10
93.81935398
 20
139.4050856111
 30
0.0
 10
94.285781554
 20
139.854396479
 30
0.0
 10
94.6431958313
 20
140.1342204708
 30
0.0
 10
95.0064003934
 20
140.3564189196
 30
0.0
 10
95.3680356109
 20
140.5162371985
 30
0.0
 10
95.7208915348
 20
140.6100081405
 30
0.0
 10
96.0580599156
 20
140.6348379388
 30
0.0
 10
96.3720295474
 20
140.5887903704
 30
0.0
 10
96.5622504437
 20
140.5097679566
 30
0.0
 10
96.648533047
 20
140.4599423248
 30
0.0
  0
SPLINE
  5
3D5
100
AcDbEntity
  8
0
100
AcDbSpline
 62
7
  6
CONTINUOUS
 70
0
 71
3
 72
11
 73
7
 74
0
 42
0.0000001
 43
0.0000001
 44
0.0000000001
 40
0.0
 40
0.0
 40
0.0
 40
0.0
 40
0.2848443418
 40
0.5445152259
 40
0.7809897299
 40
1.0
 40
1.0
 40
1.0
 40
1.0
 10
98.2573129359
 20
139.3680080712
 30
0.0
 10
98.2573129359
 20
139.5722378944
 30
0.0
 10
98.2307934916
 20
139.9635294529
 30
0.0
 10
98.098773848
 20
140.5109855461
 30
0.0
 10
97.8779038314
 20
140.9782641584
 30
0.0
 10
97.6673004494
 20
141.2337853182
 30
0.0
 10
97.5511116697
 20
141.3394159983
 30
0.0
  0
SPLINE
  5
3D6
100
AcDbEntity
  8
0
100
AcDbSpline
 62
7
  6
CONTINUOUS
 70
0
 71
3
 72
12
 73
8
 74
0
 42
0.0000001
 43
0.0000001
 44
0.0000000001
 40
0.0
 40
0.0
 40
0.0
 40
0.0
 40
0.289573112
 40
0.548644401
 40
0.7816391749
 40
0.8918407396
 40
1.0
 40
1.0
 40
1.0
 40
1.0
 10
106.2122281606
 20
144.3689972564
 30
0.0
 10
106.2122281606
 20
144.5210508677
 30
0.0
 10
106.1891797765
 20
144.8101709447
 30
0.0
 10
106.0722964605
 20
145.2071827077
 30
0.0
 10
105.9042806669
 20
145.4810900311
 30
0.0
 10
105.7346395691
 20
145.6479507789
 30
0.0
 10
105.6400685861
 20
145.7139455028
 30
0.0
 10
105.5908861478
 20
145.7423469567
 30
0.0
  0
SPLINE
  5
3D7
100
AcDbEntity
  8
0
100
AcDbSpline
 62
7
  6
CONTINUOUS
 70
0
 71
3
 72
19
 73
15
 74
0
 42
0.0000001
 43
0.0000001
 44
0.0000000001
 40
0.0
 40
0.0
 40
0.0
 40
0.0
 40
0.1286321268
 40
0.270156362
 40
0.4172452811
 40
0.561529281
 40
0.6301804291
 40
0.695319874
 40
0.7563146454
 40
0.8127953283
 40
0.8647372238
 40
0.9125500068
 40
0.9571593823
 40
1.0
 40
1.0
 40
1.0
 40
1.0
 10
101.9696080813
 20
141.511289879
 30
0.0
 10
101.9696080813
 20
141.810453574
 30
0.0
 10
102.053304348
 20
142.4394716131
 30
0.0
 10
102.3656641901
 20
143.3631129121
 30
0.0
 10
102.8469784059
 20
144.2526781418
 30
0.0
 10
103.3652557824
 20
144.9163816884
 30
0.0
 10
103.8316833564
 20
145.3656925563
 30
0.0
 10
104.1890976337
 20
145.6455165481
 30
0.0
 10
104.5523021958
 20
145.8677149969
 30
0.0
 10
104.9139374133
 20
146.0275332758
 30
0.0
 10
105.2667933371
 20
146.1213042177
 30
0.0
 10
105.6039617179
 20
146.146134016
 30
0.0
 10
105.9179313498
 20
146.1000864477
 30
0.0
 10
106.1081522461
 20
146.0210640338
 30
0.0
 10
106.1944348494
 20
145.9712384021
 30
0.0
  0
SPLINE
  5
3D8
100
AcDbEntity
  8
0
100
AcDbSpline
 62
7
  6
CONTINUOUS
 70
0
 71
3
 72
11
 73
7
 74
0
 42
0.0000001
 43
0.0000001
 44
0.0000000001
 40
0.0
 40
0.0
 40
0.0
 40
0.0
 40
0.2848443418
 40
0.5445152259
 40
0.7809897299
 40
1.0
 40
1.0
 40
1.0
 40
1.0
 10
107.8032147383
 20
144.8793041485
 30
0.0
 10
107.8032147383
 20
145.0835339717
 30
0.0
 10
107.776695294
 20
145.4748255302
 30
0.0
 10
107.6446756504
 20
146.0222816234
 30
0.0
 10
107.4238056338
 20
146.4895602357
 30
0.0
 10
107.2132022517
 20
146.7450813955
 30
0.0
 10
107.0970134721
 20
146.8507120755
 30
0.0
  0
SPLINE
  5
3D9
100
AcDbEntity
  8
0
100
AcDbSpline
 62
7
  6
CONTINUOUS
 70
0
 71
3
 72
10
 73
6
 74
0
 42
0.0000001
 43
0.0000001
 44
0.0000000001
 40
0.0
 40
0.0
 40
0.0
 40
0.0
 40
0.5183517103
 40
0.7617532443
 40
1.0
 40
1.0
 40
1.0
 40
1.0
 10
81.7631640877
 20
138.2044593214
 30
0.0
 10
81.938397639
 20
138.2285757436
 30
0.0
 10
82.2038682617
 20
138.2304474238
 30
0.0
 10
82.5356805232
 20
138.1450482325
 30
0.0
 10
82.6860093137
 20
138.0758835152
 30
0.0
 10
82.7564183208
 20
138.0352341499
 30
0.0
  0
SPLINE
  5
3DA
100
AcDbEntity
  8
0
100
AcDbSpline
 62
7
  6
CONTINUOUS
 70
0
 71
3
 72
12
 73
8
 74
0
 42
0.0000001
 43
0.0000001
 44
0.0000000001
 40
0.0
 40
0.0
 40
0.0
 40
0.0
 40
0.2895821567
 40
0.5486359363
 40
0.7816376878
 40
0.8918387163
 40
1.0
 40
1.0
 40
1.0
 40
1.0
 10
75.5946143455
 20
121.1397564311
 30
0.0
 10
75.5946143455
 20
120.8964628718
 30
0.0
 10
75.6314761703
 20
120.4338716075
 30
0.0
 10
75.8185257809
 20
119.7986744501
 30
0.0
 10
76.0872974086
 20
119.3603896051
 30
0.0
 10
76.3587702751
 20
119.0934538561
 30
0.0
 10
76.5100595741
 20
118.9878253044
 30
0.0
 10
76.5887575822
 20
118.9423900184
 30
0.0
  0
SPLINE
  5
3DB
100
AcDbEntity
  8
0
100
AcDbSpline
 62
7
  6
CONTINUOUS
 70
0
 71
3
 72
18
 73
14
 74
0
 42
0.0000001
 43
0.0000001
 44
0.0000000001
 40
0.0
 40
0.0
 40
0.0
 40
0.0
 40
0.1286568221
 40
0.2702040422
 40
0.4173194932
 40
0.5616281068
 40
0.6952637526
 40
0.7562705005
 40
0.8127630805
 40
0.8647125873
 40
0.9125341774
 40
0.9571523806
 40
1.0
 40
1.0
 40
1.0
 40
1.0
 10
87.4032690347
 20
133.1014603093
 30
0.0
 10
87.4032690347
 20
132.8535787275
 30
0.0
 10
87.3339194443
 20
132.3323803454
 30
0.0
 10
87.0751191245
 20
131.5671450716
 30
0.0
 10
86.67620627
 20
130.8298499563
 30
0.0
 10
86.1697879631
 20
130.1814939688
 30
0.0
 10
85.6769980767
 20
129.745055723
 30
0.0
 10
85.2633407667
 20
129.4918498324
 30
0.0
 10
84.9636850045
 20
129.3594152975
 30
0.0
 10
84.6713116412
 20
129.2817559058
 30
0.0
 10
84.3919503548
 20
129.2611721845
 30
0.0
 10
84.1317914806
 20
129.2992907673
 30
0.0
 10
83.9741984136
 20
129.3648082483
 30
0.0
 10
83.9027032089
 20
129.4060829272
 30
0.0
  0
SPLINE
  5
3DC
100
AcDbEntity
  8
0
100
AcDbSpline
 62
7
  6
CONTINUOUS
 70
0
 71
3
 72
14
 73
10
 74
0
 42
0.0000001
 43
0.0000001
 44
0.0000000001
 40
0.0
 40
0.0
 40
0.0
 40
0.0
 40
0.2892791457
 40
0.4225450404
 40
0.5484933843
 40
0.6678929979
 40
0.7818680973
 40
0.8919518968
 40
1.0
 40
1.0
 40
1.0
 40
1.0
 10
82.8777838688
 20
127.6308779839
 30
0.0
 10
82.5705209282
 20
127.4534807014
 30
0.0
 10
82.0987913116
 20
127.2289563948
 30
0.0
 10
81.4518625505
 20
127.0403253725
 30
0.0
 10
80.9926759751
 20
126.9633183943
 30
0.0
 10
80.5508457994
 20
126.9479305798
 30
0.0
 10
80.1305481281
 20
126.9948211761
 30
0.0
 10
79.7362742335
 20
127.1038122928
 30
0.0
 10
79.4926206864
 20
127.2179447406
 30
0.0
 10
79.3778549928
 20
127.2842032005
 30
0.0
  0
SPLINE
  5
3DD
100
AcDbEntity
  8
0
100
AcDbSpline
 62
7
  6
CONTINUOUS
 70
0
 71
3
 72
22
 73
18
 74
0
 42
0.0000001
 43
0.0000001
 44
0.0000000001
 40
0.0
 40
0.0
 40
0.0
 40
0.0
 40
0.0433766023
 40
0.0871535619
 40
0.1332604337
 40
0.1831587189
 40
0.237690208
 40
0.2971148031
 40
0.3612200816
 40
0.4294329699
 40
0.5009165647
 40
0.5746512647
 40
0.7241204444
 40
0.7976288545
 40
0.868740173
 40
0.9364804617
 40
1.0
 40
1.0
 40
1.0
 40
1.0
 10
97.5511116697
 20
141.3394159983
 30
0.0
 10
97.4460916631
 20
141.434892814
 30
0.0
 10
97.2086532477
 20
141.6000997854
 30
0.0
 10
96.7920010128
 20
141.7446767472
 30
0.0
 10
96.3316900615
 20
141.7812704952
 30
0.0
 10
95.840723648
 20
141.7116762587
 30
0.0
 10
95.3302022923
 20
141.5398738083
 30
0.0
 10
94.8111956346
 20
141.2709120765
 30
0.0
 10
94.2951349963
 20
140.9114002568
 30
0.0
 10
93.7937399942
 20
140.4698255931
 30
0.0
 10
93.3185097971
 20
139.9564777293
 30
0.0
 10
92.7325018575
 20
139.1894539935
 30
0.0
 10
92.2486511575
 20
138.3404922223
 30
0.0
 10
91.8887772799
 20
137.4469231671
 30
0.0
 10
91.6912535711
 20
136.7794459689
 30
0.0
 10
91.5695834356
 20
136.1273358136
 30
0.0
 10
91.5398264824
 20
135.6975317506
 30
0.0
 10
91.5398264824
 20
135.4896886094
 30
0.0
  0
SPLINE
  5
3DE
100
AcDbEntity
  8
0
100
AcDbSpline
 62
7
  6
CONTINUOUS
 70
0
 71
3
 72
10
 73
6
 74
0
 42
0.0000001
 43
0.0000001
 44
0.0000000001
 40
0.0
 40
0.0
 40
0.0
 40
0.0
 40
0.2372719105
 40
0.4801594835
 40
1.0
 40
1.0
 40
1.0
 40
1.0
 10
78.7564910658
 20
131.1070001849
 30
0.0
 10
78.6827950429
 20
131.1495472493
 30
0.0
 10
78.5416249314
 20
131.2503827149
 30
0.0
 10
78.2926736636
 20
131.5107579344
 30
0.0
 10
78.1600668726
 20
131.757083266
 30
0.0
 10
78.0940803562
 20
131.9314529874
 30
0.0
  0
SPLINE
  5
3DF
100
AcDbEntity
  8
0
100
AcDbSpline
 62
7
  6
CONTINUOUS
 70
0
 71
3
 72
20
 73
16
 74
0
 42
0.0000001
 43
0.0000001
 44
0.0000000001
 40
0.0
 40
0.0
 40
0.0
 40
0.0
 40
0.042832575
 40
0.0874337806
 40
0.13523672
 40
0.187167644
 40
0.2436384295
 40
0.3046213257
 40
0.3697457341
 40
0.4383821172
 40
0.5826351257
 40
0.7296944442
 40
0.8711934986
 40
0.9375891613
 40
1.0
 40
1.0
 40
1.0
 40
1.0
 10
85.9384124146
 20
136.1981513238
 30
0.0
 10
85.8397955389
 20
136.2550837258
 30
0.0
 10
85.6224095944
 20
136.3454252811
 30
0.0
 10
85.2635728958
 20
136.3980029663
 30
0.0
 10
84.8782423172
 20
136.3696418549
 30
0.0
 10
84.4749668
 20
136.2625011729
 30
0.0
 10
84.0616748369
 20
136.0798266523
 30
0.0
 10
83.6465960507
 20
135.8258707329
 30
0.0
 10
83.2381122308
 20
135.5060933827
 30
0.0
 10
82.7050605374
 20
134.9926221895
 30
0.0
 10
82.1127308449
 20
134.2339802019
 30
0.0
 10
81.5627903598
 20
133.2178280749
 30
0.0
 10
81.2585719224
 20
132.3182193033
 30
0.0
 10
81.1325311902
 20
131.6096579527
 30
0.0
 10
81.1100331076
 20
131.2669771289
 30
0.0
 10
81.1100331076
 20
131.1010571566
 30
0.0
  0
SPLINE
  5
3E0
100
AcDbEntity
  8
0
100
AcDbSpline
 62
7
  6
CONTINUOUS
 70
0
 71
3
 72
12
 73
8
 74
0
 42
0.0000001
 43
0.0000001
 44
0.0000000001
 40
0.0
 40
0.0
 40
0.0
 40
0.0
 40
0.1081592661
 40
0.2183613031
 40
0.4513561008
 40
0.7104298246
 40
1.0
 40
1.0
 40
1.0
 40
1.0
 10
82.1884851186
 20
129.7029397876
 30
0.0
 10
82.1311056012
 20
129.7360747487
 30
0.0
 10
82.0207708083
 20
129.8130663476
 30
0.0
 10
81.8228594182
 20
130.0077409714
 30
0.0
 10
81.6268368591
 20
130.327298049
 30
0.0
 10
81.4904752066
 20
130.7904793212
 30
0.0
 10
81.4635850262
 20
131.1277852401
 30
0.0
 10
81.4635850262
 20
131.3051792335
 30
0.0
  0
SPLINE
  5
3E1
100
AcDbEntity
  8
0
100
AcDbSpline
 62
7
  6
CONTINUOUS
 70
0
 71
3
 72
11
 73
7
 74
0
 42
0.0000001
 43
0.0000001
 44
0.0000000001
 40
0.0
 40
0.0
 40
0.0
 40
0.0
 40
0.2238748563
 40
0.4597670349
 40
0.7167994583
 40
1.0
 40
1.0
 40
1.0
 40
1.0
 10
105.5908861478
 20
145.7423469567
 30
0.0
 10
105.5058045052
 20
145.7914791762
 30
0.0
 10
105.3148036904
 20
145.8663650159
 30
0.0
 10
104.9981039712
 20
145.8953199094
 30
0.0
 10
104.6586374847
 20
145.8443532506
 30
0.0
 10
104.4342949004
 20
145.7632878434
 30
0.0
 10
104.3210142003
 20
145.7121595076
 30
0.0
  0
SPLINE
  5
3E2
100
AcDbEntity
  8
0
100
AcDbSpline
 62
7
  6
CONTINUOUS
 70
0
 71
3
 72
11
 73
7
 74
0
 42
0.0000001
 43
0.0000001
 44
0.0000000001
 40
0.0
 40
0.0
 40
0.0
 40
0.0
 40
0.2238748563
 40
0.4597670349
 40
0.7167994583
 40
1.0
 40
1.0
 40
1.0
 40
1.0
 10
96.0449843454
 20
140.2310508795
 30
0.0
 10
95.9599027028
 20
140.2801830989
 30
0.0
 10
95.768901888
 20
140.3550689387
 30
0.0
 10
95.4522021688
 20
140.3840238322
 30
0.0
 10
95.1127356823
 20
140.3330571734
 30
0.0
 10
94.888393098
 20
140.2519917661
 30
0.0
 10
94.775112398
 20
140.2008634303
 30
0.0
  0
SPLINE
  5
3E3
100
AcDbEntity
  8
0
100
AcDbSpline
 62
7
  6
CONTINUOUS
 70
0
 71
3
 72
19
 73
15
 74
0
 42
0.0000001
 43
0.0000001
 44
0.0000000001
 40
0.0
 40
0.0
 40
0.0
 40
0.0
 40
0.042840447
 40
0.0874499625
 40
0.1352630485
 40
0.1872053019
 40
0.2436860424
 40
0.3046803881
 40
0.3698189676
 40
0.4384688843
 40
0.5827505247
 40
0.7298398042
 40
0.8713659979
 40
1.0
 40
1.0
 40
1.0
 40
1.0
 10
87.1026321276
 20
134.9486477767
 30
0.0
 10
87.016349955
 20
134.9984733628
 30
0.0
 10
86.8261283139
 20
135.0774941057
 30
0.0
 10
86.5121583041
 20
135.1235412745
 30
0.0
 10
86.1749878111
 20
135.0987132256
 30
0.0
 10
85.822130606
 20
135.0049399706
 30
0.0
 10
85.4604959296
 20
134.8451208006
 30
0.0
 10
85.0972937184
 20
134.6229240665
 30
0.0
 10
84.7398836688
 20
134.3431041546
 30
0.0
 10
84.2734637982
 20
133.8938003322
 30
0.0
 10
83.7551869882
 20
133.2301060541
 30
0.0
 10
83.2738715684
 20
132.3405414973
 30
0.0
 10
82.961502888
 20
131.416892915
 30
0.0
 10
82.8778044765
 20
130.7878657846
 30
0.0
 10
82.8778044765
 20
130.4886977245
 30
0.0
  0
SPLINE
  5
3E4
100
AcDbEntity
  8
0
100
AcDbSpline
 62
7
  6
CONTINUOUS
 70
0
 71
3
 72
12
 73
8
 74
0
 42
0.0000001
 43
0.0000001
 44
0.0000000001
 40
0.0
 40
0.0
 40
0.0
 40
0.0
 40
0.1081592661
 40
0.2183613031
 40
0.4513561008
 40
0.7104298246
 40
1.0
 40
1.0
 40
1.0
 40
1.0
 10
106.1944348494
 20
145.9712384021
 30
0.0
 10
106.2518143668
 20
145.938103441
 30
0.0
 10
106.3621491597
 20
145.8611118421
 30
0.0
 10
106.5600605498
 20
145.6664372182
 30
0.0
 10
106.7560831089
 20
145.3468801406
 30
0.0
 10
106.8924447615
 20
144.8836988685
 30
0.0
 10
106.9193349418
 20
144.5463929495
 30
0.0
 10
106.9193349418
 20
144.3689989561
 30
0.0
  0
SPLINE
  5
3E5
100
AcDbEntity
  8
0
100
AcDbSpline
 62
7
  6
CONTINUOUS
 70
0
 71
3
 72
12
 73
8
 74
0
 42
0.0000001
 43
0.0000001
 44
0.0000000001
 40
0.0
 40
0.0
 40
0.0
 40
0.0
 40
0.2895819939
 40
0.5486373114
 40
0.7816405751
 40
0.8918400761
 40
1.0
 40
1.0
 40
1.0
 40
1.0
 10
81.1100331076
 20
131.1010571566
 30
0.0
 10
81.1100331076
 20
130.8983124113
 30
0.0
 10
81.140750928
 20
130.5128184703
 30
0.0
 10
81.2966247307
 20
129.983483974
 30
0.0
 10
81.5206041043
 20
129.618247016
 30
0.0
 10
81.7468287173
 20
129.3957986747
 30
0.0
 10
81.8729027738
 20
129.307777135
 30
0.0
 10
81.9384844984
 20
129.2699162204
 30
0.0
  0
SPLINE
  5
3E6
100
AcDbEntity
  8
0
100
AcDbSpline
 62
7
  6
CONTINUOUS
 70
0
 71
3
 72
12
 73
8
 74
0
 42
0.0000001
 43
0.0000001
 44
0.0000000001
 40
0.0
 40
0.0
 40
0.0
 40
0.0
 40
0.1080562379
 40
0.2183255197
 40
0.4516220416
 40
0.7108307443
 40
1.0
 40
1.0
 40
1.0
 40
1.0
 10
86.8192612858
 20
134.419199405
 30
0.0
 10
86.8656155435
 20
134.3911918851
 30
0.0
 10
86.954668286
 20
134.3265539688
 30
0.0
 10
87.1141118878
 20
134.1646678349
 30
0.0
 10
87.2718393017
 20
133.9015658618
 30
0.0
 10
87.3815611728
 20
133.522187401
 30
0.0
 10
87.4032690347
 20
133.2463937326
 30
0.0
 10
87.4032690347
 20
133.1014603093
 30
0.0
  0
SPLINE
  5
3E7
100
AcDbEntity
  8
0
100
AcDbSpline
 62
7
  6
CONTINUOUS
 70
0
 71
3
 72
9
 73
5
 74
0
 42
0.0000001
 43
0.0000001
 44
0.0000000001
 40
0.0
 40
0.0
 40
0.0
 40
0.0
 40
0.2547243066
 40
1.0
 40
1.0
 40
1.0
 40
1.0
 10
92.4311699912
 20
136.2075060046
 30
0.0
 10
92.4325231484
 20
136.1897084236
 30
0.0
 10
92.4385867745
 20
136.119898709
 30
0.0
 10
92.4477056244
 20
136.050345733
 30
0.0
 10
92.4563869723
 20
135.9988496864
 30
0.0
  0
SPLINE
  5
3E8
100
AcDbEntity
  8
0
100
AcDbSpline
 62
7
  6
CONTINUOUS
 70
0
 71
3
 72
11
 73
7
 74
0
 42
0.0000001
 43
0.0000001
 44
0.0000000001
 40
0.0
 40
0.0
 40
0.0
 40
0.0
 40
0.2765802428
 40
0.5317166743
 40
0.7704016399
 40
1.0
 40
1.0
 40
1.0
 40
1.0
 10
92.470233362
 20
135.9248751643
 30
0.0
 10
92.4905395971
 20
135.826443828
 30
0.0
 10
92.5438516843
 20
135.639617558
 30
0.0
 10
92.6695350709
 20
135.3874255411
 30
0.0
 10
92.8356809279
 20
135.180847828
 30
0.0
 10
92.9727951259
 20
135.076608996
 30
0.0
 10
93.0450453478
 20
135.0348865557
 30
0.0
  0
SPLINE
  5
3E9
100
AcDbEntity
  8
0
100
AcDbSpline
 62
7
  6
CONTINUOUS
 70
0
 71
3
 72
19
 73
15
 74
0
 42
0.0000001
 43
0.0000001
 44
0.0000000001
 40
0.0
 40
0.0
 40
0.0
 40
0.0
 40
0.1286321268
 40
0.270156362
 40
0.4172452811
 40
0.561529281
 40
0.6301804291
 40
0.695319874
 40
0.7563146454
 40
0.8127953283
 40
0.8647372238
 40
0.9125500068
 40
0.9571593823
 40
1.0
 40
1.0
 40
1.0
 40
1.0
 10
81.4635850262
 20
131.3051792335
 30
0.0
 10
81.4635850262
 20
131.6043429285
 30
0.0
 10
81.5472812929
 20
132.2333609676
 30
0.0
 10
81.8596411351
 20
133.1570022666
 30
0.0
 10
82.3409553508
 20
134.0465674963
 30
0.0
 10
82.8592327273
 20
134.7102710429
 30
0.0
 10
83.3256603013
 20
135.1595819108
 30
0.0
 10
83.6830745786
 20
135.4394059026
 30
0.0
 10
84.0462791407
 20
135.6616043514
 30
0.0
 10
84.4079143582
 20
135.8214226303
 30
0.0
 10
84.7607702821
 20
135.9151935722
 30
0.0
 10
85.0979386629
 20
135.9400233705
 30
0.0
 10
85.4119082947
 20
135.8939758022
 30
0.0
 10
85.6021291911
 20
135.8149533883
 30
0.0
 10
85.6884117944
 20
135.7651277566
 30
0.0
  0
SPLINE
  5
3EA
100
AcDbEntity
  8
0
100
AcDbSpline
 62
7
  6
CONTINUOUS
 70
0
 71
3
 72
19
 73
15
 74
0
 42
0.0000001
 43
0.0000001
 44
0.0000000001
 40
0.0
 40
0.0
 40
0.0
 40
0.0
 40
0.1286321268
 40
0.270156362
 40
0.4172452811
 40
0.561529281
 40
0.6301804291
 40
0.695319874
 40
0.7563146454
 40
0.8127953283
 40
0.8647372238
 40
0.9125500068
 40
0.9571593823
 40
1.0
 40
1.0
 40
1.0
 40
1.0
 10
97.3734331394
 20
138.8577028788
 30
0.0
 10
97.3734331394
 20
138.5585391839
 30
0.0
 10
97.2897368727
 20
137.9295211448
 30
0.0
 10
96.9773770306
 20
137.0058798458
 30
0.0
 10
96.4960628148
 20
136.116314616
 30
0.0
 10
95.9777854383
 20
135.4526110694
 30
0.0
 10
95.5113578643
 20
135.0033002016
 30
0.0
 10
95.153943587
 20
134.7234762097
 30
0.0
 10
94.7907390249
 20
134.501277761
 30
0.0
 10
94.4291038074
 20
134.3414594821
 30
0.0
 10
94.0762478836
 20
134.2476885401
 30
0.0
 10
93.7390795028
 20
134.2228587418
 30
0.0
 10
93.4251098709
 20
134.2689063102
 30
0.0
 10
93.2348889746
 20
134.347928724
 30
0.0
 10
93.1486063713
 20
134.3977543558
 30
0.0
  0
SPLINE
  5
3EB
100
AcDbEntity
  8
0
100
AcDbSpline
 62
7
  6
CONTINUOUS
 70
0
 71
3
 72
9
 73
5
 74
0
 42
0.0000001
 43
0.0000001
 44
0.0000000001
 40
0.0
 40
0.0
 40
0.0
 40
0.0
 40
0.2556422403
 40
1.0
 40
1.0
 40
1.0
 40
1.0
 10
103.3331191416
 20
150.054109137
 30
0.0
 10
103.3270322454
 20
150.099369254
 30
0.0
 10
103.300915624
 20
150.27609151
 30
0.0
 10
103.2653523873
 20
150.4514541564
 30
0.0
 10
103.2330593744
 20
150.5804443392
 30
0.0
  0
SPLINE
  5
3EC
100
AcDbEntity
  8
0
100
AcDbSpline
 62
7
  6
CONTINUOUS
 70
0
 71
3
 72
14
 73
10
 74
0
 42
0.0000001
 43
0.0000001
 44
0.0000000001
 40
0.0
 40
0.0
 40
0.0
 40
0.0
 40
0.2921644645
 40
0.4249366609
 40
0.5494353046
 40
0.6670097899
 40
0.7795847644
 40
0.8896513228
 40
1.0
 40
1.0
 40
1.0
 40
1.0
 10
91.5398264824
 20
135.4896886094
 30
0.0
 10
91.5398264824
 20
135.2131235145
 30
0.0
 10
91.5766622797
 20
134.8079895257
 30
0.0
 10
91.7226868247
 20
134.3074155455
 30
0.0
 10
91.8704611383
 20
133.9832525861
 30
0.0
 10
92.0583095439
 20
133.7030255319
 30
0.0
 10
92.2843966573
 20
133.4709541008
 30
0.0
 10
92.5454913193
 20
133.2908396534
 30
0.0
 10
92.7387778915
 20
133.2081628277
 30
0.0
 10
92.8382764378
 20
133.1763621685
 30
0.0
  0
SPLINE
  5
3ED
100
AcDbEntity
  8
0
100
AcDbSpline
 62
7
  6
CONTINUOUS
 70
0
 71
3
 72
22
 73
18
 74
0
 42
0.0000001
 43
0.0000001
 44
0.0000000001
 40
0.0
 40
0.0
 40
0.0
 40
0.0
 40
0.0433766023
 40
0.0871535619
 40
0.1332604337
 40
0.1831587189
 40
0.237690208
 40
0.2971148031
 40
0.3612200816
 40
0.4294329699
 40
0.5009165647
 40
0.5746512647
 40
0.7241204444
 40
0.7976288545
 40
0.868740173
 40
0.9364804617
 40
1.0
 40
1.0
 40
1.0
 40
1.0
 10
107.0970134721
 20
146.8507120755
 30
0.0
 10
106.9919934655
 20
146.9461888913
 30
0.0
 10
106.7545550501
 20
147.1113958627
 30
0.0
 10
106.3379028152
 20
147.2559728244
 30
0.0
 10
105.8775918639
 20
147.2925665725
 30
0.0
 10
105.3866254504
 20
147.222972336
 30
0.0
 10
104.8761040947
 20
147.0511698856
 30
0.0
 10
104.357097437
 20
146.7822081538
 30
0.0
 10
103.8410367987
 20
146.4226963341
 30
0.0
 10
103.3396417966
 20
145.9811216704
 30
0.0
 10
102.8644115995
 20
145.4677738065
 30
0.0
 10
102.2784036599
 20
144.7007500708
 30
0.0
 10
101.7945529599
 20
143.8517882996
 30
0.0
 10
101.4346790823
 20
142.9582192444
 30
0.0
 10
101.2371553734
 20
142.2907420461
 30
0.0
 10
101.115485238
 20
141.6386318909
 30
0.0
 10
101.0857282848
 20
141.2088278279
 30
0.0
 10
101.0857282848
 20
141.0009846867
 30
0.0
  0
SPLINE
  5
3EE
100
AcDbEntity
  8
0
100
AcDbSpline
 62
7
  6
CONTINUOUS
 70
0
 71
3
 72
9
 73
5
 74
0
 42
0.0000001
 43
0.0000001
 44
0.0000000001
 40
0.0
 40
0.0
 40
0.0
 40
0.0
 40
0.2372766727
 40
1.0
 40
1.0
 40
1.0
 40
1.0
 10
78.1123638765
 20
129.14126425
 30
0.0
 10
78.2145099734
 20
129.1699801884
 30
0.0
 10
78.640566762
 20
129.3066999639
 30
0.0
 10
79.0468544954
 20
129.5015446204
 30
0.0
 10
79.342235243
 20
129.6720817565
 30
0.0
  0
SPLINE
  5
3EF
100
AcDbEntity
  8
0
100
AcDbSpline
 62
7
  6
CONTINUOUS
 70
0
 71
3
 72
26
 73
22
 74
0
 42
0.0000001
 43
0.0000001
 44
0.0000000001
 40
0.0
 40
0.0
 40
0.0
 40
0.0
 40
0.1263424991
 40
0.1900754286
 40
0.2543331486
 40
0.3193079975
 40
0.3853153705
 40
0.4528878535
 40
0.4875412094
 40
0.5228371935
 40
0.5584520379
 40
0.5932971172
 40
0.6262531979
 40
0.6573835621
 40
0.6873245809
 40
0.716572025
 40
0.7739739936
 40
0.8307489773
 40
0.8872599967
 40
0.943654623
 40
1.0
 40
1.0
 40
1.0
 40
1.0
 10
87.2585810639
 20
140.1143299608
 30
0.0
 10
87.6217447806
 20
140.0594112376
 30
0.0
 10
88.1696346683
 20
139.9859344733
 30
0.0
 10
88.9058018874
 20
139.916086553
 30
0.0
 10
89.4658650564
 20
139.8819554525
 30
0.0
 10
90.0336875044
 20
139.873125771
 30
0.0
 10
90.6106193522
 20
139.9015891635
 30
0.0
 10
91.0960100287
 20
139.974549664
 30
0.0
 10
91.4805889874
 20
140.0864778563
 30
0.0
 10
91.7627202774
 20
140.2102724121
 30
0.0
 10
92.0181121472
 20
140.3862217906
 30
0.0
 10
92.2148863382
 20
140.6193938188
 30
0.0
 10
92.3284624055
 20
140.8879042581
 30
0.0
 10
92.3690203793
 20
141.1603357323
 30
0.0
 10
92.360077116
 20
141.4237459178
 30
0.0
 10
92.3047532712
 20
141.7588014373
 30
0.0
 10
92.1798807264
 20
142.1583863902
 30
0.0
 10
91.9810506801
 20
142.6135236812
 30
0.0
 10
91.7513498709
 20
143.0504307701
 30
0.0
 10
91.5003483386
 20
143.4737897599
 30
0.0
 10
91.3224990157
 20
143.7491734559
 30
0.0
 10
91.2315968643
 20
143.8854384051
 30
0.0
  0
SPLINE
  5
3F0
100
AcDbEntity
  8
0
100
AcDbSpline
 62
7
  6
CONTINUOUS
 70
0
 71
3
 72
12
 73
8
 74
0
 42
0.0000001
 43
0.0000001
 44
0.0000000001
 40
0.0
 40
0.0
 40
0.0
 40
0.0
 40
0.1081592661
 40
0.2183613031
 40
0.4513561008
 40
0.7104298246
 40
1.0
 40
1.0
 40
1.0
 40
1.0
 10
96.648533047
 20
140.4599423248
 30
0.0
 10
96.7059125644
 20
140.4268073637
 30
0.0
 10
96.8162473573
 20
140.3498157648
 30
0.0
 10
97.0141587475
 20
140.155141141
 30
0.0
 10
97.2101813065
 20
139.8355840633
 30
0.0
 10
97.3465429591
 20
139.3724027912
 30
0.0
 10
97.3734331394
 20
139.0350968723
 30
0.0
 10
97.3734331394
 20
138.8577028788
 30
0.0
  0
SPLINE
  5
3F1
100
AcDbEntity
  8
0
100
AcDbSpline
 62
7
  6
CONTINUOUS
 70
0
 71
3
 72
20
 73
16
 74
0
 42
0.0000001
 43
0.0000001
 44
0.0000000001
 40
0.0
 40
0.0
 40
0.0
 40
0.0
 40
0.1318057002
 40
0.2618854671
 40
0.3897893696
 40
0.5148784268
 40
0.6362544912
 40
0.695259852
 40
0.7530211606
 40
0.8097562527
 40
0.8666271491
 40
0.8962458259
 40
0.9276765157
 40
0.9619786746
 40
1.0
 40
1.0
 40
1.0
 40
1.0
 10
87.2585810639
 20
135.4002510575
 30
0.0
 10
87.4096547987
 20
135.374549446
 30
0.0
 10
87.7104328198
 20
135.3269360926
 30
0.0
 10
88.1600394487
 20
135.2694463986
 30
0.0
 10
88.603902526
 20
135.2305473847
 30
0.0
 10
89.0391842141
 20
135.2169460489
 30
0.0
 10
89.3947307231
 20
135.2357078088
 30
0.0
 10
89.6682785761
 20
135.2805450225
 30
0.0
 10
89.863441171
 20
135.3335472846
 30
0.0
 10
90.0468290159
 20
135.4138124665
 30
0.0
 10
90.1823398969
 20
135.5148142468
 30
0.0
 10
90.2688286922
 20
135.6221429659
 30
0.0
 10
90.3206891641
 20
135.7210064824
 30
0.0
 10
90.3537700594
 20
135.8378631073
 30
0.0
 10
90.3604958909
 20
135.9222340241
 30
0.0
 10
90.3604958909
 20
135.9664396632
 30
0.0
  0
SPLINE
  5
3F2
100
AcDbEntity
  8
0
100
AcDbSpline
 62
7
  6
CONTINUOUS
 70
0
 71
3
 72
16
 73
12
 74
0
 42
0.0000001
 43
0.0000001
 44
0.0000000001
 40
0.0
 40
0.0
 40
0.0
 40
0.0
 40
0.2450113438
 40
0.3689267636
 40
0.4940956562
 40
0.6208476679
 40
0.7494898734
 40
0.8144554983
 40
0.8793302285
 40
0.9425038301
 40
1.0
 40
1.0
 40
1.0
 40
1.0
 10
87.2585810639
 20
140.1143299608
 30
0.0
 10
87.5643378151
 20
139.8132977193
 30
0.0
 10
88.0194206964
 20
139.3544865381
 30
0.0
 10
88.6109755027
 20
138.7229147648
 30
0.0
 10
89.0484401569
 20
138.2309922452
 30
0.0
 10
89.4729360942
 20
137.7170230545
 30
0.0
 10
89.8060990677
 20
137.2648237004
 30
0.0
 10
90.0467311862
 20
136.8811382436
 30
0.0
 10
90.2047690922
 20
136.581718091
 30
0.0
 10
90.322870557
 20
136.2782231918
 30
0.0
 10
90.3604958909
 20
136.0671301831
 30
0.0
 10
90.3604958909
 20
135.9664396632
 30
0.0
  0
SPLINE
  5
3F3
100
AcDbEntity
  8
0
100
AcDbSpline
 62
7
  6
CONTINUOUS
 70
0
 71
3
 72
34
 73
30
 74
0
 42
0.0000001
 43
0.0000001
 44
0.0000000001
 40
0.0
 40
0.0
 40
0.0
 40
0.0
 40
0.0838824857
 40
0.1682020794
 40
0.2530094578
 40
0.338351252
 40
0.424245734
 40
0.5106056672
 40
0.5538500429
 40
0.5969759144
 40
0.6397062925
 40
0.6814812003
 40
0.7211795121
 40
0.7567530885
 40
0.7853979971
 40
0.796473185
 40
0.8053795226
 40
0.8123950779
 40
0.8179907196
 40
0.8227711863
 40
0.8273452804
 40
0.83215739
 40
0.8374385347
 40
0.8496309951
 40
0.863920982
 40
0.8799873531
 40
0.9162616
 40
0.9566462567
 40
1.0
 40
1.0
 40
1.0
 40
1.0
 10
91.6429162405
 20
144.1228995956
 30
0.0
 10
91.7841203521
 20
144.0587080475
 30
0.0
 10
92.0675290967
 20
143.9305714652
 30
0.0
 10
92.4947746207
 20
143.7399252339
 30
0.0
 10
92.9256326759
 20
143.5507707691
 30
0.0
 10
93.3605909507
 20
143.3637384481
 30
0.0
 10
93.800034997
 20
143.179923167
 30
0.0
 10
94.1697278236
 20
143.0311425122
 30
0.0
 10
94.4678136665
 20
142.9163969232
 30
0.0
 10
94.6917027958
 20
142.8335303486
 30
0.0
 10
94.9144092609
 20
142.7553668734
 30
0.0
 10
95.1328514619
 20
142.6843732798
 30
0.0
 10
95.3408996582
 20
142.6243857726
 30
0.0
 10
95.5281288673
 20
142.5809375393
 30
0.0
 10
95.666384581
 20
142.560926229
 30
0.0
 10
95.7564515772
 20
142.5600813036
 30
0.0
 10
95.8062223663
 20
142.5657885428
 30
0.0
 10
95.844618908
 20
142.5772695879
 30
0.0
 10
95.8725267421
 20
142.5942042269
 30
0.0
 10
95.8903746003
 20
142.6161033484
 30
0.0
 10
95.8987712066
 20
142.6414327694
 30
0.0
 10
95.899520368
 20
142.6688196309
 30
0.0
 10
95.8920058638
 20
142.7095428004
 30
0.0
 10
95.8687642106
 20
142.7640608662
 30
0.0
 10
95.8277979325
 20
142.8313225036
 30
0.0
 10
95.7544758981
 20
142.9305042086
 30
0.0
 10
95.6406132568
 20
143.0590108104
 30
0.0
 10
95.484043839
 20
143.2163422259
 30
0.0
 10
95.3707395198
 20
143.3219335693
 30
0.0
 10
95.3114262611
 20
143.3758657624
 30
0.0
  0
SPLINE
  5
3F4
100
AcDbEntity
  8
0
100
AcDbSpline
 62
7
  6
CONTINUOUS
 70
0
 71
3
 72
9
 73
5
 74
0
 42
0.0000001
 43
0.0000001
 44
0.0000000001
 40
0.0
 40
0.0
 40
0.0
 40
0.0
 40
0.2547243066
 40
1.0
 40
1.0
 40
1.0
 40
1.0
 10
101.9770717935
 20
141.7188020819
 30
0.0
 10
101.9784249508
 20
141.7010045008
 30
0.0
 10
101.9844885769
 20
141.6311947863
 30
0.0
 10
101.9936074268
 20
141.5616418103
 30
0.0
 10
102.0022887747
 20
141.5101457637
 30
0.0
  0
SPLINE
  5
3F5
100
AcDbEntity
  8
0
100
AcDbSpline
 62
7
  6
CONTINUOUS
 70
0
 71
3
 72
11
 73
7
 74
0
 42
0.0000001
 43
0.0000001
 44
0.0000000001
 40
0.0
 40
0.0
 40
0.0
 40
0.0
 40
0.2765802428
 40
0.5317166743
 40
0.7704016399
 40
1.0
 40
1.0
 40
1.0
 40
1.0
 10
102.0161351643
 20
141.4361712415
 30
0.0
 10
102.0364413995
 20
141.3377399053
 30
0.0
 10
102.0897534867
 20
141.1509136353
 30
0.0
 10
102.2154368733
 20
140.8987216183
 30
0.0
 10
102.3815827303
 20
140.6921439053
 30
0.0
 10
102.5186969283
 20
140.5879050733
 30
0.0
 10
102.5909471502
 20
140.5461826329
 30
0.0
  0
SPLINE
  5
3F6
100
AcDbEntity
  8
0
100
AcDbSpline
 62
7
  6
CONTINUOUS
 70
0
 71
3
 72
14
 73
10
 74
0
 42
0.0000001
 43
0.0000001
 44
0.0000000001
 40
0.0
 40
0.0
 40
0.0
 40
0.0
 40
0.1075120476
 40
0.2171452506
 40
0.3308173445
 40
0.4501043346
 40
0.5761604565
 40
0.7097137379
 40
1.0
 40
1.0
 40
1.0
 40
1.0
 10
105.4695163495
 20
150.4311787617
 30
0.0
 10
105.5869712476
 20
150.3633677251
 30
0.0
 10
105.812650945
 20
150.2052483137
 30
0.0
 10
106.1096609738
 20
149.9094533213
 30
0.0
 10
106.3637978861
 20
149.5577200749
 30
0.0
 10
106.5725637664
 20
149.1541527724
 30
0.0
 10
106.7343053354
 20
148.7029988481
 30
0.0
 10
106.8897881705
 20
148.0257291667
 30
0.0
 10
106.924238023
 20
147.4877844507
 30
0.0
 10
106.9184782569
 20
147.1216390422
 30
0.0
  0
SPLINE
  5
3F7
100
AcDbEntity
  8
0
100
AcDbSpline
 62
7
  6
CONTINUOUS
 70
0
 71
3
 72
19
 73
15
 74
0
 42
0.0000001
 43
0.0000001
 44
0.0000000001
 40
0.0
 40
0.0
 40
0.0
 40
0.0
 40
0.1286321268
 40
0.270156362
 40
0.4172452811
 40
0.561529281
 40
0.6301804291
 40
0.695319874
 40
0.7563146454
 40
0.8127953283
 40
0.8647372238
 40
0.9125500068
 40
0.9571593823
 40
1.0
 40
1.0
 40
1.0
 40
1.0
 10
106.9193349418
 20
144.3689989561
 30
0.0
 10
106.9193349418
 20
144.0698352611
 30
0.0
 10
106.8356386751
 20
143.440817222
 30
0.0
 10
106.5232788329
 20
142.517175923
 30
0.0
 10
106.0419646172
 20
141.6276106933
 30
0.0
 10
105.5236872407
 20
140.9639071467
 30
0.0
 10
105.0572596667
 20
140.5145962789
 30
0.0
 10
104.6998453894
 20
140.234772287
 30
0.0
 10
104.3366408273
 20
140.0125738382
 30
0.0
 10
103.9750056098
 20
139.8527555593
 30
0.0
 10
103.6221496859
 20
139.7589846174
 30
0.0
 10
103.2849813051
 20
139.7341548191
 30
0.0
 10
102.9710116733
 20
139.7802023874
 30
0.0
 10
102.780790777
 20
139.8592248013
 30
0.0
 10
102.6945081737
 20
139.909050433
 30
0.0
  0
SPLINE
  5
3F8
100
AcDbEntity
  8
0
100
AcDbSpline
 62
7
  6
CONTINUOUS
 70
0
 71
3
 72
14
 73
10
 74
0
 42
0.0000001
 43
0.0000001
 44
0.0000000001
 40
0.0
 40
0.0
 40
0.0
 40
0.0
 40
0.2921644645
 40
0.4249366609
 40
0.5494353046
 40
0.6670097899
 40
0.7795847644
 40
0.8896513228
 40
1.0
 40
1.0
 40
1.0
 40
1.0
 10
101.0857282848
 20
141.0009846867
 30
0.0
 10
101.0857282848
 20
140.7244195918
 30
0.0
 10
101.1225640821
 20
140.319285603
 30
0.0
 10
101.2685886271
 20
139.8187116228
 30
0.0
 10
101.4163629406
 20
139.4945486633
 30
0.0
 10
101.6042113463
 20
139.2143216092
 30
0.0
 10
101.8302984597
 20
138.9822501781
 30
0.0
 10
102.0913931217
 20
138.8021357306
 30
0.0
 10
102.2846796939
 20
138.719458905
 30
0.0
 10
102.3841782402
 20
138.6876582458
 30
0.0
  0
SPLINE
  5
3F9
100
AcDbEntity
  8
0
100
AcDbSpline
 62
7
  6
CONTINUOUS
 70
0
 71
3
 72
26
 73
22
 74
0
 42
0.0000001
 43
0.0000001
 44
0.0000000001
 40
0.0
 40
0.0
 40
0.0
 40
0.0
 40
0.1263424991
 40
0.1900754286
 40
0.2543331486
 40
0.3193079975
 40
0.3853153705
 40
0.4528878535
 40
0.4875412094
 40
0.5228371935
 40
0.5584520379
 40
0.5932971172
 40
0.6262531979
 40
0.6573835621
 40
0.6873245809
 40
0.716572025
 40
0.7739739936
 40
0.8307489773
 40
0.8872599967
 40
0.943654623
 40
1.0
 40
1.0
 40
1.0
 40
1.0
 10
96.8044828663
 20
145.625626038
 30
0.0
 10
97.1676465829
 20
145.5707073149
 30
0.0
 10
97.7155364707
 20
145.4972305506
 30
0.0
 10
98.4517036897
 20
145.4273826303
 30
0.0
 10
99.0117668588
 20
145.3932515297
 30
0.0
 10
99.5795893068
 20
145.3844218483
 30
0.0
 10
100.1565211545
 20
145.4128852407
 30
0.0
 10
100.6419118311
 20
145.4858457412
 30
0.0
 10
101.0264907898
 20
145.5977739336
 30
0.0
 10
101.3086220798
 20
145.7215684894
 30
0.0
 10
101.5640139496
 20
145.8975178679
 30
0.0
 10
101.7607881406
 20
146.1306898961
 30
0.0
 10
101.8743642079
 20
146.3992003353
 30
0.0
 10
101.9149221817
 20
146.6716318096
 30
0.0
 10
101.9059789184
 20
146.935041995
 30
0.0
 10
101.8506550736
 20
147.2700975145
 30
0.0
 10
101.7257825288
 20
147.6696824675
 30
0.0
 10
101.5269524825
 20
148.1248197585
 30
0.0
 10
101.2972516733
 20
148.5617268474
 30
0.0
 10
101.046250141
 20
148.9850858372
 30
0.0
 10
100.8684008181
 20
149.2604695332
 30
0.0
 10
100.7774986667
 20
149.3967344823
 30
0.0
  0
SPLINE
  5
3FA
100
AcDbEntity
  8
0
100
AcDbSpline
 62
7
  6
CONTINUOUS
 70
0
 71
3
 72
12
 73
8
 74
0
 42
0.0000001
 43
0.0000001
 44
0.0000000001
 40
0.0
 40
0.0
 40
0.0
 40
0.0
 40
0.2895709725
 40
0.5486422641
 40
0.7816376893
 40
0.89183982
 40
1.0
 40
1.0
 40
1.0
 40
1.0
 10
82.8778044765
 20
130.4886977245
 30
0.0
 10
82.8778044765
 20
130.3113031571
 30
0.0
 10
82.9046934699
 20
129.9739976621
 30
0.0
 10
83.0410568807
 20
129.5108181463
 30
0.0
 10
83.2370746056
 20
129.1912582943
 30
0.0
 10
83.4349900641
 20
128.9965863349
 30
0.0
 10
83.5453237146
 20
128.9195921076
 30
0.0
 10
83.602703686
 20
128.8864567493
 30
0.0
  0
SPLINE
  5
3FB
100
AcDbEntity
  8
0
100
AcDbSpline
 62
7
  6
CONTINUOUS
 70
0
 71
3
 72
18
 73
14
 74
0
 42
0.0000001
 43
0.0000001
 44
0.0000000001
 40
0.0
 40
0.0
 40
0.0
 40
0.0
 40
0.1295224177
 40
0.2569741219
 40
0.3819256571
 40
0.5038732451
 40
0.6223962036
 40
0.680528313
 40
0.7382767078
 40
0.7965501743
 40
0.8572976469
 40
0.9238829062
 40
1.0
 40
1.0
 40
1.0
 40
1.0
 10
97.9601082153
 20
140.7594906786
 30
0.0
 10
98.0600218182
 20
140.7512753765
 30
0.0
 10
98.2585438595
 20
140.7381975141
 30
0.0
 10
98.5541780945
 20
140.7312628851
 30
0.0
 10
98.8440011461
 20
140.7408346752
 30
0.0
 10
99.12538019
 20
140.7725485595
 30
0.0
 10
99.3514431316
 20
140.8255178775
 30
0.0
 10
99.520468498
 20
140.8924583959
 30
0.0
 10
99.6387062071
 20
140.9582222435
 30
0.0
 10
99.7456747539
 20
141.0449594229
 30
0.0
 10
99.8347929067
 20
141.1596424033
 30
0.0
 10
99.8945671508
 20
141.3075604607
 30
0.0
 10
99.9063976933
 20
141.418820857
 30
0.0
 10
99.9063976933
 20
141.4777357405
 30
0.0
  0
SPLINE
  5
3FC
100
AcDbEntity
  8
0
100
AcDbSpline
 62
7
  6
CONTINUOUS
 70
0
 71
3
 72
34
 73
30
 74
0
 42
0.0000001
 43
0.0000001
 44
0.0000000001
 40
0.0
 40
0.0
 40
0.0
 40
0.0
 40
0.0838824857
 40
0.1682020794
 40
0.2530094578
 40
0.338351252
 40
0.424245734
 40
0.5106056672
 40
0.5538500429
 40
0.5969759144
 40
0.6397062925
 40
0.6814812003
 40
0.7211795121
 40
0.7567530885
 40
0.7853979971
 40
0.796473185
 40
0.8053795226
 40
0.8123950779
 40
0.8179907196
 40
0.8227711863
 40
0.8273452804
 40
0.83215739
 40
0.8374385347
 40
0.8496309951
 40
0.863920982
 40
0.8799873531
 40
0.9162616
 40
0.9566462567
 40
1.0
 40
1.0
 40
1.0
 40
1.0
 10
101.1888180429
 20
149.6341956729
 30
0.0
 10
101.3300221545
 20
149.5700041248
 30
0.0
 10
101.6134308991
 20
149.4418675425
 30
0.0
 10
102.0406764231
 20
149.2512213112
 30
0.0
 10
102.4715344783
 20
149.0620668463
 30
0.0
 10
102.9064927531
 20
148.8750345253
 30
0.0
 10
103.3459367994
 20
148.6912192442
 30
0.0
 10
103.7156296259
 20
148.5424385895
 30
0.0
 10
104.0137154689
 20
148.4276930005
 30
0.0
 10
104.2376045982
 20
148.3448264258
 30
0.0
 10
104.4603110633
 20
148.2666629507
 30
0.0
 10
104.6787532642
 20
148.195669357
 30
0.0
 10
104.8868014606
 20
148.1356818499
 30
0.0
 10
105.0740306697
 20
148.0922336165
 30
0.0
 10
105.2122863834
 20
148.0722223063
 30
0.0
 10
105.3023533796
 20
148.0713773808
 30
0.0
 10
105.3521241686
 20
148.07708462
 30
0.0
 10
105.3905207103
 20
148.0885656652
 30
0.0
 10
105.4184285445
 20
148.1055003042
 30
0.0
 10
105.4362764027
 20
148.1273994257
 30
0.0
 10
105.444673009
 20
148.1527288466
 30
0.0
 10
105.4454221704
 20
148.1801157081
 30
0.0
 10
105.4379076662
 20
148.2208388776
 30
0.0
 10
105.4146660129
 20
148.2753569435
 30
0.0
 10
105.3736997349
 20
148.3426185809
 30
0.0
 10
105.3003777005
 20
148.4418002859
 30
0.0
 10
105.1865150592
 20
148.5703068877
 30
0.0
 10
105.0299456414
 20
148.7276383031
 30
0.0
 10
104.9166413221
 20
148.8332296466
 30
0.0
 10
104.8573280634
 20
148.8871618397
 30
0.0
  0
SPLINE
  5
3FD
100
AcDbEntity
  8
0
100
AcDbSpline
 62
7
  6
CONTINUOUS
 70
0
 71
3
 72
16
 73
12
 74
0
 42
0.0000001
 43
0.0000001
 44
0.0000000001
 40
0.0
 40
0.0
 40
0.0
 40
0.0
 40
0.2450113438
 40
0.3689267636
 40
0.4940956562
 40
0.6208476679
 40
0.7494898734
 40
0.8144554983
 40
0.8793302285
 40
0.9425038301
 40
1.0
 40
1.0
 40
1.0
 40
1.0
 10
96.8044828663
 20
145.625626038
 30
0.0
 10
97.1102396175
 20
145.3245937965
 30
0.0
 10
97.5653224988
 20
144.8657826153
 30
0.0
 10
98.156877305
 20
144.2342108421
 30
0.0
 10
98.5943419593
 20
143.7422883224
 30
0.0
 10
99.0188378966
 20
143.2283191318
 30
0.0
 10
99.3520008701
 20
142.7761197777
 30
0.0
 10
99.5926329886
 20
142.3924343209
 30
0.0
 10
99.7506708946
 20
142.0930141682
 30
0.0
 10
99.8687723594
 20
141.7895192691
 30
0.0
 10
99.9063976933
 20
141.5784262604
 30
0.0
 10
99.9063976933
 20
141.4777357405
 30
0.0
  0
SPLINE
  5
3FE
100
AcDbEntity
  8
0
100
AcDbSpline
 62
7
  6
CONTINUOUS
 70
0
 71
3
 72
11
 73
7
 74
0
 42
0.0000001
 43
0.0000001
 44
0.0000000001
 40
0.0
 40
0.0
 40
0.0
 40
0.0
 40
0.22364517
 40
0.4615142525
 40
0.719615073
 40
1.0
 40
1.0
 40
1.0
 40
1.0
 10
21.8999232231
 20
97.8889909856
 30
0.0
 10
21.7857837524
 20
97.9548886429
 30
0.0
 10
21.5703751483
 20
98.128270998
 30
0.0
 10
21.322274532
 20
98.4774904112
 30
0.0
 10
21.1488960581
 20
98.9045748892
 30
0.0
 10
21.0888673219
 20
99.2182185581
 30
0.0
 10
21.0708935428
 20
99.3824719351
 30
0.0
  0
SPLINE
  5
3FF
100
AcDbEntity
  8
0
100
AcDbSpline
 62
7
  6
CONTINUOUS
 70
0
 71
3
 72
11
 73
7
 74
0
 42
0.0000001
 43
0.0000001
 44
0.0000000001
 40
0.0
 40
0.0
 40
0.0
 40
0.0
 40
0.2368169205
 40
0.4825917025
 40
0.7371052518
 40
1.0
 40
1.0
 40
1.0
 40
1.0
 10
21.3679245951
 20
167.1439859619
 30
0.0
 10
20.647707592
 20
161.8311851075
 30
0.0
 10
19.5666605015
 20
150.9492554981
 30
0.0
 10
18.9980386777
 20
134.2610018439
 30
0.0
 10
19.4535729304
 20
116.9793828434
 30
0.0
 10
20.4234716161
 20
105.2989371137
 30
0.0
 10
21.0708935428
 20
99.3824719351
 30
0.0
  0
SPLINE
  5
400
100
AcDbEntity
  8
0
100
AcDbSpline
 62
7
  6
CONTINUOUS
 70
0
 71
3
 72
9
 73
5
 74
0
 42
0.0000001
 43
0.0000001
 44
0.0000000001
 40
0.0
 40
0.0
 40
0.0
 40
0.0
 40
0.2603782916
 40
1.0
 40
1.0
 40
1.0
 40
1.0
 10
24.6430352902
 20
96.5518966376
 30
0.0
 10
24.6586686078
 20
96.5189254317
 30
0.0
 10
24.7234407094
 20
96.3946530919
 30
0.0
 10
24.8086447726
 20
96.2805843346
 30
0.0
 10
24.8821007999
 20
96.2074553563
 30
0.0
  0
SPLINE
  5
401
100
AcDbEntity
  8
0
100
AcDbSpline
 62
7
  6
CONTINUOUS
 70
0
 71
3
 72
9
 73
5
 74
0
 42
0.0000001
 43
0.0000001
 44
0.0000000001
 40
0.0
 40
0.0
 40
0.0
 40
0.0
 40
0.2527452273
 40
1.0
 40
1.0
 40
1.0
 40
1.0
 10
24.8821007999
 20
96.2074553563
 30
0.0
 10
24.8979217822
 20
96.1917048139
 30
0.0
 10
24.9624421754
 20
96.1313527319
 30
0.0
 10
25.0347963842
 20
96.0793513059
 30
0.0
 10
25.0919574676
 20
96.0463500826
 30
0.0
  0
SPLINE
  5
402
100
AcDbEntity
  8
0
100
AcDbSpline
 62
7
  6
CONTINUOUS
 70
0
 71
3
 72
11
 73
7
 74
0
 42
0.0000001
 43
0.0000001
 44
0.0000000001
 40
0.0
 40
0.0
 40
0.0
 40
0.0
 40
0.2897011399
 40
0.5490888176
 40
0.7822183492
 40
1.0
 40
1.0
 40
1.0
 40
1.0
 10
77.1501603563
 20
164.7407248632
 30
0.0
 10
77.2379164497
 20
164.7913905649
 30
0.0
 10
77.4124923959
 20
164.8744416191
 30
0.0
 10
77.6808191816
 20
164.9392447047
 30
0.0
 10
77.9325913805
 20
164.9328704579
 30
0.0
 10
78.0841665367
 20
164.8778569842
 30
0.0
 10
78.1501399832
 20
164.839774725
 30
0.0
  0
SPLINE
  5
403
100
AcDbEntity
  8
0
100
AcDbSpline
 62
7
  6
CONTINUOUS
 70
0
 71
3
 72
17
 73
13
 74
0
 42
0.0000001
 43
0.0000001
 44
0.0000000001
 40
0.0
 40
0.0
 40
0.0
 40
0.0
 40
0.1286920618
 40
0.2702783064
 40
0.4174365418
 40
0.5617781925
 40
0.6954479477
 40
0.8127116203
 40
0.8646743896
 40
0.9125102982
 40
0.9571382578
 40
1.0
 40
1.0
 40
1.0
 40
1.0
 10
77.5037152188
 20
161.2705948174
 30
0.0
 10
77.6517672104
 20
161.3560721643
 30
0.0
 10
77.939150535
 20
161.5772113609
 30
0.0
 10
78.3069532584
 20
161.9957016076
 30
0.0
 10
78.6097229485
 20
162.4881145048
 30
0.0
 10
78.822389329
 20
163.0144841554
 30
0.0
 10
78.9279487688
 20
163.5319876142
 30
0.0
 10
78.9184955094
 20
163.9397680111
 30
0.0
 10
78.8429964218
 20
164.219442861
 30
0.0
 10
78.758963694
 20
164.3934104106
 30
0.0
 10
78.6464478539
 20
164.5356114682
 30
0.0
 10
78.5530074648
 20
164.6071905801
 30
0.0
 10
78.5036936731
 20
164.6356522787
 30
0.0
  0
SPLINE
  5
404
100
AcDbEntity
  8
0
100
AcDbSpline
 62
7
  6
CONTINUOUS
 70
0
 71
3
 72
11
 73
7
 74
0
 42
0.0000001
 43
0.0000001
 44
0.0000000001
 40
0.0
 40
0.0
 40
0.0
 40
0.0
 40
0.2242718271
 40
0.4624182716
 40
0.7198934372
 40
1.0
 40
1.0
 40
1.0
 40
1.0
 10
82.1953253463
 20
168.4133065811
 30
0.0
 10
82.1779032397
 20
168.527494861
 30
0.0
 10
82.1112969729
 20
168.7590431429
 30
0.0
 10
81.9287136097
 20
169.0848462291
 30
0.0
 10
81.6669431352
 20
169.389585211
 30
0.0
 10
81.453056576
 20
169.567374526
 30
0.0
 10
81.3361382671
 20
169.6518912796
 30
0.0
  0
SPLINE
  5
405
100
AcDbEntity
  8
0
100
AcDbSpline
 62
7
  6
CONTINUOUS
 70
0
 71
3
 72
11
 73
7
 74
0
 42
0.0000001
 43
0.0000001
 44
0.0000000001
 40
0.0
 40
0.0
 40
0.0
 40
0.0
 40
0.2897781767
 40
0.5490726313
 40
0.7822276909
 40
1.0
 40
1.0
 40
1.0
 40
1.0
 10
104.1615769853
 20
165.638756857
 30
0.0
 10
104.0299046243
 20
165.7147762102
 30
0.0
 10
103.7910491076
 20
165.8792213101
 30
0.0
 10
103.5056777495
 20
166.1792528889
 30
0.0
 10
103.3251082356
 20
166.5110440818
 30
0.0
 10
103.2829105507
 20
166.7492281885
 30
0.0
 10
103.2829105493
 20
166.8634893186
 30
0.0
  0
SPLINE
  5
406
100
AcDbEntity
  8
0
100
AcDbSpline
 62
7
  6
CONTINUOUS
 70
0
 71
3
 72
11
 73
7
 74
0
 42
0.0000001
 43
0.0000001
 44
0.0000000001
 40
0.0
 40
0.0
 40
0.0
 40
0.0
 40
0.217780861
 40
0.4509234132
 40
0.7102539949
 40
1.0
 40
1.0
 40
1.0
 40
1.0
 10
64.2402506505
 20
159.7192098874
 30
0.0
 10
64.2402708024
 20
159.8334754087
 30
0.0
 10
64.1980169705
 20
160.0716515836
 30
0.0
 10
64.017477476
 20
160.4034685984
 30
0.0
 10
63.7320734966
 20
160.7034709564
 30
0.0
 10
63.4932313414
 20
160.8679314974
 30
0.0
 10
63.3615737073
 20
160.9439423483
 30
0.0
  0
SPLINE
  5
407
100
AcDbEntity
  8
0
100
AcDbSpline
 62
7
  6
CONTINUOUS
 70
0
 71
3
 72
11
 73
7
 74
0
 42
0.0000001
 43
0.0000001
 44
0.0000000001
 40
0.0
 40
0.0
 40
0.0
 40
0.0
 40
0.2191895662
 40
0.4529220188
 40
0.7116628037
 40
1.0
 40
1.0
 40
1.0
 40
1.0
 10
81.2107427437
 20
169.5170695803
 30
0.0
 10
81.2107622266
 20
169.6275419606
 30
0.0
 10
81.1714398845
 20
169.8572744279
 30
0.0
 10
81.0027406619
 20
170.1790914893
 30
0.0
 10
80.734998885
 20
170.4721571473
 30
0.0
 10
80.5099226313
 20
170.6345060109
 30
0.0
 10
80.3857467125
 20
170.7099985991
 30
0.0
  0
SPLINE
  5
408
100
AcDbEntity
  8
0
100
AcDbSpline
 62
7
  6
CONTINUOUS
 70
0
 71
3
 72
14
 73
10
 74
0
 42
0.0000001
 43
0.0000001
 44
0.0000000001
 40
0.0
 40
0.0
 40
0.0
 40
0.0
 40
0.0957392945
 40
0.1960578689
 40
0.30454131
 40
0.4233191735
 40
0.553123256
 40
0.6935421622
 40
1.0
 40
1.0
 40
1.0
 40
1.0
 10
68.1391985521
 20
191.9297198277
 30
0.0
 10
68.1391976097
 20
192.0528062968
 30
0.0
 10
68.1033822991
 20
192.3060915152
 30
0.0
 10
67.9467040991
 20
192.6691393972
 30
0.0
 10
67.6938167807
 20
193.0098836521
 30
0.0
 10
67.3530099752
 20
193.3208609404
 30
0.0
 10
66.9331023885
 20
193.5958934441
 30
0.0
 10
66.2623617092
 20
193.9154945979
 30
0.0
 10
65.7024689808
 20
194.0683109298
 30
0.0
 10
65.314531908
 20
194.1371365697
 30
0.0
  0
SPLINE
  5
409
100
AcDbEntity
  8
0
100
AcDbSpline
 62
7
  6
CONTINUOUS
 70
0
 71
3
 72
11
 73
7
 74
0
 42
0.0000001
 43
0.0000001
 44
0.0000000001
 40
0.0
 40
0.0
 40
0.0
 40
0.0
 40
0.260153143
 40
0.5216020698
 40
0.7717920974
 40
1.0
 40
1.0
 40
1.0
 40
1.0
 10
65.314531908
 20
194.1371365697
 30
0.0
 10
64.9630901162
 20
194.1994874196
 30
0.0
 10
64.2469867613
 20
194.2658070391
 30
0.0
 10
63.1859557972
 20
194.2007620832
 30
0.0
 10
62.1911591773
 20
193.9782447425
 30
0.0
 10
61.5819409912
 20
193.7192326781
 30
0.0
 10
61.3107871095
 20
193.562682846
 30
0.0
  0
SPLINE
  5
40A
100
AcDbEntity
  8
0
100
AcDbSpline
 62
7
  6
CONTINUOUS
 70
0
 71
3
 72
15
 73
11
 74
0
 42
0.0000001
 43
0.0000001
 44
0.0000000001
 40
0.0
 40
0.0
 40
0.0
 40
0.0
 40
0.0933564697
 40
0.192039241
 40
0.3000218815
 40
0.4193885318
 40
0.5505041666
 40
0.6923753351
 40
0.8430958291
 40
1.0
 40
1.0
 40
1.0
 40
1.0
 10
70.889214541
 20
190.2967149967
 30
0.0
 10
70.8892215102
 20
190.5252243251
 30
0.0
 10
70.8153162099
 20
190.9979489441
 30
0.0
 10
70.4947244643
 20
191.6680081452
 30
0.0
 10
69.9816486492
 20
192.2878466722
 30
0.0
 10
69.2954280117
 20
192.8421207162
 30
0.0
 10
68.4569901212
 20
193.3176778172
 30
0.0
 10
67.4907045489
 20
193.7020816549
 30
0.0
 10
66.424964745
 20
193.9843747078
 30
0.0
 10
65.6789126798
 20
194.097639183
 30
0.0
 10
65.2967820137
 20
194.1360421789
 30
0.0
  0
SPLINE
  5
40B
100
AcDbEntity
  8
0
100
AcDbSpline
 62
7
  6
CONTINUOUS
 70
0
 71
3
 72
10
 73
6
 74
0
 42
0.0000001
 43
0.0000001
 44
0.0000000001
 40
0.0
 40
0.0
 40
0.0
 40
0.0
 40
0.2380982603
 40
0.4814216677
 40
1.0
 40
1.0
 40
1.0
 40
1.0
 10
71.6392057538
 20
184.9894492653
 30
0.0
 10
71.6391911538
 20
185.1429844822
 30
0.0
 10
71.6102195248
 20
185.4542163384
 30
0.0
 10
71.4351584454
 20
186.077597277
 30
0.0
 10
71.1796676679
 20
186.5095457847
 30
0.0
 10
70.9735293444
 20
186.7728522453
 30
0.0
  0
SPLINE
  5
40C
100
AcDbEntity
  8
0
100
AcDbSpline
 62
7
  6
CONTINUOUS
 70
0
 71
3
 72
11
 73
7
 74
0
 42
0.0000001
 43
0.0000001
 44
0.0000000001
 40
0.0
 40
0.0
 40
0.0
 40
0.0
 40
0.2897733512
 40
0.5490657165
 40
0.7822241652
 40
1.0
 40
1.0
 40
1.0
 40
1.0
 10
26.9454729097
 20
170.5374561905
 30
0.0
 10
26.813804551
 20
170.461437882
 30
0.0
 10
26.5749539356
 20
170.2969971129
 30
0.0
 10
26.2895868224
 20
169.9969698724
 30
0.0
 10
26.1090142419
 20
169.6651815225
 30
0.0
 10
26.0668160987
 20
169.4269958124
 30
0.0
 10
26.0668161002
 20
169.312733927
 30
0.0
  0
SPLINE
  5
40D
100
AcDbEntity
  8
0
100
AcDbSpline
 62
7
  6
CONTINUOUS
 70
0
 71
3
 72
11
 73
7
 74
0
 42
0.0000001
 43
0.0000001
 44
0.0000000001
 40
0.0
 40
0.0
 40
0.0
 40
0.0
 40
0.2897733512
 40
0.5490657165
 40
0.7822241652
 40
1.0
 40
1.0
 40
1.0
 40
1.0
 10
68.6649466933
 20
146.4512516738
 30
0.0
 10
68.5332783346
 20
146.3752333653
 30
0.0
 10
68.2944277193
 20
146.2107925962
 30
0.0
 10
68.0090606061
 20
145.9107653557
 30
0.0
 10
67.8284880256
 20
145.5789770058
 30
0.0
 10
67.7862898824
 20
145.3407912957
 30
0.0
 10
67.7862898838
 20
145.2265294103
 30
0.0
  0
SPLINE
  5
40E
100
AcDbEntity
  8
0
100
AcDbSpline
 62
7
  6
CONTINUOUS
 70
0
 71
3
 72
13
 73
9
 74
0
 42
0.0000001
 43
0.0000001
 44
0.0000000001
 40
0.0
 40
0.0
 40
0.0
 40
0.0
 40
0.1142466307
 40
0.237544229
 40
0.5000005226
 40
0.7624565301
 40
0.8857537943
 40
1.0
 40
1.0
 40
1.0
 40
1.0
 10
108.4042000085
 20
166.9451183962
 30
0.0
 10
108.258991047
 20
167.0289529327
 30
0.0
 10
107.9414105443
 20
167.1768465741
 30
0.0
 10
107.2375794516
 20
167.3906080809
 30
0.0
 10
106.2828763418
 20
167.4944495635
 30
0.0
 10
105.32817415
 20
167.3906036667
 30
0.0
 10
104.6243456949
 20
167.1768386977
 30
0.0
 10
104.3067671382
 20
167.0289434698
 30
0.0
 10
104.1615593215
 20
166.9451081982
 30
0.0
  0
SPLINE
  5
40F
100
AcDbEntity
  8
0
100
AcDbSpline
 62
7
  6
CONTINUOUS
 70
0
 71
3
 72
19
 73
15
 74
0
 42
0.0000001
 43
0.0000001
 44
0.0000000001
 40
0.0
 40
0.0
 40
0.0
 40
0.0
 40
0.0428397378
 40
0.0874486795
 40
0.1352614443
 40
0.1872036398
 40
0.243684536
 40
0.3046792079
 40
0.3698182335
 40
0.4384686422
 40
0.5827509656
 40
0.7298405825
 40
0.8713667074
 40
1.0
 40
1.0
 40
1.0
 40
1.0
 10
52.418715863
 20
184.5813673878
 30
0.0
 10
52.4187310071
 20
184.7308184058
 30
0.0
 10
52.3787185189
 20
185.0371860937
 30
0.0
 10
52.2030597982
 20
185.4795768609
 30
0.0
 10
51.9179303501
 20
185.8989517684
 30
0.0
 10
51.5314703622
 20
186.2869961947
 30
0.0
 10
51.0526293721
 20
186.6369094712
 30
0.0
 10
50.4915804066
 20
186.9420767164
 30
0.0
 10
49.8600196072
 20
187.196502372
 30
0.0
 10
48.9265334226
 20
187.4654236125
 30
0.0
 10
47.6756528723
 20
187.640917205
 30
0.0
 10
46.1590799318
 20
187.5989958276
 30
0.0
 10
44.7249443602
 20
187.3120448408
 30
0.0
 10
43.8450382349
 20
186.9490058599
 30
0.0
 10
43.4564078599
 20
186.7246313476
 30
0.0
  0
SPLINE
  5
410
100
AcDbEntity
  8
0
100
AcDbSpline
 62
7
  6
CONTINUOUS
 70
0
 71
3
 72
13
 73
9
 74
0
 42
0.0000001
 43
0.0000001
 44
0.0000000001
 40
0.0
 40
0.0
 40
0.0
 40
0.0
 40
0.1142483233
 40
0.2375469957
 40
0.4999994774
 40
0.7624522452
 40
0.8857512516
 40
1.0
 40
1.0
 40
1.0
 40
1.0
 10
72.9076079882
 20
139.8376535737
 30
0.0
 10
72.7623975633
 20
139.7538167963
 30
0.0
 10
72.444813133
 20
139.6059220978
 30
0.0
 10
71.7409843497
 20
139.3921599953
 30
0.0
 10
70.7862909679
 20
139.2883190539
 30
0.0
 10
69.831596668
 20
139.3921555811
 30
0.0
 10
69.1277652471
 20
139.6059142214
 30
0.0
 10
68.8101788708
 20
139.7538073334
 30
0.0
 10
68.6649673011
 20
139.8376433757
 30
0.0
  0
SPLINE
  5
411
100
AcDbEntity
  8
0
100
AcDbSpline
 62
7
  6
CONTINUOUS
 70
0
 71
3
 72
11
 73
7
 74
0
 42
0.0000001
 43
0.0000001
 44
0.0000000001
 40
0.0
 40
0.0
 40
0.0
 40
0.0
 40
0.2208679447
 40
0.4553888858
 40
0.7134828703
 40
1.0
 40
1.0
 40
1.0
 40
1.0
 10
53.1687127038
 20
183.7648649694
 30
0.0
 10
53.168734232
 20
183.9770187583
 30
0.0
 10
53.0966718108
 20
184.4170891333
 30
0.0
 10
52.7855707991
 20
185.0371929928
 30
0.0
 10
52.2899988862
 20
185.606336392
 30
0.0
 10
51.8713281614
 20
185.9255291393
 30
0.0
 10
51.6400654845
 20
186.0747259327
 30
0.0
  0
SPLINE
  5
412
100
AcDbEntity
  8
0
100
AcDbSpline
 62
7
  6
CONTINUOUS
 70
0
 71
3
 72
11
 73
7
 74
0
 42
0.0000001
 43
0.0000001
 44
0.0000000001
 40
0.0
 40
0.0
 40
0.0
 40
0.0
 40
0.2272379022
 40
0.4647383973
 40
0.7206518845
 40
1.0
 40
1.0
 40
1.0
 40
1.0
 10
54.6687260552
 20
175.5998407928
 30
0.0
 10
54.6687209093
 20
175.8237620503
 30
0.0
 10
54.6056688916
 20
176.2838273605
 30
0.0
 10
54.3292312705
 20
176.9452580917
 30
0.0
 10
53.8823476829
 20
177.5684811711
 30
0.0
 10
53.4972324676
 20
177.933343459
 30
0.0
 10
53.2836306282
 20
178.1069761786
 30
0.0
  0
SPLINE
  5
413
100
AcDbEntity
  8
0
100
AcDbSpline
 62
7
  6
CONTINUOUS
 70
0
 71
3
 72
11
 73
7
 74
0
 42
0.0000001
 43
0.0000001
 44
0.0000000001
 40
0.0
 40
0.0
 40
0.0
 40
0.0
 40
0.2897733512
 40
0.5490657165
 40
0.7822241652
 40
1.0
 40
1.0
 40
1.0
 40
1.0
 10
95.53484246
 20
172.9055130862
 30
0.0
 10
95.3592846484
 20
172.8041553415
 30
0.0
 10
95.0408171613
 20
172.5849009827
 30
0.0
 10
94.6603276771
 20
172.184864662
 30
0.0
 10
94.4195642364
 20
171.7424801955
 30
0.0
 10
94.3633000454
 20
171.4248992487
 30
0.0
 10
94.3633000474
 20
171.2725500681
 30
0.0
  0
SPLINE
  5
414
100
AcDbEntity
  8
0
100
AcDbSpline
 62
7
  6
CONTINUOUS
 70
0
 71
3
 72
15
 73
11
 74
0
 42
0.0000001
 43
0.0000001
 44
0.0000000001
 40
0.0
 40
0.0
 40
0.0
 40
0.0
 40
0.1141447985
 40
0.2373324971
 40
0.3669747555
 40
0.5000005214
 40
0.6330262147
 40
0.7626682613
 40
0.8858556261
 40
1.0
 40
1.0
 40
1.0
 40
1.0
 10
101.1916967095
 20
172.9055266836
 30
0.0
 10
100.9980847608
 20
173.0173060655
 30
0.0
 10
100.5746626946
 20
173.2144508756
 30
0.0
 10
99.8851894366
 20
173.4240522789
 30
0.0
 10
99.1386826928
 20
173.552995466
 30
0.0
 10
98.3632648148
 20
173.5965504262
 30
0.0
 10
97.5878475566
 20
173.5529917857
 30
0.0
 10
96.8413426441
 20
173.4240450541
 30
0.0
 10
96.1518723545
 20
173.2144403733
 30
0.0
 10
95.7284528823
 20
173.0172934484
 30
0.0
 10
95.53484246
 20
172.9055130862
 30
0.0
  0
SPLINE
  5
415
100
AcDbEntity
  8
0
100
AcDbSpline
 62
7
  6
CONTINUOUS
 70
0
 71
3
 72
11
 73
7
 74
0
 42
0.0000001
 43
0.0000001
 44
0.0000000001
 40
0.0
 40
0.0
 40
0.0
 40
0.0
 40
0.2177753738
 40
0.4509336309
 40
0.7102261693
 40
1.0
 40
1.0
 40
1.0
 40
1.0
 10
102.3632626738
 20
171.2725500681
 30
0.0
 10
102.3632626719
 20
171.4249008888
 30
0.0
 10
102.3069971963
 20
171.7424854999
 30
0.0
 10
102.066228547
 20
172.1848742497
 30
0.0
 10
101.685731335
 20
172.5849135356
 30
0.0
 10
101.367257804
 20
172.8041687314
 30
0.0
 10
101.1916967095
 20
172.9055266836
 30
0.0
  0
SPLINE
  5
416
100
AcDbEntity
  8
0
100
AcDbSpline
 62
7
  6
CONTINUOUS
 70
0
 71
3
 72
9
 73
5
 74
0
 42
0.0000001
 43
0.0000001
 44
0.0000000001
 40
0.0
 40
0.0
 40
0.0
 40
0.0
 40
0.2444296014
 40
1.0
 40
1.0
 40
1.0
 40
1.0
 10
56.9902245844
 20
174.2363384428
 30
0.0
 10
56.9673258029
 20
174.3053662895
 30
0.0
 10
56.8653271349
 20
174.584979483
 30
0.0
 10
56.7308013115
 20
174.8524272628
 30
0.0
 10
56.6148882858
 20
175.0450507378
 30
0.0
  0
SPLINE
  5
417
100
AcDbEntity
  8
0
100
AcDbSpline
 62
7
  6
CONTINUOUS
 70
0
 71
3
 72
11
 73
7
 74
0
 42
0.0000001
 43
0.0000001
 44
0.0000000001
 40
0.0
 40
0.0
 40
0.0
 40
0.0
 40
0.2793877914
 40
0.5352676595
 40
0.7727688331
 40
1.0
 40
1.0
 40
1.0
 40
1.0
 10
41.0535668466
 20
178.1067516302
 30
0.0
 10
40.8399564281
 20
177.9331181147
 30
0.0
 10
40.4548802884
 20
177.5682837061
 30
0.0
 10
40.0081593206
 20
176.9450505472
 30
0.0
 10
39.7317632564
 20
176.2837409895
 30
0.0
 10
39.6687366334
 20
175.8237294481
 30
0.0
 10
39.6687417786
 20
175.5998408032
 30
0.0
  0
SPLINE
  5
418
100
AcDbEntity
  8
0
100
AcDbSpline
 62
7
  6
CONTINUOUS
 70
0
 71
3
 72
11
 73
7
 74
0
 42
0.0000001
 43
0.0000001
 44
0.0000000001
 40
0.0
 40
0.0
 40
0.0
 40
0.0
 40
0.2228964003
 40
0.4583021121
 40
0.7156030448
 40
1.0
 40
1.0
 40
1.0
 40
1.0
 10
109.9899732257
 20
164.4139837669
 30
0.0
 10
109.9899732244
 20
164.5146887196
 30
0.0
 10
109.9577086586
 20
164.7229058989
 30
0.0
 10
109.8176536424
 20
165.0183850574
 30
0.0
 10
109.5933385832
 20
165.2921319001
 30
0.0
 10
109.4025338245
 20
165.4478207831
 30
0.0
 10
109.2970092242
 20
165.5211317405
 30
0.0
  0
SPLINE
  5
419
100
AcDbEntity
  8
0
100
AcDbSpline
 62
7
  6
CONTINUOUS
 70
0
 71
3
 72
11
 73
7
 74
0
 42
0.0000001
 43
0.0000001
 44
0.0000000001
 40
0.0
 40
0.0
 40
0.0
 40
0.0
 40
0.2846861367
 40
0.5420911666
 40
0.7773862295
 40
1.0
 40
1.0
 40
1.0
 40
1.0
 10
42.5740876601
 20
185.9925732292
 30
0.0
 10
42.3602838709
 20
185.8455612943
 30
0.0
 10
41.9736262652
 20
185.5330396005
 30
0.0
 10
41.5186403822
 20
184.9824733067
 30
0.0
 10
41.2342448013
 20
184.3874760015
 30
0.0
 10
41.1687757188
 20
183.9677605071
 30
0.0
 10
41.1687551301
 20
183.7648649691
 30
0.0
  0
SPLINE
  5
41A
100
AcDbEntity
  8
0
100
AcDbSpline
 62
7
  6
CONTINUOUS
 70
0
 71
3
 72
11
 73
7
 74
0
 42
0.0000001
 43
0.0000001
 44
0.0000000001
 40
0.0
 40
0.0
 40
0.0
 40
0.0
 40
0.2219807049
 40
0.4569660397
 40
0.714599061
 40
1.0
 40
1.0
 40
1.0
 40
1.0
 10
109.9899732257
 20
161.9644765155
 30
0.0
 10
109.989973227
 20
161.8613875874
 30
0.0
 10
109.9560716002
 20
161.6479421509
 30
0.0
 10
109.8092538834
 20
161.3459645096
 30
0.0
 10
109.57462857
 20
161.0673084463
 30
0.0
 10
109.3756219007
 20
160.9098334293
 30
0.0
 10
109.2656286347
 20
160.835882391
 30
0.0
  0
SPLINE
  5
41B
100
AcDbEntity
  8
0
100
AcDbSpline
 62
7
  6
CONTINUOUS
 70
0
 71
3
 72
9
 73
5
 74
0
 42
0.0000001
 43
0.0000001
 44
0.0000000001
 40
0.0
 40
0.0
 40
0.0
 40
0.0
 40
0.2588906838
 40
1.0
 40
1.0
 40
1.0
 40
1.0
 10
43.4564078599
 20
186.7246313476
 30
0.0
 10
43.4014522282
 20
186.6929028883
 30
0.0
 10
43.1915959362
 20
186.5662575279
 30
0.0
 10
42.9916188225
 20
186.4228627569
 30
0.0
 10
42.8520952325
 20
186.306537272
 30
0.0
  0
SPLINE
  5
41C
100
AcDbEntity
  8
0
100
AcDbSpline
 62
7
  6
CONTINUOUS
 70
0
 71
3
 72
11
 73
7
 74
0
 42
0.0000001
 43
0.0000001
 44
0.0000000001
 40
0.0
 40
0.0
 40
0.0
 40
0.0
 40
0.2766006214
 40
0.5317424179
 40
0.7704184616
 40
1.0
 40
1.0
 40
1.0
 40
1.0
 10
42.7654772231
 20
186.2319822367
 30
0.0
 10
42.6339419408
 20
186.1150480072
 30
0.0
 10
42.3972155689
 20
185.8707022383
 30
0.0
 10
42.1246966791
 20
185.4593834239
 30
0.0
 10
41.9568144639
 20
185.0266174779
 30
0.0
 10
41.9187667734
 20
184.7274472903
 30
0.0
 10
41.9187519709
 20
184.5813673849
 30
0.0
  0
SPLINE
  5
41D
100
AcDbEntity
  8
0
100
AcDbSpline
 62
7
  6
CONTINUOUS
 70
0
 71
3
 72
11
 73
7
 74
0
 42
0.0000001
 43
0.0000001
 44
0.0000000001
 40
0.0
 40
0.0
 40
0.0
 40
0.0
 40
0.2177753738
 40
0.4509336309
 40
0.7102261693
 40
1.0
 40
1.0
 40
1.0
 40
1.0
 10
109.2828744818
 20
165.7203859346
 30
0.0
 10
109.2828744804
 20
165.8346490501
 30
0.0
 10
109.2406753736
 20
166.0728375085
 30
0.0
 10
109.0600988867
 20
166.4046290708
 30
0.0
 10
108.7747259777
 20
166.7046585352
 30
0.0
 10
108.5358708295
 20
166.8690999321
 30
0.0
 10
108.4042000085
 20
166.9451183962
 30
0.0
  0
SPLINE
  5
41E
100
AcDbEntity
  8
0
100
AcDbSpline
 62
7
  6
CONTINUOUS
 70
0
 71
3
 72
9
 73
5
 74
0
 42
0.0000001
 43
0.0000001
 44
0.0000000001
 40
0.0
 40
0.0
 40
0.0
 40
0.0
 40
0.2444296014
 40
1.0
 40
1.0
 40
1.0
 40
1.0
 10
73.9607166775
 20
184.0341981357
 30
0.0
 10
73.937817896
 20
184.1032259824
 30
0.0
 10
73.8358192281
 20
184.3828391759
 30
0.0
 10
73.7012934046
 20
184.6502869558
 30
0.0
 10
73.5853803789
 20
184.8429104307
 30
0.0
  0
SPLINE
  5
41F
100
AcDbEntity
  8
0
100
AcDbSpline
 62
7
  6
CONTINUOUS
 70
0
 71
3
 72
11
 73
7
 74
0
 42
0.0000001
 43
0.0000001
 44
0.0000000001
 40
0.0
 40
0.0
 40
0.0
 40
0.0
 40
0.2177753738
 40
0.4509336309
 40
0.7102261693
 40
1.0
 40
1.0
 40
1.0
 40
1.0
 10
73.7862618537
 20
145.2265294103
 30
0.0
 10
73.7862618522
 20
145.3407925258
 30
0.0
 10
73.7440627455
 20
145.5789809841
 30
0.0
 10
73.5634862586
 20
145.9107725465
 30
0.0
 10
73.2781133496
 20
146.2108020109
 30
0.0
 10
73.0392582013
 20
146.3752434078
 30
0.0
 10
72.9075873804
 20
146.4512618719
 30
0.0
  0
SPLINE
  5
420
100
AcDbEntity
  8
0
100
AcDbSpline
 62
7
  6
CONTINUOUS
 70
0
 71
3
 72
11
 73
7
 74
0
 42
0.0000001
 43
0.0000001
 44
0.0000000001
 40
0.0
 40
0.0
 40
0.0
 40
0.0
 40
0.2177796629
 40
0.4509238111
 40
0.7102593659
 40
1.0
 40
1.0
 40
1.0
 40
1.0
 10
32.0667842142
 20
170.455837315
 30
0.0
 10
32.0668043815
 20
170.3415742325
 30
0.0
 10
32.0245488032
 20
170.103402626
 30
0.0
 10
31.8440195349
 20
169.771584038
 30
0.0
 10
31.5586192792
 20
169.4715853959
 30
0.0
 10
31.3197838203
 20
169.3071242345
 30
0.0
 10
31.1881312605
 20
169.2311150474
 30
0.0
  0
SPLINE
  5
421
100
AcDbEntity
  8
0
100
AcDbSpline
 62
7
  6
CONTINUOUS
 70
0
 71
3
 72
10
 73
6
 74
0
 42
0.0000001
 43
0.0000001
 44
0.0000000001
 40
0.0
 40
0.0
 40
0.0
 40
0.0
 40
0.5197482181
 40
0.7626662032
 40
1.0
 40
1.0
 40
1.0
 40
1.0
 10
57.3530762982
 20
186.8331641589
 30
0.0
 10
57.132930972
 20
186.5630789574
 30
0.0
 10
56.8587555755
 20
186.1178893048
 30
0.0
 10
56.6704532037
 20
185.4713902932
 30
0.0
 10
56.6392311364
 20
185.1485579421
 30
0.0
 10
56.6392462664
 20
184.9894492993
 30
0.0
  0
SPLINE
  5
422
100
AcDbEntity
  8
0
100
AcDbSpline
 62
7
  6
CONTINUOUS
 70
0
 71
3
 72
12
 73
8
 74
0
 42
0.0000001
 43
0.0000001
 44
0.0000000001
 40
0.0
 40
0.0
 40
0.0
 40
0.0
 40
0.2895810204
 40
0.548637375
 40
0.7816378622
 40
0.8918387092
 40
1.0
 40
1.0
 40
1.0
 40
1.0
 10
59.3662353653
 20
193.0523400867
 30
0.0
 10
59.069952367
 20
192.8812820389
 30
0.0
 10
58.5325240311
 20
192.5111437215
 30
0.0
 10
57.8904817701
 20
191.8367561516
 30
0.0
 10
57.545713418
 20
191.2012858534
 30
0.0
 10
57.4114977771
 20
190.6830072014
 30
0.0
 10
57.3892413764
 20
190.4244992083
 30
0.0
 10
57.3892374792
 20
190.2967149906
 30
0.0
  0
SPLINE
  5
423
100
AcDbEntity
  8
0
100
AcDbSpline
 62
7
  6
CONTINUOUS
 70
0
 71
3
 72
9
 73
5
 74
0
 42
0.0000001
 43
0.0000001
 44
0.0000000001
 40
0.0
 40
0.0
 40
0.0
 40
0.0
 40
0.2546609695
 40
1.0
 40
1.0
 40
1.0
 40
1.0
 10
62.8302223586
 20
194.1197856317
 30
0.0
 10
62.6924877038
 20
194.1040556775
 30
0.0
 10
62.1528529978
 20
194.0322651875
 30
0.0
 10
61.6183171789
 20
193.9204572895
 30
0.0
 10
61.2272075445
 20
193.8124814771
 30
0.0
  0
SPLINE
  5
424
100
AcDbEntity
  8
0
100
AcDbSpline
 62
7
  6
CONTINUOUS
 70
0
 71
3
 72
9
 73
5
 74
0
 42
0.0000001
 43
0.0000001
 44
0.0000000001
 40
0.0
 40
0.0
 40
0.0
 40
0.0
 40
0.5171518061
 40
1.0
 40
1.0
 40
1.0
 40
1.0
 10
61.2272075445
 20
193.8124814771
 30
0.0
 10
60.892506651
 20
193.7200787396
 30
0.0
 10
60.2543409518
 20
193.5062099619
 30
0.0
 10
59.6469924896
 20
193.2144343204
 30
0.0
 10
59.3662353653
 20
193.0523400867
 30
0.0
  0
SPLINE
  5
425
100
AcDbEntity
  8
0
100
AcDbSpline
 62
7
  6
CONTINUOUS
 70
0
 71
3
 72
11
 73
7
 74
0
 42
0.0000001
 43
0.0000001
 44
0.0000000001
 40
0.0
 40
0.0
 40
0.0
 40
0.0
 40
0.2897756264
 40
0.5490692242
 40
0.7822277401
 40
1.0
 40
1.0
 40
1.0
 40
1.0
 10
61.3107871095
 20
193.562682846
 30
0.0
 10
61.1352282107
 20
193.4613244736
 30
0.0
 10
60.8167594744
 20
193.2420683801
 30
0.0
 10
60.4362711821
 20
192.8420289236
 30
0.0
 10
60.195510518
 20
192.3996450993
 30
0.0
 10
60.1392523017
 20
192.082066255
 30
0.0
 10
60.1392534681
 20
191.9297198281
 30
0.0
  0
SPLINE
  5
426
100
AcDbEntity
  8
0
100
AcDbSpline
 62
7
  6
CONTINUOUS
 70
0
 71
3
 72
17
 73
13
 74
0
 42
0.0000001
 43
0.0000001
 44
0.0000000001
 40
0.0
 40
0.0
 40
0.0
 40
0.0
 40
0.12868996
 40
0.2702722062
 40
0.4174312903
 40
0.5617781732
 40
0.6954492761
 40
0.8127130379
 40
0.8646790319
 40
0.9125109796
 40
0.9571404657
 40
1.0
 40
1.0
 40
1.0
 40
1.0
 10
63.3615737073
 20
160.9439423483
 30
0.0
 10
63.1394995593
 20
161.0721540169
 30
0.0
 10
62.636706498
 20
161.2796114006
 30
0.0
 10
61.8172363353
 20
161.4435365979
 30
0.0
 10
60.9504960904
 20
161.4675497874
 30
0.0
 10
60.1072124544
 20
161.3490642054
 30
0.0
 10
59.3557530895
 20
161.0980824754
 30
0.0
 10
58.8331724763
 20
160.7799116794
 30
0.0
 10
58.5264078789
 20
160.4721470614
 30
0.0
 10
58.3635464879
 20
160.232450588
 30
0.0
 10
58.2630802584
 20
159.9796917185
 30
0.0
 10
58.2402888023
 20
159.8046118172
 30
0.0
 10
58.2402737408
 20
159.719209886
 30
0.0
  0
SPLINE
  5
427
100
AcDbEntity
  8
0
100
AcDbSpline
 62
7
  6
CONTINUOUS
 70
0
 71
3
 72
11
 73
7
 74
0
 42
0.0000001
 43
0.0000001
 44
0.0000000001
 40
0.0
 40
0.0
 40
0.0
 40
0.0
 40
0.2177845113
 40
0.450917848
 40
0.7103083905
 40
1.0
 40
1.0
 40
1.0
 40
1.0
 10
76.5037367645
 20
161.1715470246
 30
0.0
 10
76.5697133411
 20
161.1334683174
 30
0.0
 10
76.7212862791
 20
161.0784451825
 30
0.0
 10
76.9730637706
 20
161.0720780103
 30
0.0
 10
77.2413882926
 20
161.1368805196
 30
0.0
 10
77.4159620874
 20
161.2199308258
 30
0.0
 10
77.5037152188
 20
161.2705948174
 30
0.0
  0
SPLINE
  5
428
100
AcDbEntity
  8
0
100
AcDbSpline
 62
7
  6
CONTINUOUS
 70
0
 71
3
 72
17
 73
13
 74
0
 42
0.0000001
 43
0.0000001
 44
0.0000000001
 40
0.0
 40
0.0
 40
0.0
 40
0.0
 40
0.0428590382
 40
0.0874850278
 40
0.1353193459
 40
0.1872814037
 40
0.3045420728
 40
0.4382079173
 40
0.5825499624
 40
0.7297142529
 40
0.8713069433
 40
1.0
 40
1.0
 40
1.0
 40
1.0
 10
76.1501807293
 20
161.3756653328
 30
0.0
 10
76.1008717774
 20
161.404128243
 30
0.0
 10
76.0074315703
 20
161.4756966341
 30
0.0
 10
75.8949256109
 20
161.6178953532
 30
0.0
 10
75.8108830359
 20
161.7918511478
 30
0.0
 10
75.7353899606
 20
162.0715213547
 30
0.0
 10
75.7259226722
 20
162.479289217
 30
0.0
 10
75.8314724647
 20
162.9967871251
 30
0.0
 10
76.0441313315
 20
163.5231631044
 30
0.0
 10
76.3469036415
 20
164.0155951035
 30
0.0
 10
76.7147164685
 20
164.4341008167
 30
0.0
 10
77.0021072044
 20
164.6552468463
 30
0.0
 10
77.1501603563
 20
164.7407248632
 30
0.0
  0
SPLINE
  5
429
100
AcDbEntity
  8
0
100
AcDbSpline
 62
7
  6
CONTINUOUS
 70
0
 71
3
 72
19
 73
15
 74
0
 42
0.0000001
 43
0.0000001
 44
0.0000000001
 40
0.0
 40
0.0
 40
0.0
 40
0.0
 40
0.0428397378
 40
0.0874486795
 40
0.1352614443
 40
0.1872036398
 40
0.243684536
 40
0.3046792079
 40
0.3698182335
 40
0.4384686422
 40
0.5827509656
 40
0.7298405825
 40
0.8713667074
 40
1.0
 40
1.0
 40
1.0
 40
1.0
 10
41.9187519709
 20
184.5813673849
 30
0.0
 10
41.9187368267
 20
184.431916367
 30
0.0
 10
41.9587493149
 20
184.1255486791
 30
0.0
 10
42.1344080357
 20
183.6831579119
 30
0.0
 10
42.4195374837
 20
183.2637830044
 30
0.0
 10
42.8059974717
 20
182.8757385781
 30
0.0
 10
43.2848384617
 20
182.5258253016
 30
0.0
 10
43.8458874273
 20
182.2206580564
 30
0.0
 10
44.4774482266
 20
181.9662324008
 30
0.0
 10
45.4109344113
 20
181.6973111603
 30
0.0
 10
46.6618149616
 20
181.5218175678
 30
0.0
 10
48.1783879021
 20
181.5637389452
 30
0.0
 10
49.6125234736
 20
181.8506899319
 30
0.0
 10
50.4924295989
 20
182.2137289129
 30
0.0
 10
50.881059974
 20
182.4381034251
 30
0.0
  0
SPLINE
  5
42A
100
AcDbEntity
  8
0
100
AcDbSpline
 62
7
  6
CONTINUOUS
 70
0
 71
3
 72
14
 73
10
 74
0
 42
0.0000001
 43
0.0000001
 44
0.0000000001
 40
0.0
 40
0.0
 40
0.0
 40
0.0
 40
0.3026355409
 40
0.4444652228
 40
0.576748806
 40
0.6980090839
 40
0.8078968117
 40
0.907616619
 40
1.0
 40
1.0
 40
1.0
 40
1.0
 10
60.8893060761
 20
154.0710880041
 30
0.0
 10
60.4376711185
 20
154.0940543361
 30
0.0
 10
59.774077043
 20
154.1923471889
 30
0.0
 10
58.9540250612
 20
154.4625073604
 30
0.0
 10
58.4191892382
 20
154.718008219
 30
0.0
 10
57.9674675012
 20
155.0236742044
 30
0.0
 10
57.6118168447
 20
155.3718889519
 30
0.0
 10
57.3642468708
 20
155.7542257945
 30
0.0
 10
57.2765122749
 20
156.0324428434
 30
0.0
 10
57.2556911381
 20
156.1689091076
 30
0.0
  0
SPLINE
  5
42B
100
AcDbEntity
  8
0
100
AcDbSpline
 62
7
  6
CONTINUOUS
 70
0
 71
3
 72
11
 73
7
 74
0
 42
0.0000001
 43
0.0000001
 44
0.0000000001
 40
0.0
 40
0.0
 40
0.0
 40
0.0
 40
0.2897776971
 40
0.5490719787
 40
0.7822272299
 40
1.0
 40
1.0
 40
1.0
 40
1.0
 10
109.1113244535
 20
163.1892615033
 30
0.0
 10
109.2429943522
 20
163.265280701
 30
0.0
 10
109.4818453359
 20
163.4297251731
 30
0.0
 10
109.7672108983
 20
163.7297545279
 30
0.0
 10
109.947776506
 20
164.0615425083
 30
0.0
 10
109.9899732272
 20
164.2997238668
 30
0.0
 10
109.9899732257
 20
164.4139837669
 30
0.0
  0
SPLINE
  5
42C
100
AcDbEntity
  8
0
100
AcDbSpline
 62
7
  6
CONTINUOUS
 70
0
 71
3
 72
9
 73
5
 74
0
 42
0.0000001
 43
0.0000001
 44
0.0000000001
 40
0.0
 40
0.0
 40
0.0
 40
0.0
 40
0.4750938762
 40
1.0
 40
1.0
 40
1.0
 40
1.0
 10
108.4042176723
 20
163.1892598037
 30
0.0
 10
108.1509501658
 20
163.0430366134
 30
0.0
 10
107.5709984173
 20
162.8154788313
 30
0.0
 10
106.9593320846
 20
162.7162003124
 30
0.0
 10
106.6369809632
 20
162.6940682583
 30
0.0
  0
SPLINE
  5
42D
100
AcDbEntity
  8
0
100
AcDbSpline
 62
7
  6
CONTINUOUS
 70
0
 71
3
 72
15
 73
11
 74
0
 42
0.0000001
 43
0.0000001
 44
0.0000000001
 40
0.0
 40
0.0
 40
0.0
 40
0.0
 40
0.1230330444
 40
0.257662499
 40
0.3986377425
 40
0.5397984923
 40
0.6749650276
 40
0.738641253
 40
0.7989583448
 40
1.0
 40
1.0
 40
1.0
 40
1.0
 10
77.5037152188
 20
164.5366044859
 30
0.0
 10
77.3742927874
 20
164.4618828563
 30
0.0
 10
77.1212508585
 20
164.2735093505
 30
0.0
 10
76.7880746065
 20
163.9195340175
 30
0.0
 10
76.5004878278
 20
163.5005645351
 30
0.0
 10
76.2771708488
 20
163.0434833847
 30
0.0
 10
76.1537871111
 20
162.6474494278
 30
0.0
 10
76.1012691269
 20
162.3361273999
 30
0.0
 10
76.0733716472
 20
161.9442525234
 30
0.0
 10
76.1305070018
 20
161.6053444489
 30
0.0
 10
76.2645600044
 20
161.4012303141
 30
0.0
  0
SPLINE
  5
42E
100
AcDbEntity
  8
0
100
AcDbSpline
 62
7
  6
CONTINUOUS
 70
0
 71
3
 72
9
 73
5
 74
0
 42
0.0000001
 43
0.0000001
 44
0.0000000001
 40
0.0
 40
0.0
 40
0.0
 40
0.0
 40
0.508470442
 40
1.0
 40
1.0
 40
1.0
 40
1.0
 10
76.2744193606
 20
161.3865653124
 30
0.0
 10
76.3048144539
 20
161.3423989862
 30
0.0
 10
76.3735200254
 20
161.2612189732
 30
0.0
 10
76.4588483348
 20
161.1974546037
 30
0.0
 10
76.5037367645
 20
161.1715470246
 30
0.0
  0
SPLINE
  5
42F
100
AcDbEntity
  8
0
100
AcDbSpline
 62
7
  6
CONTINUOUS
 70
0
 71
3
 72
11
 73
7
 74
0
 42
0.0000001
 43
0.0000001
 44
0.0000000001
 40
0.0
 40
0.0
 40
0.0
 40
0.0
 40
0.2897733512
 40
0.5490657165
 40
0.7822241652
 40
1.0
 40
1.0
 40
1.0
 40
1.0
 10
108.4042176723
 20
164.4956636711
 30
0.0
 10
108.535886031
 20
164.5716819796
 30
0.0
 10
108.7747366464
 20
164.7361227487
 30
0.0
 10
109.0601037595
 20
165.0361499893
 30
0.0
 10
109.2406763401
 20
165.3679383391
 30
0.0
 10
109.2828744833
 20
165.6061240492
 30
0.0
 10
109.2828744818
 20
165.7203859346
 30
0.0
  0
SPLINE
  5
430
100
AcDbEntity
  8
0
100
AcDbSpline
 62
7
  6
CONTINUOUS
 70
0
 71
3
 72
9
 73
5
 74
0
 42
0.0000001
 43
0.0000001
 44
0.0000000001
 40
0.0
 40
0.0
 40
0.0
 40
0.0
 40
0.5247613351
 40
1.0
 40
1.0
 40
1.0
 40
1.0
 10
106.6783784837
 20
164.0034788702
 30
0.0
 10
106.9932500721
 20
164.0276734503
 30
0.0
 10
107.5904896074
 20
164.1285236327
 30
0.0
 10
108.1565364808
 20
164.352665722
 30
0.0
 10
108.4042176723
 20
164.4956636711
 30
0.0
  0
SPLINE
  5
431
100
AcDbEntity
  8
0
100
AcDbSpline
 62
7
  6
CONTINUOUS
 70
0
 71
3
 72
9
 73
5
 74
0
 42
0.0000001
 43
0.0000001
 44
0.0000000001
 40
0.0
 40
0.0
 40
0.0
 40
0.0
 40
0.2744293402
 40
1.0
 40
1.0
 40
1.0
 40
1.0
 10
104.1615593215
 20
166.9451081982
 30
0.0
 10
104.0859965492
 20
166.9014822717
 30
0.0
 10
103.8186861018
 20
166.7303442343
 30
0.0
 10
103.5817543793
 20
166.5022286729
 30
0.0
 10
103.459816416
 20
166.3064015163
 30
0.0
  0
SPLINE
  5
432
100
AcDbEntity
  8
0
100
AcDbSpline
 62
7
  6
CONTINUOUS
 70
0
 71
3
 72
18
 73
14
 74
0
 42
0.0000001
 43
0.0000001
 44
0.0000000001
 40
0.0
 40
0.0
 40
0.0
 40
0.0
 40
0.1286563236
 40
0.2702033957
 40
0.417318796
 40
0.5616275679
 40
0.6952643255
 40
0.7562714577
 40
0.8127643045
 40
0.8647138825
 40
0.9125352642
 40
0.9571529617
 40
1.0
 40
1.0
 40
1.0
 40
1.0
 10
101.1917202612
 20
166.7818285901
 30
0.0
 10
100.895621072
 20
166.610876664
 30
0.0
 10
100.2252110961
 20
166.3342715933
 30
0.0
 10
99.1326382122
 20
166.1156706143
 30
0.0
 10
97.9768102534
 20
166.0837029515
 30
0.0
 10
96.8530771863
 20
166.2414890241
 30
0.0
 10
95.9918811389
 20
166.529143123
 30
0.0
 10
95.4041344842
 20
166.8486410153
 30
0.0
 10
95.0392757349
 20
167.1152509436
 30
0.0
 10
94.7448714036
 20
167.4109383334
 30
0.0
 10
94.527620182
 20
167.7304436679
 30
0.0
 10
94.3937346046
 20
168.0674948303
 30
0.0
 10
94.3633135873
 20
168.3009252063
 30
0.0
 10
94.3633108752
 20
168.4147916113
 30
0.0
  0
SPLINE
  5
433
100
AcDbEntity
  8
0
100
AcDbSpline
 62
7
  6
CONTINUOUS
 70
0
 71
3
 72
12
 73
8
 74
0
 42
0.0000001
 43
0.0000001
 44
0.0000000001
 40
0.0
 40
0.0
 40
0.0
 40
0.0
 40
0.1081589869
 40
0.2183608554
 40
0.4513554797
 40
0.7104291209
 40
1.0
 40
1.0
 40
1.0
 40
1.0
 10
52.418713049
 20
183.7648649699
 30
0.0
 10
52.4187031493
 20
183.6654795175
 30
0.0
 10
52.4014380394
 20
183.464414762
 30
0.0
 10
52.2969822138
 20
183.0613308463
 30
0.0
 10
52.0288890557
 20
182.5670429406
 30
0.0
 10
51.529485352
 20
182.0425402315
 30
0.0
 10
51.1114938764
 20
181.7546412895
 30
0.0
 10
50.881059974
 20
181.621601008
 30
0.0
  0
SPLINE
  5
434
100
AcDbEntity
  8
0
100
AcDbSpline
 62
7
  6
CONTINUOUS
 70
0
 71
3
 72
9
 73
5
 74
0
 42
0.0000001
 43
0.0000001
 44
0.0000000001
 40
0.0
 40
0.0
 40
0.0
 40
0.0
 40
0.2563875355
 40
1.0
 40
1.0
 40
1.0
 40
1.0
 10
37.7225795481
 20
168.8061091039
 30
0.0
 10
37.6832482512
 20
168.8714695846
 30
0.0
 10
37.5363890922
 20
169.1302451715
 30
0.0
 10
37.4169041823
 20
169.4048301297
 30
0.0
 10
37.3472432495
 20
169.614821399
 30
0.0
  0
SPLINE
  5
435
100
AcDbEntity
  8
0
100
AcDbSpline
 62
7
  6
CONTINUOUS
 70
0
 71
3
 72
20
 73
16
 74
0
 42
0.0000001
 43
0.0000001
 44
0.0000000001
 40
0.0
 40
0.0
 40
0.0
 40
0.0
 40
0.042831497
 40
0.0874317462
 40
0.1352349413
 40
0.1871665786
 40
0.2436359509
 40
0.3046181598
 40
0.3697438468
 40
0.4383802022
 40
0.5826337234
 40
0.7296942023
 40
0.8711922306
 40
0.9375942137
 40
1.0
 40
1.0
 40
1.0
 40
1.0
 10
41.1687551301
 20
183.7648649691
 30
0.0
 10
41.168737798
 20
183.5940625358
 30
0.0
 10
41.2144674517
 20
183.2439260138
 30
0.0
 10
41.4152206174
 20
182.7383343643
 30
0.0
 10
41.7410854487
 20
182.2590503252
 30
0.0
 10
42.1827525481
 20
181.8155723047
 30
0.0
 10
42.7299974828
 20
181.4156731155
 30
0.0
 10
43.3711925702
 20
181.0669124012
 30
0.0
 10
44.092976627
 20
180.7761418012
 30
0.0
 10
45.1597932353
 20
180.468798705
 30
0.0
 10
46.5895500248
 20
180.2682675558
 30
0.0
 10
48.3220290014
 20
180.3160343426
 30
0.0
 10
49.7188601843
 20
180.5954969575
 30
0.0
 10
50.7338287149
 20
180.9632241112
 30
0.0
 10
51.1958725838
 20
181.1909908373
 30
0.0
 10
51.4113922678
 20
181.3154204421
 30
0.0
  0
SPLINE
  5
436
100
AcDbEntity
  8
0
100
AcDbSpline
 62
7
  6
CONTINUOUS
 70
0
 71
3
 72
12
 73
8
 74
0
 42
0.0000001
 43
0.0000001
 44
0.0000000001
 40
0.0
 40
0.0
 40
0.0
 40
0.0
 40
0.1081590056
 40
0.2183607065
 40
0.4513548963
 40
0.7104290909
 40
1.0
 40
1.0
 40
1.0
 40
1.0
 10
53.16870996
 20
175.5998407988
 30
0.0
 10
53.1686986442
 20
175.4862574077
 30
0.0
 10
53.1489671679
 20
175.256469275
 30
0.0
 10
53.0295893089
 20
174.7958025232
 30
0.0
 10
52.7231972524
 20
174.2309021179
 30
0.0
 10
52.1524503794
 20
173.6314700165
 30
0.0
 10
51.6747453201
 20
173.3024423189
 30
0.0
 10
51.4113922678
 20
173.1503962708
 30
0.0
  0
SPLINE
  5
437
100
AcDbEntity
  8
0
100
AcDbSpline
 62
7
  6
CONTINUOUS
 70
0
 71
3
 72
21
 73
17
 74
0
 42
0.0000001
 43
0.0000001
 44
0.0000000001
 40
0.0
 40
0.0
 40
0.0
 40
0.0
 40
0.0428259468
 40
0.0874201842
 40
0.135215697
 40
0.1871387842
 40
0.2436012447
 40
0.3045752709
 40
0.3696902724
 40
0.4383167261
 40
0.5825489835
 40
0.7295867603
 40
0.8015967035
 40
0.8712139216
 40
0.9375991226
 40
1.0
 40
1.0
 40
1.0
 40
1.0
 10
39.6687417786
 20
175.5998408032
 30
0.0
 10
39.6687466853
 20
175.3863331655
 30
0.0
 10
39.7258477333
 20
174.9486477349
 30
0.0
 10
39.976880967
 20
174.3166791449
 30
0.0
 10
40.384183943
 20
173.7175713282
 30
0.0
 10
40.9362339135
 20
173.1631797747
 30
0.0
 10
41.6203274826
 20
172.66333583
 30
0.0
 10
42.4218468502
 20
172.2274152707
 30
0.0
 10
43.3240528434
 20
171.8639116127
 30
0.0
 10
44.6576279426
 20
171.4797176232
 30
0.0
 10
46.4443980412
 20
171.229151361
 30
0.0
 10
48.2638887425
 20
171.2791062794
 30
0.0
 10
49.686884356
 20
171.5046725521
 30
0.0
 10
50.6936416297
 20
171.7602091222
 30
0.0
 10
51.6251245827
 20
172.0977981308
 30
0.0
 10
52.2026377323
 20
172.3824868642
 30
0.0
 10
52.4720568555
 20
172.5380351391
 30
0.0
  0
SPLINE
  5
438
100
AcDbEntity
  8
0
100
AcDbSpline
 62
7
  6
CONTINUOUS
 70
0
 71
3
 72
11
 73
7
 74
0
 42
0.0000001
 43
0.0000001
 44
0.0000000001
 40
0.0
 40
0.0
 40
0.0
 40
0.0
 40
0.2181692082
 40
0.4515211485
 40
0.7106215484
 40
1.0
 40
1.0
 40
1.0
 40
1.0
 10
81.2107369247
 20
168.210665711
 30
0.0
 10
81.2107176812
 20
168.097489294
 30
0.0
 10
81.1694316917
 20
167.8616967242
 30
0.0
 10
80.9922012309
 20
167.5327740289
 30
0.0
 10
80.7119332404
 20
167.2346870348
 30
0.0
 10
80.4770368955
 20
167.0708296075
 30
0.0
 10
80.3475109357
 20
166.9949480204
 30
0.0
  0
SPLINE
  5
439
100
AcDbEntity
  8
0
100
AcDbSpline
 62
7
  6
CONTINUOUS
 70
0
 71
3
 72
11
 73
7
 74
0
 42
0.0000001
 43
0.0000001
 44
0.0000000001
 40
0.0
 40
0.0
 40
0.0
 40
0.0
 40
0.2897479759
 40
0.5490808555
 40
0.7822230711
 40
1.0
 40
1.0
 40
1.0
 40
1.0
 10
59.118950684
 20
157.1880735577
 30
0.0
 10
58.9872924466
 20
157.2640847568
 30
0.0
 10
58.7484501198
 20
157.4285476849
 30
0.0
 10
58.4630449971
 20
157.7285510546
 30
0.0
 10
58.2825124896
 20
158.0603699778
 30
0.0
 10
58.2402601314
 20
158.2985428157
 30
0.0
 10
58.2402795597
 20
158.4128060204
 30
0.0
  0
SPLINE
  5
43A
100
AcDbEntity
  8
0
100
AcDbSpline
 62
7
  6
CONTINUOUS
 70
0
 71
3
 72
18
 73
14
 74
0
 42
0.0000001
 43
0.0000001
 44
0.0000000001
 40
0.0
 40
0.0
 40
0.0
 40
0.0
 40
0.0428461008
 40
0.0874632736
 40
0.1352847226
 40
0.1872342622
 40
0.2437266487
 40
0.3047331774
 40
0.4383671161
 40
0.5826741421
 40
0.729791723
 40
0.8713420336
 40
1.0
 40
1.0
 40
1.0
 40
1.0
 10
60.1392534681
 20
191.9297198281
 30
0.0
 10
60.1392543398
 20
191.8158559106
 30
0.0
 10
60.1696818326
 20
191.5824305154
 30
0.0
 10
60.3035544609
 20
191.245378962
 30
0.0
 10
60.5208092175
 20
190.9258763687
 30
0.0
 10
60.8152108857
 20
190.6301890533
 30
0.0
 10
61.1800640829
 20
190.3635759763
 30
0.0
 10
61.7678025897
 20
190.0440846263
 30
0.0
 10
62.6289816189
 20
189.7564250766
 30
0.0
 10
63.752708353
 20
189.5986357516
 30
0.0
 10
64.9085460601
 20
189.6305959269
 30
0.0
 10
66.0011391954
 20
189.8491935396
 30
0.0
 10
66.6715619303
 20
190.1258026949
 30
0.0
 10
66.9676649107
 20
190.2967568098
 30
0.0
  0
SPLINE
  5
43B
100
AcDbEntity
  8
0
100
AcDbSpline
 62
7
  6
CONTINUOUS
 70
0
 71
3
 72
11
 73
7
 74
0
 42
0.0000001
 43
0.0000001
 44
0.0000000001
 40
0.0
 40
0.0
 40
0.0
 40
0.0
 40
0.2897733512
 40
0.5490657165
 40
0.7822241652
 40
1.0
 40
1.0
 40
1.0
 40
1.0
 10
101.1917202612
 20
169.6395870501
 30
0.0
 10
101.3672780728
 20
169.7409447948
 30
0.0
 10
101.6857455599
 20
169.9601991536
 30
0.0
 10
102.0662350441
 20
170.3602354743
 30
0.0
 10
102.3069984848
 20
170.8026199408
 30
0.0
 10
102.3632626758
 20
171.1202008876
 30
0.0
 10
102.3632626738
 20
171.2725500681
 30
0.0
  0
SPLINE
  5
43C
100
AcDbEntity
  8
0
100
AcDbSpline
 62
7
  6
CONTINUOUS
 70
0
 71
3
 72
15
 73
11
 74
0
 42
0.0000001
 43
0.0000001
 44
0.0000000001
 40
0.0
 40
0.0
 40
0.0
 40
0.0
 40
0.1141447985
 40
0.2373324971
 40
0.3669747555
 40
0.5000005214
 40
0.6330262147
 40
0.7626682613
 40
0.8858556261
 40
1.0
 40
1.0
 40
1.0
 40
1.0
 10
95.5348660118
 20
169.6395734527
 30
0.0
 10
95.7284779605
 20
169.5277940707
 30
0.0
 10
96.1519000266
 20
169.3306492607
 30
0.0
 10
96.8413732846
 20
169.1210478574
 30
0.0
 10
97.5878800284
 20
168.9921046703
 30
0.0
 10
98.3632979065
 20
168.9485497101
 30
0.0
 10
99.1387151646
 20
168.9921083506
 30
0.0
 10
99.8852200771
 20
169.1210550822
 30
0.0
 10
100.5746903667
 20
169.330659763
 30
0.0
 10
100.9981098389
 20
169.5278066879
 30
0.0
 10
101.1917202612
 20
169.6395870501
 30
0.0
  0
SPLINE
  5
43D
100
AcDbEntity
  8
0
100
AcDbSpline
 62
7
  6
CONTINUOUS
 70
0
 71
3
 72
12
 73
8
 74
0
 42
0.0000001
 43
0.0000001
 44
0.0000000001
 40
0.0
 40
0.0
 40
0.0
 40
0.0
 40
0.1081590514
 40
0.2183578759
 40
0.4513599045
 40
0.7104171385
 40
1.0
 40
1.0
 40
1.0
 40
1.0
 10
54.6687250909
 20
173.1503335458
 30
0.0
 10
54.6687263202
 20
173.0083539343
 30
0.0
 10
54.6439926477
 20
172.721127975
 30
0.0
 10
54.4948673868
 20
172.1452661059
 30
0.0
 10
54.1117905204
 20
171.4391867718
 30
0.0
 10
53.3984099626
 20
170.6898591528
 30
0.0
 10
52.8012624819
 20
170.2785937101
 30
0.0
 10
52.4720568555
 20
170.0885278877
 30
0.0
  0
SPLINE
  5
43E
100
AcDbEntity
  8
0
100
AcDbSpline
 62
7
  6
CONTINUOUS
 70
0
 71
3
 72
11
 73
7
 74
0
 42
0.0000001
 43
0.0000001
 44
0.0000000001
 40
0.0
 40
0.0
 40
0.0
 40
0.0
 40
0.2177753738
 40
0.4509336309
 40
0.7102261693
 40
1.0
 40
1.0
 40
1.0
 40
1.0
 10
94.3633000474
 20
171.2725500681
 30
0.0
 10
94.3633000493
 20
171.1201992475
 30
0.0
 10
94.419565525
 20
170.8026146364
 30
0.0
 10
94.6603341742
 20
170.3602258866
 30
0.0
 10
95.0408313862
 20
169.9601866007
 30
0.0
 10
95.3593049172
 20
169.7409314048
 30
0.0
 10
95.5348660118
 20
169.6395734527
 30
0.0
  0
SPLINE
  5
43F
100
AcDbEntity
  8
0
100
AcDbSpline
 62
7
  6
CONTINUOUS
 70
0
 71
3
 72
9
 73
5
 74
0
 42
0.0000001
 43
0.0000001
 44
0.0000000001
 40
0.0
 40
0.0
 40
0.0
 40
0.0
 40
0.2563875355
 40
1.0
 40
1.0
 40
1.0
 40
1.0
 10
54.6930716412
 20
178.6039687968
 30
0.0
 10
54.6537403444
 20
178.6693292775
 30
0.0
 10
54.5068811853
 20
178.9281048644
 30
0.0
 10
54.3873962754
 20
179.2026898226
 30
0.0
 10
54.3177353426
 20
179.4126810919
 30
0.0
  0
SPLINE
  5
440
100
AcDbEntity
  8
0
100
AcDbSpline
 62
7
  6
CONTINUOUS
 70
0
 71
3
 72
11
 73
7
 74
0
 42
0.0000001
 43
0.0000001
 44
0.0000000001
 40
0.0
 40
0.0
 40
0.0
 40
0.0
 40
0.217772663
 40
0.4509314042
 40
0.7102278685
 40
1.0
 40
1.0
 40
1.0
 40
1.0
 10
102.363251846
 20
168.4147916051
 30
0.0
 10
102.3632554747
 20
168.2624450236
 30
0.0
 10
102.3069912119
 20
167.9448666046
 30
0.0
 10
102.0662346508
 20
167.5024793506
 30
0.0
 10
101.6857440496
 20
167.1024420091
 30
0.0
 10
101.3672768959
 20
166.8831856554
 30
0.0
 10
101.1917202612
 20
166.7818285901
 30
0.0
  0
SPLINE
  5
441
100
AcDbEntity
  8
0
100
AcDbSpline
 62
7
  6
CONTINUOUS
 70
0
 71
3
 72
11
 73
7
 74
0
 42
0.0000001
 43
0.0000001
 44
0.0000000001
 40
0.0
 40
0.0
 40
0.0
 40
0.0
 40
0.217772663
 40
0.4509314042
 40
0.7102278685
 40
1.0
 40
1.0
 40
1.0
 40
1.0
 10
68.1391964955
 20
190.2967149905
 30
0.0
 10
68.1392001242
 20
190.144368409
 30
0.0
 10
68.0829358613
 20
189.8267899901
 30
0.0
 10
67.8421793003
 20
189.3844027361
 30
0.0
 10
67.4616886991
 20
188.9843653946
 30
0.0
 10
67.1432215453
 20
188.7651090408
 30
0.0
 10
66.9676649107
 20
188.6637519756
 30
0.0
  0
SPLINE
  5
442
100
AcDbEntity
  8
0
100
AcDbSpline
 62
7
  6
CONTINUOUS
 70
0
 71
3
 72
15
 73
11
 74
0
 42
0.0000001
 43
0.0000001
 44
0.0000000001
 40
0.0
 40
0.0
 40
0.0
 40
0.0
 40
0.0933564697
 40
0.192039241
 40
0.3000218815
 40
0.4193885318
 40
0.5505041666
 40
0.6923753351
 40
0.8430958291
 40
1.0
 40
1.0
 40
1.0
 40
1.0
 10
57.3892374792
 20
190.2967149906
 30
0.0
 10
57.3892305099
 20
190.0682056622
 30
0.0
 10
57.4631358102
 20
189.5954810432
 30
0.0
 10
57.7837275558
 20
188.9254218421
 30
0.0
 10
58.2968033709
 20
188.3055833151
 30
0.0
 10
58.9830240084
 20
187.7513092711
 30
0.0
 10
59.8214618989
 20
187.2757521701
 30
0.0
 10
60.7877474713
 20
186.8913483324
 30
0.0
 10
61.8534872751
 20
186.6090552795
 30
0.0
 10
62.5995393403
 20
186.4957908043
 30
0.0
 10
62.9816700064
 20
186.4573878083
 30
0.0
  0
SPLINE
  5
443
100
AcDbEntity
  8
0
100
AcDbSpline
 62
7
  6
CONTINUOUS
 70
0
 71
3
 72
11
 73
7
 74
0
 42
0.0000001
 43
0.0000001
 44
0.0000000001
 40
0.0
 40
0.0
 40
0.0
 40
0.0
 40
0.217780861
 40
0.4509234132
 40
0.7102539949
 40
1.0
 40
1.0
 40
1.0
 40
1.0
 10
58.2402737408
 20
159.719209886
 30
0.0
 10
58.2402535889
 20
159.6049443646
 30
0.0
 10
58.2825074208
 20
159.3667681897
 30
0.0
 10
58.4630469153
 20
159.034951175
 30
0.0
 10
58.7484508946
 20
158.734948817
 30
0.0
 10
58.9872930498
 20
158.570488276
 30
0.0
 10
59.118950684
 20
158.4944774251
 30
0.0
  0
SPLINE
  5
444
100
AcDbEntity
  8
0
100
AcDbSpline
 62
7
  6
CONTINUOUS
 70
0
 71
3
 72
14
 73
10
 74
0
 42
0.0000001
 43
0.0000001
 44
0.0000000001
 40
0.0
 40
0.0
 40
0.0
 40
0.0
 40
0.0997899908
 40
0.2031325883
 40
0.3129918694
 40
0.4314183908
 40
0.5594905363
 40
0.6974048883
 40
1.0
 40
1.0
 40
1.0
 40
1.0
 10
56.6392462664
 20
184.9894492993
 30
0.0
 10
56.6392650403
 20
184.7920207438
 30
0.0
 10
56.6877389757
 20
184.3886407258
 30
0.0
 10
56.9020410431
 20
183.8026096197
 30
0.0
 10
57.2513347413
 20
183.2423313842
 30
0.0
 10
57.7270687806
 20
182.717715716
 30
0.0
 10
58.3196820583
 20
182.2369053529
 30
0.0
 10
59.2801105489
 20
181.6468344893
 30
0.0
 10
60.0979387328
 20
181.3227146708
 30
0.0
 10
60.6711850699
 20
181.1501165433
 30
0.0
  0
SPLINE
  5
445
100
AcDbEntity
  8
0
100
AcDbSpline
 62
7
  6
CONTINUOUS
 70
0
 71
3
 72
9
 73
5
 74
0
 42
0.0000001
 43
0.0000001
 44
0.0000000001
 40
0.0
 40
0.0
 40
0.0
 40
0.0
 40
0.2444296014
 40
1.0
 40
1.0
 40
1.0
 40
1.0
 10
37.3472432495
 20
172.0643286504
 30
0.0
 10
37.370142031
 20
171.9953008037
 30
0.0
 10
37.4721406989
 20
171.7156876102
 30
0.0
 10
37.6066665224
 20
171.4482398303
 30
0.0
 10
37.7225795481
 20
171.2556163553
 30
0.0
  0
SPLINE
  5
446
100
AcDbEntity
  8
0
100
AcDbSpline
 62
7
  6
CONTINUOUS
 70
0
 71
3
 72
21
 73
17
 74
0
 42
0.0000001
 43
0.0000001
 44
0.0000000001
 40
0.0
 40
0.0
 40
0.0
 40
0.0
 40
0.0624003458
 40
0.1287841864
 40
0.1984007715
 40
0.2704102929
 40
0.4174488543
 40
0.5616836202
 40
0.6303111589
 40
0.6954267627
 40
0.7564009216
 40
0.8128631192
 40
0.8647856771
 40
0.9125805719
 40
0.9571742916
 40
1.0
 40
1.0
 40
1.0
 40
1.0
 10
52.4720568555
 20
170.0885278877
 30
0.0
 10
52.2026400301
 20
169.9329809395
 30
0.0
 10
51.6251364482
 20
169.6482942214
 30
0.0
 10
50.693665251
 20
169.3107096454
 30
0.0
 10
49.686920542
 20
169.0551732105
 30
0.0
 10
48.2639273146
 20
168.8296002998
 30
0.0
 10
46.4444221574
 20
168.7796416445
 30
0.0
 10
44.6576297129
 20
169.0302082993
 30
0.0
 10
43.3240349626
 20
169.4144100565
 30
0.0
 10
42.4218215645
 20
169.7779197289
 30
0.0
 10
41.620301766
 20
170.2138445118
 30
0.0
 10
40.9362135599
 20
170.7136903304
 30
0.0
 10
40.3841714225
 20
171.2680793541
 30
0.0
 10
39.9768747872
 20
171.8671820105
 30
0.0
 10
39.7258509117
 20
172.4991458142
 30
0.0
 10
39.6687445916
 20
172.9368271
 30
0.0
 10
39.668742743
 20
173.1503335473
 30
0.0
  0
SPLINE
  5
447
100
AcDbEntity
  8
0
100
AcDbSpline
 62
7
  6
CONTINUOUS
 70
0
 71
3
 72
12
 73
8
 74
0
 42
0.0000001
 43
0.0000001
 44
0.0000000001
 40
0.0
 40
0.0
 40
0.0
 40
0.0
 40
0.2895817993
 40
0.5486371749
 40
0.7816400895
 40
0.8918396553
 40
1.0
 40
1.0
 40
1.0
 40
1.0
 10
52.4720568555
 20
172.5380351391
 30
0.0
 10
52.8012613451
 20
172.7281003052
 30
0.0
 10
53.3984069455
 20
173.1393623644
 30
0.0
 10
54.1117846762
 20
173.8886883313
 30
0.0
 10
54.4948670666
 20
174.5947650348
 30
0.0
 10
54.6439921528
 20
175.1706307859
 30
0.0
 10
54.6687293181
 20
175.4578594531
 30
0.0
 10
54.6687260552
 20
175.5998407928
 30
0.0
  0
SPLINE
  5
448
100
AcDbEntity
  8
0
100
AcDbSpline
 62
7
  6
CONTINUOUS
 70
0
 71
3
 72
20
 73
16
 74
0
 42
0.0000001
 43
0.0000001
 44
0.0000000001
 40
0.0
 40
0.0
 40
0.0
 40
0.0
 40
0.062405373
 40
0.1288058257
 40
0.2703020853
 40
0.4173625289
 40
0.561618551
 40
0.6302561306
 40
0.6953826383
 40
0.756365199
 40
0.8128344538
 40
0.8647656649
 40
0.9125684549
 40
0.9571684557
 40
1.0
 40
1.0
 40
1.0
 40
1.0
 10
51.4113922678
 20
173.1503962708
 30
0.0
 10
51.1958740122
 20
173.0259674907
 30
0.0
 10
50.733838076
 20
172.7982021906
 30
0.0
 10
49.7188831839
 20
172.4304811172
 30
0.0
 10
48.322067384
 20
172.1510109885
 30
0.0
 10
46.5895854975
 20
172.1032425603
 30
0.0
 10
45.1598128751
 20
172.3037681489
 30
0.0
 10
44.0929789662
 20
172.6111171594
 30
0.0
 10
43.3711859554
 20
172.9018910867
 30
0.0
 10
42.7299874628
 20
173.2506544492
 30
0.0
 10
42.1827442943
 20
173.650555023
 30
0.0
 10
41.741082623
 20
174.0940328224
 30
0.0
 10
41.4152188439
 20
174.5733120881
 30
0.0
 10
41.2144671044
 20
175.078902224
 30
0.0
 10
41.1687408575
 20
175.4290381759
 30
0.0
 10
41.1687578738
 20
175.5998407972
 30
0.0
  0
SPLINE
  5
449
100
AcDbEntity
  8
0
100
AcDbSpline
 62
7
  6
CONTINUOUS
 70
0
 71
3
 72
12
 73
8
 74
0
 42
0.0000001
 43
0.0000001
 44
0.0000000001
 40
0.0
 40
0.0
 40
0.0
 40
0.0
 40
0.2895712537
 40
0.548642979
 40
0.7816379705
 40
0.8918399225
 40
1.0
 40
1.0
 40
1.0
 40
1.0
 10
51.4113922678
 20
181.3154204421
 30
0.0
 10
51.6747457548
 20
181.4674667411
 30
0.0
 10
52.152450793
 20
181.7964919102
 30
0.0
 10
52.7231936474
 20
182.3959246127
 30
0.0
 10
53.0295940132
 20
182.9608204646
 30
0.0
 10
53.1489651033
 20
183.421491348
 30
0.0
 10
53.1687011778
 20
183.6512804004
 30
0.0
 10
53.1687127038
 20
183.7648649694
 30
0.0
  0
SPLINE
  5
44A
100
AcDbEntity
  8
0
100
AcDbSpline
 62
7
  6
CONTINUOUS
 70
0
 71
3
 72
19
 73
15
 74
0
 42
0.0000001
 43
0.0000001
 44
0.0000000001
 40
0.0
 40
0.0
 40
0.0
 40
0.0
 40
0.1286314639
 40
0.2701555002
 40
0.4172445321
 40
0.5615291142
 40
0.6301807596
 40
0.6953206819
 40
0.7563158307
 40
0.8127967101
 40
0.8647385947
 40
0.9125511273
 40
0.9571600051
 40
1.0
 40
1.0
 40
1.0
 40
1.0
 10
50.881059974
 20
181.621601008
 30
0.0
 10
50.4924351307
 20
181.3972296894
 30
0.0
 10
49.6125426868
 20
181.0341948882
 30
0.0
 10
48.1784243025
 20
180.7472379396
 30
0.0
 10
46.6618530384
 20
180.7053143994
 30
0.0
 10
45.4109610194
 20
180.8808007524
 30
0.0
 10
44.4774600501
 20
181.1497264105
 30
0.0
 10
43.8458903391
 20
181.4041541707
 30
0.0
 10
43.2848366788
 20
181.7093227964
 30
0.0
 10
42.8059958976
 20
182.0592375594
 30
0.0
 10
42.419539331
 20
182.4472822312
 30
0.0
 10
42.1344080707
 20
182.8666531656
 30
0.0
 10
41.9587498492
 20
183.309044535
 30
0.0
 10
41.9187398982
 20
183.6154130563
 30
0.0
 10
41.9187547849
 20
183.7648649686
 30
0.0
  0
SPLINE
  5
44B
100
AcDbEntity
  8
0
100
AcDbSpline
 62
7
  6
CONTINUOUS
 70
0
 71
3
 72
12
 73
8
 74
0
 42
0.0000001
 43
0.0000001
 44
0.0000000001
 40
0.0
 40
0.0
 40
0.0
 40
0.0
 40
0.2895719878
 40
0.5486432193
 40
0.7816383539
 40
0.8918402078
 40
1.0
 40
1.0
 40
1.0
 40
1.0
 10
50.881059974
 20
182.4381034251
 30
0.0
 10
51.1114948735
 20
182.5711442823
 30
0.0
 10
51.5294869375
 20
182.8590415995
 30
0.0
 10
52.0288869805
 20
183.3835455832
 30
0.0
 10
52.2969873393
 20
183.8778291417
 30
0.0
 10
52.4014362493
 20
184.2809161213
 30
0.0
 10
52.418705792
 20
184.4819811459
 30
0.0
 10
52.418715863
 20
184.5813673878
 30
0.0
  0
SPLINE
  5
44C
100
AcDbEntity
  8
0
100
AcDbSpline
 62
7
  6
CONTINUOUS
 70
0
 71
3
 72
11
 73
7
 74
0
 42
0.0000001
 43
0.0000001
 44
0.0000000001
 40
0.0
 40
0.0
 40
0.0
 40
0.0
 40
0.2896408744
 40
0.5491100036
 40
0.7822350384
 40
1.0
 40
1.0
 40
1.0
 40
1.0
 10
75.735940906
 20
165.1489551636
 30
0.0
 10
75.8017440112
 20
165.1869463774
 30
0.0
 10
75.9326917634
 20
165.2492126764
 30
0.0
 10
76.1339253242
 20
165.2978452641
 30
0.0
 10
76.3227861133
 20
165.2930973476
 30
0.0
 10
76.4364294122
 20
165.2517669873
 30
0.0
 10
76.4859148053
 20
165.223223727
 30
0.0
  0
SPLINE
  5
44D
100
AcDbEntity
  8
0
100
AcDbSpline
 62
7
  6
CONTINUOUS
 70
0
 71
3
 72
11
 73
7
 74
0
 42
0.0000001
 43
0.0000001
 44
0.0000000001
 40
0.0
 40
0.0
 40
0.0
 40
0.0
 40
0.2177727701
 40
0.4509280213
 40
0.7102223029
 40
1.0
 40
1.0
 40
1.0
 40
1.0
 10
103.2829105493
 20
166.8634893186
 30
0.0
 10
103.2829105478
 20
166.9777492187
 30
0.0
 10
103.325107269
 20
167.2159305772
 30
0.0
 10
103.5056728767
 20
167.5477185576
 30
0.0
 10
103.791038439
 20
167.8477479124
 30
0.0
 10
104.0298894228
 20
168.0121923845
 30
0.0
 10
104.1615593215
 20
168.0882115822
 30
0.0
  0
SPLINE
  5
44E
100
AcDbEntity
  8
0
100
AcDbSpline
 62
7
  6
CONTINUOUS
 70
0
 71
3
 72
11
 73
7
 74
0
 42
0.0000001
 43
0.0000001
 44
0.0000000001
 40
0.0
 40
0.0
 40
0.0
 40
0.0
 40
0.2177796629
 40
0.4509238111
 40
0.7102593659
 40
1.0
 40
1.0
 40
1.0
 40
1.0
 10
109.282870626
 20
164.4139820712
 30
0.0
 10
109.2828907933
 20
164.2997189887
 30
0.0
 10
109.240635215
 20
164.0615473823
 30
0.0
 10
109.0601059468
 20
163.7297287942
 30
0.0
 10
108.774705691
 20
163.4297301522
 30
0.0
 10
108.5358702321
 20
163.2652689908
 30
0.0
 10
108.4042176723
 20
163.1892598037
 30
0.0
  0
SPLINE
  5
44F
100
AcDbEntity
  8
0
100
AcDbSpline
 62
7
  6
CONTINUOUS
 70
0
 71
3
 72
11
 73
7
 74
0
 42
0.0000001
 43
0.0000001
 44
0.0000000001
 40
0.0
 40
0.0
 40
0.0
 40
0.0
 40
0.2177753738
 40
0.4509336309
 40
0.7102261693
 40
1.0
 40
1.0
 40
1.0
 40
1.0
 10
67.7862898838
 20
145.2265294103
 30
0.0
 10
67.7862898853
 20
145.1122662948
 30
0.0
 10
67.828488992
 20
144.8740778364
 30
0.0
 10
68.0090654789
 20
144.5422862741
 30
0.0
 10
68.2944383879
 20
144.2422568097
 30
0.0
 10
68.5332935362
 20
144.0778154128
 30
0.0
 10
68.6649643571
 20
144.0017969487
 30
0.0
  0
SPLINE
  5
450
100
AcDbEntity
  8
0
100
AcDbSpline
 62
7
  6
CONTINUOUS
 70
0
 71
3
 72
12
 73
8
 74
0
 42
0.0000001
 43
0.0000001
 44
0.0000000001
 40
0.0
 40
0.0
 40
0.0
 40
0.0
 40
0.1081612941
 40
0.2183621432
 40
0.4513626358
 40
0.7104189831
 40
1.0
 40
1.0
 40
1.0
 40
1.0
 10
70.8892145473
 20
184.9894492853
 30
0.0
 10
70.8892106589
 20
184.8616650636
 30
0.0
 10
70.8669542392
 20
184.6031570644
 30
0.0
 10
70.7327386106
 20
184.0848783968
 30
0.0
 10
70.3879702308
 20
183.4494081085
 30
0.0
 10
69.7459279826
 20
182.7750205389
 30
0.0
 10
69.20849965
 20
182.4048822352
 30
0.0
 10
68.9122166548
 20
182.2338241893
 30
0.0
  0
SPLINE
  5
451
100
AcDbEntity
  8
0
100
AcDbSpline
 62
7
  6
CONTINUOUS
 70
0
 71
3
 72
9
 73
5
 74
0
 42
0.0000001
 43
0.0000001
 44
0.0000000001
 40
0.0
 40
0.0
 40
0.0
 40
0.0
 40
0.2444296014
 40
1.0
 40
1.0
 40
1.0
 40
1.0
 10
54.3177353426
 20
181.8621883433
 30
0.0
 10
54.3406341241
 20
181.7931604966
 30
0.0
 10
54.4426327921
 20
181.5135473031
 30
0.0
 10
54.5771586155
 20
181.2460995232
 30
0.0
 10
54.6930716412
 20
181.0534760482
 30
0.0
  0
SPLINE
  5
452
100
AcDbEntity
  8
0
100
AcDbSpline
 62
7
  6
CONTINUOUS
 70
0
 71
3
 72
14
 73
10
 74
0
 42
0.0000001
 43
0.0000001
 44
0.0000000001
 40
0.0
 40
0.0
 40
0.0
 40
0.0
 40
0.0923833624
 40
0.1921031356
 40
0.3019908467
 40
0.4232511131
 40
0.5555346935
 40
0.6973643847
 40
1.0
 40
1.0
 40
1.0
 40
1.0
 10
57.2556911381
 20
158.2101651504
 30
0.0
 10
57.2765122707
 20
158.0736989136
 30
0.0
 10
57.364246795
 20
157.795481926
 30
0.0
 10
57.6118167177
 20
157.4131451713
 30
0.0
 10
57.9674672602
 20
157.0649304464
 30
0.0
 10
58.4191889288
 20
156.7592644381
 30
0.0
 10
58.954024722
 20
156.5037635326
 30
0.0
 10
59.7740768054
 20
156.2336032763
 30
0.0
 10
60.4376710069
 20
156.1353103846
 30
0.0
 10
60.8893060761
 20
156.1123440469
 30
0.0
  0
SPLINE
  5
453
100
AcDbEntity
  8
0
100
AcDbSpline
 62
7
  6
CONTINUOUS
 70
0
 71
3
 72
13
 73
9
 74
0
 42
0.0000001
 43
0.0000001
 44
0.0000000001
 40
0.0
 40
0.0
 40
0.0
 40
0.0
 40
0.1142483233
 40
0.2375469957
 40
0.4999994774
 40
0.7624522452
 40
0.8857512516
 40
1.0
 40
1.0
 40
1.0
 40
1.0
 10
68.6649466933
 20
147.5943550578
 30
0.0
 10
68.8101571182
 20
147.6781918353
 30
0.0
 10
69.1277415485
 20
147.8260865338
 30
0.0
 10
69.8315703318
 20
148.0398486363
 30
0.0
 10
70.7862637136
 20
148.1436895777
 30
0.0
 10
71.7409580135
 20
148.0398530504
 30
0.0
 10
72.4447894344
 20
147.8260944101
 30
0.0
 10
72.7623758107
 20
147.6782012981
 30
0.0
 10
72.9075873804
 20
147.5943652559
 30
0.0
  0
SPLINE
  5
454
100
AcDbEntity
  8
0
100
AcDbSpline
 62
7
  6
CONTINUOUS
 70
0
 71
3
 72
9
 73
5
 74
0
 42
0.0000001
 43
0.0000001
 44
0.0000000001
 40
0.0
 40
0.0
 40
0.0
 40
0.0
 40
0.238069298
 40
1.0
 40
1.0
 40
1.0
 40
1.0
 10
69.4425489487
 20
179.8863875806
 30
0.0
 10
69.3053960608
 20
179.8072027965
 30
0.0
 10
68.7181455356
 20
179.4939883956
 30
0.0
 10
68.0926571083
 20
179.2550090728
 30
0.0
 10
67.6073223234
 20
179.1088771729
 30
0.0
  0
SPLINE
  5
455
100
AcDbEntity
  8
0
100
AcDbSpline
 62
7
  6
CONTINUOUS
 70
0
 71
3
 72
11
 73
7
 74
0
 42
0.0000001
 43
0.0000001
 44
0.0000000001
 40
0.0
 40
0.0
 40
0.0
 40
0.0
 40
0.2177727701
 40
0.4509280213
 40
0.7102223029
 40
1.0
 40
1.0
 40
1.0
 40
1.0
 10
73.7862538164
 20
143.9201255429
 30
0.0
 10
73.7862538179
 20
143.8058656428
 30
0.0
 10
73.7440570966
 20
143.5676842843
 30
0.0
 10
73.563491489
 20
143.2358963038
 30
0.0
 10
73.2781259266
 20
142.9358669491
 30
0.0
 10
73.0392749428
 20
142.771422477
 30
0.0
 10
72.9076050442
 20
142.6954032793
 30
0.0
  0
SPLINE
  5
456
100
AcDbEntity
  8
0
100
AcDbSpline
 62
7
  6
CONTINUOUS
 70
0
 71
3
 72
14
 73
10
 74
0
 42
0.0000001
 43
0.0000001
 44
0.0000000001
 40
0.0
 40
0.0
 40
0.0
 40
0.0
 40
0.3025951117
 40
0.4405094637
 40
0.5685816092
 40
0.6870081306
 40
0.7968674117
 40
0.9002100092
 40
1.0
 40
1.0
 40
1.0
 40
1.0
 10
60.6711850699
 20
179.1088605005
 30
0.0
 10
60.0979387328
 20
179.281458628
 30
0.0
 10
59.2801105489
 20
179.6055784465
 30
0.0
 10
58.3196820583
 20
180.19564931
 30
0.0
 10
57.7270687806
 20
180.6764596732
 30
0.0
 10
57.2513347413
 20
181.2010753414
 30
0.0
 10
56.9020410431
 20
181.7613535769
 30
0.0
 10
56.6877389757
 20
182.347384683
 30
0.0
 10
56.6392650403
 20
182.750764701
 30
0.0
 10
56.6392462664
 20
182.9481932565
 30
0.0
  0
SPLINE
  5
457
100
AcDbEntity
  8
0
100
AcDbSpline
 62
7
  6
CONTINUOUS
 70
0
 71
3
 72
14
 73
10
 74
0
 42
0.0000001
 43
0.0000001
 44
0.0000000001
 40
0.0
 40
0.0
 40
0.0
 40
0.0
 40
0.3072077455
 40
0.4497476581
 40
0.5815295956
 40
0.7013156741
 40
0.80928384
 40
0.9074709327
 40
1.0
 40
1.0
 40
1.0
 40
1.0
 10
28.7087039213
 20
166.286699062
 30
0.0
 10
28.3594821756
 20
166.310920897
 30
0.0
 10
27.8486216422
 20
166.3981166596
 30
0.0
 10
27.2252630509
 20
166.6271337661
 30
0.0
 10
26.8276181612
 20
166.8395757143
 30
0.0
 10
26.5010473926
 20
167.0906098566
 30
0.0
 10
26.2560426283
 20
167.3739575511
 30
0.0
 10
26.1023418443
 20
167.682262335
 30
0.0
 10
26.0668385654
 20
167.9008939324
 30
0.0
 10
26.066819956
 20
168.0063300556
 30
0.0
  0
SPLINE
  5
458
100
AcDbEntity
  8
0
100
AcDbSpline
 62
7
  6
CONTINUOUS
 70
0
 71
3
 72
12
 73
8
 74
0
 42
0.0000001
 43
0.0000001
 44
0.0000000001
 40
0.0
 40
0.0
 40
0.0
 40
0.0
 40
0.2895887048
 40
0.5486357248
 40
0.7816392924
 40
0.8918396792
 40
1.0
 40
1.0
 40
1.0
 40
1.0
 10
69.4425489487
 20
181.9276436234
 30
0.0
 10
69.7717609885
 20
182.1177131487
 30
0.0
 10
70.3689083009
 20
182.5289697076
 30
0.0
 10
71.0822713953
 20
183.278308306
 30
0.0
 10
71.4653448505
 20
183.9843742266
 30
0.0
 10
71.6144920852
 20
184.5602360753
 30
0.0
 10
71.6392192551
 20
184.8474680869
 30
0.0
 10
71.6392057538
 20
184.9894492653
 30
0.0
  0
SPLINE
  5
459
100
AcDbEntity
  8
0
100
AcDbSpline
 62
7
  6
CONTINUOUS
 70
0
 71
3
 72
9
 73
5
 74
0
 42
0.0000001
 43
0.0000001
 44
0.0000000001
 40
0.0
 40
0.0
 40
0.0
 40
0.0
 40
0.2616987796
 40
1.0
 40
1.0
 40
1.0
 40
1.0
 10
67.6073223234
 20
181.1501332157
 30
0.0
 10
67.7740061944
 20
181.2003209037
 30
0.0
 10
68.4058097293
 20
181.4081614972
 30
0.0
 10
69.0172433631
 20
181.6820947948
 30
0.0
 10
69.4425489487
 20
181.9276436234
 30
0.0
  0
SPLINE
  5
45A
100
AcDbEntity
  8
0
100
AcDbSpline
 62
7
  6
CONTINUOUS
 70
0
 71
3
 72
10
 73
6
 74
0
 42
0.0000001
 43
0.0000001
 44
0.0000000001
 40
0.0
 40
0.0
 40
0.0
 40
0.0
 40
0.2304925296
 40
0.4761463899
 40
1.0
 40
1.0
 40
1.0
 40
1.0
 10
68.9122166548
 20
182.2338241893
 30
0.0
 10
68.6595285493
 20
182.0879355144
 30
0.0
 10
68.1164532351
 20
181.8220762225
 30
0.0
 10
66.9218632908
 20
181.3980296128
 30
0.0
 10
65.9566555734
 20
181.2164406964
 30
0.0
 10
65.2968373869
 20
181.150127662
 30
0.0
  0
SPLINE
  5
45B
100
AcDbEntity
  8
0
100
AcDbSpline
 62
7
  6
CONTINUOUS
 70
0
 71
3
 72
9
 73
5
 74
0
 42
0.0000001
 43
0.0000001
 44
0.0000000001
 40
0.0
 40
0.0
 40
0.0
 40
0.0
 40
0.2270454721
 40
1.0
 40
1.0
 40
1.0
 40
1.0
 10
31.9085652652
 20
169.8678134886
 30
0.0
 10
31.8706895299
 20
169.9324682577
 30
0.0
 10
31.6794447179
 20
170.2030502625
 30
0.0
 10
31.4090370076
 20
170.4099190834
 30
0.0
 10
31.1881135967
 20
170.5374663886
 30
0.0
  0
SPLINE
  5
45C
100
AcDbEntity
  8
0
100
AcDbSpline
 62
7
  6
CONTINUOUS
 70
0
 71
3
 72
11
 73
7
 74
0
 42
0.0000001
 43
0.0000001
 44
0.0000000001
 40
0.0
 40
0.0
 40
0.0
 40
0.0
 40
0.2177753738
 40
0.4509336309
 40
0.7102261693
 40
1.0
 40
1.0
 40
1.0
 40
1.0
 10
26.0668161002
 20
169.312733927
 30
0.0
 10
26.0668161016
 20
169.1984708115
 30
0.0
 10
26.1090152084
 20
168.9602823531
 30
0.0
 10
26.2895916953
 20
168.6284907908
 30
0.0
 10
26.5749646043
 20
168.3284613264
 30
0.0
 10
26.8138197525
 20
168.1640199295
 30
0.0
 10
26.9454905735
 20
168.0880014654
 30
0.0
  0
SPLINE
  5
45D
100
AcDbEntity
  8
0
100
AcDbSpline
 62
7
  6
CONTINUOUS
 70
0
 71
3
 72
17
 73
13
 74
0
 42
0.0000001
 43
0.0000001
 44
0.0000000001
 40
0.0
 40
0.0
 40
0.0
 40
0.0
 40
0.1286926234
 40
0.2702773362
 40
0.4174341499
 40
0.5617794299
 40
0.6954504977
 40
0.8127129602
 40
0.8646788349
 40
0.9125109856
 40
0.9571404061
 40
1.0
 40
1.0
 40
1.0
 40
1.0
 10
26.9454729097
 20
171.6805595745
 30
0.0
 10
27.167550936
 20
171.8087756175
 30
0.0
 10
27.6703540016
 20
172.016238485
 30
0.0
 10
28.489831497
 20
172.1801600153
 30
0.0
 10
29.3565695759
 20
172.20417398
 30
0.0
 10
30.1998457922
 20
172.0856860923
 30
0.0
 10
30.9513003144
 20
171.8347054216
 30
0.0
 10
31.4738775015
 20
171.5165347231
 30
0.0
 10
31.7806439089
 20
171.2087750182
 30
0.0
 10
31.9435062426
 20
170.9690781481
 30
0.0
 10
32.0439702077
 20
170.7163185953
 30
0.0
 10
32.0667691407
 20
170.5412394445
 30
0.0
 10
32.0667842142
 20
170.455837315
 30
0.0
  0
SPLINE
  5
45E
100
AcDbEntity
  8
0
100
AcDbSpline
 62
7
  6
CONTINUOUS
 70
0
 71
3
 72
15
 73
11
 74
0
 42
0.0000001
 43
0.0000001
 44
0.0000000001
 40
0.0
 40
0.0
 40
0.0
 40
0.0
 40
0.1569041761
 40
0.3076246809
 40
0.4494958491
 40
0.5806114842
 40
0.6999781321
 40
0.8079607691
 40
0.9066435358
 40
1.0
 40
1.0
 40
1.0
 40
1.0
 10
62.9816700064
 20
181.150122097
 30
0.0
 10
62.5995393275
 20
181.1885250943
 30
0.0
 10
61.8534872252
 20
181.3017895857
 30
0.0
 10
60.7877473826
 20
181.5840826466
 30
0.0
 10
59.8214617957
 20
181.9684865207
 30
0.0
 10
58.9830239153
 20
182.4440436271
 30
0.0
 10
58.2968032981
 20
182.9983176767
 30
0.0
 10
57.7837275141
 20
183.618156193
 30
0.0
 10
57.463135782
 20
184.2882153691
 30
0.0
 10
57.3892305195
 20
184.7609399643
 30
0.0
 10
57.3892374729
 20
184.9894492793
 30
0.0
  0
SPLINE
  5
45F
100
AcDbEntity
  8
0
100
AcDbSpline
 62
7
  6
CONTINUOUS
 70
0
 71
3
 72
12
 73
8
 74
0
 42
0.0000001
 43
0.0000001
 44
0.0000000001
 40
0.0
 40
0.0
 40
0.0
 40
0.0
 40
0.2895810204
 40
0.548637375
 40
0.7816378622
 40
0.8918387092
 40
1.0
 40
1.0
 40
1.0
 40
1.0
 10
68.9122166548
 20
187.5410899006
 30
0.0
 10
69.2084996532
 20
187.7121479484
 30
0.0
 10
69.745927989
 20
188.0822862658
 30
0.0
 10
70.38797025
 20
188.7566738357
 30
0.0
 10
70.7327386021
 20
189.3921441339
 30
0.0
 10
70.8669542431
 20
189.9104227859
 30
0.0
 10
70.8892106437
 20
190.168930779
 30
0.0
 10
70.889214541
 20
190.2967149967
 30
0.0
  0
SPLINE
  5
460
100
AcDbEntity
  8
0
100
AcDbSpline
 62
7
  6
CONTINUOUS
 70
0
 71
3
 72
10
 73
6
 74
0
 42
0.0000001
 43
0.0000001
 44
0.0000000001
 40
0.0
 40
0.0
 40
0.0
 40
0.0
 40
0.5238536101
 40
0.7695074704
 40
1.0
 40
1.0
 40
1.0
 40
1.0
 10
65.2968373869
 20
186.4573933733
 30
0.0
 10
65.9566555734
 20
186.5237064078
 30
0.0
 10
66.9218632908
 20
186.7052953241
 30
0.0
 10
68.1164532351
 20
187.1293419338
 30
0.0
 10
68.6595285493
 20
187.3952012257
 30
0.0
 10
68.9122166548
 20
187.5410899006
 30
0.0
  0
SPLINE
  5
461
100
AcDbEntity
  8
0
100
AcDbSpline
 62
7
  6
CONTINUOUS
 70
0
 71
3
 72
13
 73
9
 74
0
 42
0.0000001
 43
0.0000001
 44
0.0000000001
 40
0.0
 40
0.0
 40
0.0
 40
0.0
 40
0.1142466307
 40
0.237544229
 40
0.5000005226
 40
0.7624565301
 40
0.8857537943
 40
1.0
 40
1.0
 40
1.0
 40
1.0
 10
31.1881135967
 20
170.5374663886
 30
0.0
 10
31.0429046352
 20
170.621300925
 30
0.0
 10
30.7253241325
 20
170.7691945665
 30
0.0
 10
30.0214930398
 20
170.9829560732
 30
0.0
 10
29.0667899299
 20
171.0867975558
 30
0.0
 10
28.1120877382
 20
170.9829516591
 30
0.0
 10
27.4082592831
 20
170.76918669
 30
0.0
 10
27.0906807264
 20
170.6212914622
 30
0.0
 10
26.9454729097
 20
170.5374561905
 30
0.0
  0
SPLINE
  5
462
100
AcDbEntity
  8
0
100
AcDbSpline
 62
7
  6
CONTINUOUS
 70
0
 71
3
 72
18
 73
14
 74
0
 42
0.0000001
 43
0.0000001
 44
0.0000000001
 40
0.0
 40
0.0
 40
0.0
 40
0.0
 40
0.1286563236
 40
0.2702033957
 40
0.417318796
 40
0.5616275679
 40
0.6952643255
 40
0.7562714577
 40
0.8127643045
 40
0.8647138825
 40
0.9125352642
 40
0.9571529617
 40
1.0
 40
1.0
 40
1.0
 40
1.0
 10
66.9676649107
 20
188.6637519756
 30
0.0
 10
66.6715657215
 20
188.4928000494
 30
0.0
 10
66.0011557456
 20
188.2161949788
 30
0.0
 10
64.9085828616
 20
187.9975939998
 30
0.0
 10
63.7527549028
 20
187.965626337
 30
0.0
 10
62.6290218357
 20
188.1234124096
 30
0.0
 10
61.7678257884
 20
188.4110665085
 30
0.0
 10
61.1800791337
 20
188.7305644007
 30
0.0
 10
60.8152203844
 20
188.9971743291
 30
0.0
 10
60.5208160531
 20
189.2928617188
 30
0.0
 10
60.3035648315
 20
189.6123670533
 30
0.0
 10
60.169679254
 20
189.9494182158
 30
0.0
 10
60.1392582368
 20
190.1828485918
 30
0.0
 10
60.1392555246
 20
190.2967149968
 30
0.0
  0
SPLINE
  5
463
100
AcDbEntity
  8
0
100
AcDbSpline
 62
7
  6
CONTINUOUS
 70
0
 71
3
 72
11
 73
7
 74
0
 42
0.0000001
 43
0.0000001
 44
0.0000000001
 40
0.0
 40
0.0
 40
0.0
 40
0.0
 40
0.2897756264
 40
0.5490692242
 40
0.7822277401
 40
1.0
 40
1.0
 40
1.0
 40
1.0
 10
66.9676649107
 20
190.2967568098
 30
0.0
 10
67.1432238094
 20
190.3981151823
 30
0.0
 10
67.4616925458
 20
190.6173712757
 30
0.0
 10
67.842180838
 20
191.0174107322
 30
0.0
 10
68.0829415022
 20
191.4597945566
 30
0.0
 10
68.1391997184
 20
191.7773734008
 30
0.0
 10
68.1391985521
 20
191.9297198277
 30
0.0
  0
SPLINE
  5
464
100
AcDbEntity
  8
0
100
AcDbSpline
 62
7
  6
CONTINUOUS
 70
0
 71
3
 72
12
 73
8
 74
0
 42
0.0000001
 43
0.0000001
 44
0.0000000001
 40
0.0
 40
0.0
 40
0.0
 40
0.0
 40
0.1081603208
 40
0.2183607076
 40
0.4513642752
 40
0.7104112952
 40
1.0
 40
1.0
 40
1.0
 40
1.0
 10
71.6392057538
 20
182.9481932225
 30
0.0
 10
71.6392192551
 20
182.8062120441
 30
0.0
 10
71.6144920852
 20
182.5189800324
 30
0.0
 10
71.4653448505
 20
181.9431181837
 30
0.0
 10
71.0822713953
 20
181.2370522632
 30
0.0
 10
70.3689083009
 20
180.4877136648
 30
0.0
 10
69.7717609885
 20
180.0764571059
 30
0.0
 10
69.4425489487
 20
179.8863875806
 30
0.0
  0
SPLINE
  5
465
100
AcDbEntity
  8
0
100
AcDbSpline
 62
7
  6
CONTINUOUS
 70
0
 71
3
 72
9
 73
5
 74
0
 42
0.0000001
 43
0.0000001
 44
0.0000000001
 40
0.0
 40
0.0
 40
0.0
 40
0.0
 40
0.4752390475
 40
1.0
 40
1.0
 40
1.0
 40
1.0
 10
26.9454905735
 20
168.0880014654
 30
0.0
 10
27.1931755986
 20
167.9450036845
 30
0.0
 10
27.7592299843
 20
167.7208632134
 30
0.0
 10
28.3564765452
 20
167.6200162283
 30
0.0
 10
28.6713514001
 20
167.5958238443
 30
0.0
  0
SPLINE
  5
466
100
AcDbEntity
  8
0
100
AcDbSpline
 62
7
  6
CONTINUOUS
 70
0
 71
3
 72
11
 73
7
 74
0
 42
0.0000001
 43
0.0000001
 44
0.0000000001
 40
0.0
 40
0.0
 40
0.0
 40
0.0
 40
0.289375018
 40
0.5484713338
 40
0.78182333
 40
1.0
 40
1.0
 40
1.0
 40
1.0
 10
80.3476191444
 20
168.3014052088
 30
0.0
 10
80.4771317335
 20
168.3772849529
 30
0.0
 10
80.7120006349
 20
168.5411396779
 30
0.0
 10
80.9922341555
 20
168.8392124527
 30
0.0
 10
81.1694470677
 20
169.1681168941
 30
0.0
 10
81.2107227846
 20
169.4038973501
 30
0.0
 10
81.2107427437
 20
169.5170695803
 30
0.0
  0
SPLINE
  5
467
100
AcDbEntity
  8
0
100
AcDbSpline
 62
7
  6
CONTINUOUS
 70
0
 71
3
 72
17
 73
13
 74
0
 42
0.0000001
 43
0.0000001
 44
0.0000000001
 40
0.0
 40
0.0
 40
0.0
 40
0.0
 40
0.12868996
 40
0.2702722062
 40
0.4174312903
 40
0.5617781732
 40
0.6954492761
 40
0.8127130379
 40
0.8646790319
 40
0.9125109796
 40
0.9571404657
 40
1.0
 40
1.0
 40
1.0
 40
1.0
 10
59.118950684
 20
158.4944774251
 30
0.0
 10
59.341024832
 20
158.3662657565
 30
0.0
 10
59.8438178933
 20
158.1588083728
 30
0.0
 10
60.663288056
 20
157.9948831755
 30
0.0
 10
61.5300283009
 20
157.9708699859
 30
0.0
 10
62.3733119369
 20
158.089355568
 30
0.0
 10
63.1247713018
 20
158.340337298
 30
0.0
 10
63.647351915
 20
158.6585080939
 30
0.0
 10
63.9541165124
 20
158.9662727119
 30
0.0
 10
64.1169779034
 20
159.2059691853
 30
0.0
 10
64.2174441329
 20
159.4587280549
 30
0.0
 10
64.240235589
 20
159.6338079561
 30
0.0
 10
64.2402506505
 20
159.7192098874
 30
0.0
  0
SPLINE
  5
468
100
AcDbEntity
  8
0
100
AcDbSpline
 62
7
  6
CONTINUOUS
 70
0
 71
3
 72
13
 73
9
 74
0
 42
0.0000001
 43
0.0000001
 44
0.0000000001
 40
0.0
 40
0.0
 40
0.0
 40
0.0
 40
0.1142487484
 40
0.2375477548
 40
0.5000005226
 40
0.7624530043
 40
0.8857516767
 40
1.0
 40
1.0
 40
1.0
 40
1.0
 10
68.6649673011
 20
142.2871506271
 30
0.0
 10
68.8101788708
 20
142.2033145848
 30
0.0
 10
69.1277652471
 20
142.0554214728
 30
0.0
 10
69.831596668
 20
141.8416628325
 30
0.0
 10
70.7862909679
 20
141.7378263053
 30
0.0
 10
71.7409843497
 20
141.8416672466
 30
0.0
 10
72.444813133
 20
142.0554293492
 30
0.0
 10
72.7623975633
 20
142.2033240476
 30
0.0
 10
72.9076079882
 20
142.2871608251
 30
0.0
  0
SPLINE
  5
469
100
AcDbEntity
  8
0
100
AcDbSpline
 62
7
  6
CONTINUOUS
 70
0
 71
3
 72
17
 73
13
 74
0
 42
0.0000001
 43
0.0000001
 44
0.0000000001
 40
0.0
 40
0.0
 40
0.0
 40
0.0
 40
0.1286926234
 40
0.2702773362
 40
0.4174341499
 40
0.5617794299
 40
0.6954504977
 40
0.8127129602
 40
0.8646788349
 40
0.9125109856
 40
0.9571404061
 40
1.0
 40
1.0
 40
1.0
 40
1.0
 10
72.9076050442
 20
142.6954032793
 30
0.0
 10
72.6855270179
 20
142.5671872364
 30
0.0
 10
72.1827239522
 20
142.3597243689
 30
0.0
 10
71.3632464569
 20
142.1958028385
 30
0.0
 10
70.4965083779
 20
142.1717888738
 30
0.0
 10
69.6532321617
 20
142.2902767615
 30
0.0
 10
68.9017776395
 20
142.5412574323
 30
0.0
 10
68.3792004523
 20
142.8594281307
 30
0.0
 10
68.072434045
 20
143.1671878356
 30
0.0
 10
67.9095717112
 20
143.4068847057
 30
0.0
 10
67.8091077462
 20
143.6596442585
 30
0.0
 10
67.7863088131
 20
143.8347234093
 30
0.0
 10
67.7862937397
 20
143.9201255389
 30
0.0
  0
SPLINE
  5
46A
100
AcDbEntity
  8
0
100
AcDbSpline
 62
7
  6
CONTINUOUS
 70
0
 71
3
 72
17
 73
13
 74
0
 42
0.0000001
 43
0.0000001
 44
0.0000000001
 40
0.0
 40
0.0
 40
0.0
 40
0.0
 40
0.0428575604
 40
0.0874859108
 40
0.1353172062
 40
0.1872823133
 40
0.3045426425
 40
0.438210377
 40
0.5825547796
 40
0.7297159944
 40
0.8713057371
 40
1.0
 40
1.0
 40
1.0
 40
1.0
 10
64.2402448316
 20
158.4128060181
 30
0.0
 10
64.2402303113
 20
158.3274082208
 30
0.0
 10
64.2174383728
 20
158.1523350249
 30
0.0
 10
64.1169759363
 20
157.8995838205
 30
0.0
 10
63.9541209882
 20
157.6598904134
 30
0.0
 10
63.647369157
 20
157.3521285739
 30
0.0
 10
63.1248071123
 20
157.0339594562
 30
0.0
 10
62.3733702792
 20
156.7829757699
 30
0.0
 10
61.5300983992
 20
156.6644749561
 30
0.0
 10
60.6633454961
 20
156.6884771045
 30
0.0
 10
59.8438470763
 20
156.8523942944
 30
0.0
 10
59.3410317347
 20
157.0598579039
 30
0.0
 10
59.118950684
 20
157.1880735577
 30
0.0
  0
SPLINE
  5
46B
100
AcDbEntity
  8
0
100
AcDbSpline
 62
7
  6
CONTINUOUS
 70
0
 71
3
 72
13
 73
9
 74
0
 42
0.0000001
 43
0.0000001
 44
0.0000000001
 40
0.0
 40
0.0
 40
0.0
 40
0.0
 40
0.1142466307
 40
0.237544229
 40
0.5000005226
 40
0.7624565301
 40
0.8857537943
 40
1.0
 40
1.0
 40
1.0
 40
1.0
 10
72.9075873804
 20
146.4512618719
 30
0.0
 10
72.7623784189
 20
146.5350964083
 30
0.0
 10
72.4447979161
 20
146.6829900498
 30
0.0
 10
71.7409668235
 20
146.8967515565
 30
0.0
 10
70.7862637136
 20
147.0005930391
 30
0.0
 10
69.8315615219
 20
146.8967471424
 30
0.0
 10
69.1277330668
 20
146.6829821733
 30
0.0
 10
68.8101545101
 20
146.5350869455
 30
0.0
 10
68.6649466933
 20
146.4512516738
 30
0.0
  0
SPLINE
  5
46C
100
AcDbEntity
  8
0
100
AcDbSpline
 62
7
  6
CONTINUOUS
 70
0
 71
3
 72
11
 73
7
 74
0
 42
0.0000001
 43
0.0000001
 44
0.0000000001
 40
0.0
 40
0.0
 40
0.0
 40
0.0
 40
0.2177845113
 40
0.450917848
 40
0.7103083905
 40
1.0
 40
1.0
 40
1.0
 40
1.0
 10
78.5036936731
 20
164.6356522787
 30
0.0
 10
78.4377170966
 20
164.6737309859
 30
0.0
 10
78.2861441586
 20
164.7287541208
 30
0.0
 10
78.034366667
 20
164.735121293
 30
0.0
 10
77.7660421451
 20
164.6703187837
 30
0.0
 10
77.5914683502
 20
164.5872684775
 30
0.0
 10
77.5037152188
 20
164.5366044859
 30
0.0
  0
SPLINE
  5
46D
100
AcDbEntity
  8
0
100
AcDbSpline
 62
7
  6
CONTINUOUS
 70
0
 71
3
 72
17
 73
13
 74
0
 42
0.0000001
 43
0.0000001
 44
0.0000000001
 40
0.0
 40
0.0
 40
0.0
 40
0.0
 40
0.0428577105
 40
0.0874850346
 40
0.1353175376
 40
0.187280999
 40
0.3045421928
 40
0.4382102316
 40
0.5825530817
 40
0.7297120738
 40
0.8713109572
 40
1.0
 40
1.0
 40
1.0
 40
1.0
 10
74.9859670066
 20
162.6251793489
 30
0.0
 10
74.9489795081
 20
162.646513802
 30
0.0
 10
74.8788889169
 20
162.7001812379
 30
0.0
 10
74.794521885
 20
162.8068385778
 30
0.0
 10
74.7314917097
 20
162.9373055169
 30
0.0
 10
74.674859772
 20
163.1470551025
 30
0.0
 10
74.6677582575
 20
163.4528860769
 30
0.0
 10
74.7469192386
 20
163.8410131827
 30
0.0
 10
74.9064192568
 20
164.2357896855
 30
0.0
 10
75.1334926909
 20
164.6051194072
 30
0.0
 10
75.4093637195
 20
164.9189843451
 30
0.0
 10
75.6249045804
 20
165.0848486939
 30
0.0
 10
75.735940906
 20
165.1489551636
 30
0.0
  0
SPLINE
  5
46E
100
AcDbEntity
  8
0
100
AcDbSpline
 62
7
  6
CONTINUOUS
 70
0
 71
3
 72
11
 73
7
 74
0
 42
0.0000001
 43
0.0000001
 44
0.0000000001
 40
0.0
 40
0.0
 40
0.0
 40
0.0
 40
0.2897733512
 40
0.5490657165
 40
0.7822241652
 40
1.0
 40
1.0
 40
1.0
 40
1.0
 10
72.9076050442
 20
144.0018071467
 30
0.0
 10
73.0392734029
 20
144.0778254553
 30
0.0
 10
73.2781240182
 20
144.2422662244
 30
0.0
 10
73.5634911314
 20
144.5422934649
 30
0.0
 10
73.7440637119
 20
144.8740818147
 30
0.0
 10
73.7862618552
 20
145.1122675249
 30
0.0
 10
73.7862618537
 20
145.2265294103
 30
0.0
  0
SPLINE
  5
46F
100
AcDbEntity
  8
0
100
AcDbSpline
 62
7
  6
CONTINUOUS
 70
0
 71
3
 72
13
 73
9
 74
0
 42
0.0000001
 43
0.0000001
 44
0.0000000001
 40
0.0
 40
0.0
 40
0.0
 40
0.0
 40
0.1142466307
 40
0.237544229
 40
0.5000005226
 40
0.7624565301
 40
0.8857537943
 40
1.0
 40
1.0
 40
1.0
 40
1.0
 10
68.6649643571
 20
144.0017969487
 30
0.0
 10
68.8101733187
 20
143.9179624122
 30
0.0
 10
69.1277538214
 20
143.7700687708
 30
0.0
 10
69.8315849141
 20
143.556307264
 30
0.0
 10
70.7862880239
 20
143.4524657814
 30
0.0
 10
71.7409902157
 20
143.5563116782
 30
0.0
 10
72.4448186708
 20
143.7700766472
 30
0.0
 10
72.7623972275
 20
143.9179718751
 30
0.0
 10
72.9076050442
 20
144.0018071467
 30
0.0
  0
SPLINE
  5
470
100
AcDbEntity
  8
0
100
AcDbSpline
 62
7
  6
CONTINUOUS
 70
0
 71
3
 72
9
 73
5
 74
0
 42
0.0000001
 43
0.0000001
 44
0.0000000001
 40
0.0
 40
0.0
 40
0.0
 40
0.0
 40
0.2532012083
 40
1.0
 40
1.0
 40
1.0
 40
1.0
 10
35.8397594401
 20
120.161657637
 30
0.0
 10
35.8992750934
 20
120.2507550968
 30
0.0
 10
36.1404992372
 20
120.5984643344
 30
0.0
 10
36.4065261151
 20
120.9290703684
 30
0.0
 10
36.6184385206
 20
121.1635126865
 30
0.0
  0
SPLINE
  5
471
100
AcDbEntity
  8
0
100
AcDbSpline
 62
7
  6
CONTINUOUS
 70
0
 71
3
 72
10
 73
6
 74
0
 42
0.0000001
 43
0.0000001
 44
0.0000000001
 40
0.0
 40
0.0
 40
0.0
 40
0.0
 40
0.2385719129
 40
0.4821289796
 40
1.0
 40
1.0
 40
1.0
 40
1.0
 10
59.5803252197
 20
73.5608432138
 30
0.0
 10
59.6717985021
 20
73.5080142774
 30
0.0
 10
59.8668154445
 20
73.4178074992
 30
0.0
 10
60.2967151458
 20
73.3048134521
 30
0.0
 10
60.6408195794
 20
73.3040847182
 30
0.0
 10
60.8682991746
 20
73.3329059181
 30
0.0
  0
SPLINE
  5
472
100
AcDbEntity
  8
0
100
AcDbSpline
 62
7
  6
CONTINUOUS
 70
0
 71
3
 72
10
 73
6
 74
0
 42
0.0000001
 43
0.0000001
 44
0.0000000001
 40
0.0
 40
0.0
 40
0.0
 40
0.0
 40
0.2384866312
 40
0.4820298574
 40
1.0
 40
1.0
 40
1.0
 40
1.0
 10
67.8534400539
 20
68.7842215848
 30
0.0
 10
67.9456866231
 20
68.7309823535
 30
0.0
 10
68.1424275013
 20
68.640135637
 30
0.0
 10
68.5763262144
 20
68.5271488515
 30
0.0
 10
68.9235230589
 20
68.5276257637
 30
0.0
 10
69.1528790566
 20
68.5577364622
 30
0.0
  0
SPLINE
  5
473
100
AcDbEntity
  8
0
100
AcDbSpline
 62
7
  6
CONTINUOUS
 70
0
 71
3
 72
11
 73
7
 74
0
 42
0.0000001
 43
0.0000001
 44
0.0000000001
 40
0.0
 40
0.0
 40
0.0
 40
0.0
 40
0.2453141499
 40
0.4999989983
 40
0.7546843623
 40
1.0
 40
1.0
 40
1.0
 40
1.0
 10
73.4254107058
 20
105.6618412185
 30
0.0
 10
73.6284140423
 20
105.8543947205
 30
0.0
 10
74.0107498835
 20
106.2808955912
 30
0.0
 10
74.4917341019
 20
106.997788294
 30
0.0
 10
74.8720861941
 20
107.7727825972
 30
0.0
 10
75.0502774604
 20
108.3171483902
 30
0.0
 10
75.1155317541
 20
108.5892329955
 30
0.0
  0
SPLINE
  5
474
100
AcDbEntity
  8
0
100
AcDbSpline
 62
7
  6
CONTINUOUS
 70
0
 71
3
 72
11
 73
7
 74
0
 42
0.0000001
 43
0.0000001
 44
0.0000000001
 40
0.0
 40
0.0
 40
0.0
 40
0.0
 40
0.2536823963
 40
0.5159684669
 40
0.7698313377
 40
1.0
 40
1.0
 40
1.0
 40
1.0
 10
76.1279518269
 20
112.8106244174
 30
0.0
 10
76.2529332972
 20
113.3317477346
 30
0.0
 10
76.6218934098
 20
114.3659747231
 30
0.0
 10
77.437811186
 20
115.782206986
 30
0.0
 10
78.4611332782
 20
116.9924974221
 30
0.0
 10
79.2747179476
 20
117.6305576568
 30
0.0
 10
79.6958048254
 20
117.8736708279
 30
0.0
  0
SPLINE
  5
475
100
AcDbEntity
  8
0
100
AcDbSpline
 62
7
  6
CONTINUOUS
 70
0
 71
3
 72
12
 73
8
 74
0
 42
0.0000001
 43
0.0000001
 44
0.0000000001
 40
0.0
 40
0.0
 40
0.0
 40
0.0
 40
0.2895685126
 40
0.5486375083
 40
0.7816298502
 40
0.8918359262
 40
1.0
 40
1.0
 40
1.0
 40
1.0
 10
102.3231276163
 20
130.9374837518
 30
0.0
 10
102.5557532678
 20
131.0717894326
 30
0.0
 10
103.0184361278
 20
131.2919030108
 30
0.0
 10
103.7290635715
 20
131.4637505584
 30
0.0
 10
104.2965270508
 20
131.4486648021
 30
0.0
 10
104.7016582028
 20
131.3365053093
 30
0.0
 10
104.8861642947
 20
131.2501070173
 30
0.0
 10
104.9730659619
 20
131.1999525497
 30
0.0
  0
SPLINE
  5
476
100
AcDbEntity
  8
0
100
AcDbSpline
 62
7
  6
CONTINUOUS
 70
0
 71
3
 72
9
 73
5
 74
0
 42
0.0000001
 43
0.0000001
 44
0.0000000001
 40
0.0
 40
0.0
 40
0.0
 40
0.0
 40
0.4911856761
 40
1.0
 40
1.0
 40
1.0
 40
1.0
 10
35.8336714266
 20
118.3508111758
 30
0.0
 10
35.8336714288
 20
113.1033736413
 30
0.0
 10
36.111824922
 20
102.4188095906
 30
0.0
 10
36.9028783078
 20
91.7605284863
 30
0.0
 10
37.4293599619
 20
86.3503167665
 30
0.0
  0
SPLINE
  5
477
100
AcDbEntity
  8
0
100
AcDbSpline
 62
7
  6
CONTINUOUS
 70
0
 71
3
 72
8
 73
4
 74
0
 42
0.0000001
 43
0.0000001
 44
0.0000000001
 40
0.0
 40
0.0
 40
0.0
 40
0.0
 40
1.0
 40
1.0
 40
1.0
 40
1.0
 10
36.6184385206
 20
121.1635126865
 30
0.0
 10
36.7610472236
 20
121.3212831334
 30
0.0
 10
36.9251178048
 20
121.4605102507
 30
0.0
 10
37.0981787357
 20
121.5841171692
 30
0.0
  0
SPLINE
  5
478
100
AcDbEntity
  8
0
100
AcDbSpline
 62
7
  6
CONTINUOUS
 70
0
 71
3
 72
9
 73
5
 74
0
 42
0.0000001
 43
0.0000001
 44
0.0000000001
 40
0.0
 40
0.0
 40
0.0
 40
0.0
 40
0.4919174537
 40
1.0
 40
1.0
 40
1.0
 40
1.0
 10
37.7514605297
 20
86.1634192784
 30
0.0
 10
40.33910553
 20
84.6694449832
 30
0.0
 10
45.7582414663
 20
81.9045738191
 30
0.0
 10
51.36411906
 20
79.556275224
 30
0.0
 10
54.239954815
 20
78.4365253835
 30
0.0
  0
SPLINE
  5
479
100
AcDbEntity
  8
0
100
AcDbSpline
 62
7
  6
CONTINUOUS
 70
0
 71
3
 72
10
 73
6
 74
0
 42
0.0000001
 43
0.0000001
 44
0.0000000001
 40
0.0
 40
0.0
 40
0.0
 40
0.0
 40
0.2355377209
 40
0.4775238205
 40
1.0
 40
1.0
 40
1.0
 40
1.0
 10
104.9730659619
 20
131.1999525497
 30
0.0
 10
105.078130375
 20
131.1393156268
 30
0.0
 10
105.2789101181
 20
130.9936766511
 30
0.0
 10
105.6286609605
 20
130.6120113295
 30
0.0
 10
105.8062670989
 20
130.2496182373
 30
0.0
 10
105.8909806148
 20
129.9942145278
 30
0.0
  0
SPLINE
  5
47A
100
AcDbEntity
  8
0
100
AcDbSpline
 62
7
  6
CONTINUOUS
 70
0
 71
3
 72
10
 73
6
 74
0
 42
0.0000001
 43
0.0000001
 44
0.0000000001
 40
0.0
 40
0.0
 40
0.0
 40
0.0
 40
0.5096141816
 40
0.7577375205
 40
1.0
 40
1.0
 40
1.0
 40
1.0
 10
54.239954815
 20
104.5646027316
 30
0.0
 10
50.9850869568
 20
107.0555836932
 30
0.0
 10
46.2529778171
 20
110.9017387943
 30
0.0
 10
40.1932347915
 20
116.1902282711
 30
0.0
 10
37.2723106384
 20
118.8408422453
 30
0.0
 10
35.8391345401
 20
120.1608600926
 30
0.0
  0
SPLINE
  5
47B
100
AcDbEntity
  8
0
100
AcDbSpline
 62
7
  6
CONTINUOUS
 70
0
 71
3
 72
10
 73
6
 74
0
 42
0.0000001
 43
0.0000001
 44
0.0000000001
 40
0.0
 40
0.0
 40
0.0
 40
0.0
 40
0.5178814655
 40
0.7614348971
 40
1.0
 40
1.0
 40
1.0
 40
1.0
 10
67.0118412519
 20
69.7861136342
 30
0.0
 10
67.1006210178
 20
69.5746022187
 30
0.0
 10
67.2733283711
 20
69.2768216205
 30
0.0
 10
67.586228965
 20
68.9608739351
 30
0.0
 10
67.7619197167
 20
68.8370416783
 30
0.0
 10
67.8534400539
 20
68.7842215848
 30
0.0
  0
SPLINE
  5
47C
100
AcDbEntity
  8
0
100
AcDbSpline
 62
7
  6
CONTINUOUS
 70
0
 71
3
 72
12
 73
8
 74
0
 42
0.0000001
 43
0.0000001
 44
0.0000000001
 40
0.0
 40
0.0
 40
0.0
 40
0.0
 40
0.2895699721
 40
0.5486394915
 40
0.7816312347
 40
0.8918366767
 40
1.0
 40
1.0
 40
1.0
 40
1.0
 10
58.4826131659
 20
75.9870808564
 30
0.0
 10
58.4826131659
 20
75.7184562854
 30
0.0
 10
58.5233313093
 20
75.2076821422
 30
0.0
 10
58.7298290936
 20
74.5063077132
 30
0.0
 10
59.0266392008
 20
74.0223950797
 30
0.0
 10
59.3263517959
 20
73.7276139437
 30
0.0
 10
59.4934355196
 20
73.6110249755
 30
0.0
 10
59.5803252197
 20
73.5608432138
 30
0.0
  0
SPLINE
  5
47D
100
AcDbEntity
  8
0
100
AcDbSpline
 62
7
  6
CONTINUOUS
 70
0
 71
3
 72
11
 73
7
 74
0
 42
0.0000001
 43
0.0000001
 44
0.0000000001
 40
0.0
 40
0.0
 40
0.0
 40
0.0
 40
0.2518813141
 40
0.5126360082
 40
0.7667546296
 40
1.0
 40
1.0
 40
1.0
 40
1.0
 10
61.0833947089
 20
107.736559544
 30
0.0
 10
60.7116789233
 20
107.3839782638
 30
0.0
 10
60.0280871751
 20
106.5871649761
 30
0.0
 10
59.2280525055
 20
105.2400191563
 30
0.0
 10
58.6825527896
 20
103.8115917342
 30
0.0
 10
58.5097758009
 20
102.825923935
 30
0.0
 10
58.4881038615
 20
102.3519911883
 30
0.0
  0
SPLINE
  5
47E
100
AcDbEntity
  8
0
100
AcDbSpline
 62
7
  6
CONTINUOUS
 70
0
 71
3
 72
11
 73
7
 74
0
 42
0.0000001
 43
0.0000001
 44
0.0000000001
 40
0.0
 40
0.0
 40
0.0
 40
0.0
 40
0.2309175839
 40
0.4763593903
 40
0.73375245
 40
1.0
 40
1.0
 40
1.0
 40
1.0
 10
127.0720622033
 20
60.0657199763
 30
0.0
 10
127.7815700891
 20
60.4753521
 30
0.0
 10
129.191358015
 20
61.415857439
 30
0.0
 10
131.1897804353
 20
63.0908786218
 30
0.0
 10
133.102038211
 20
65.0428359087
 30
0.0
 10
134.2787096031
 20
66.4841283385
 30
0.0
 10
134.8444859107
 20
67.2405630918
 30
0.0
  0
SPLINE
  5
47F
100
AcDbEntity
  8
0
100
AcDbSpline
 62
7
  6
CONTINUOUS
 70
0
 71
3
 72
17
 73
13
 74
0
 42
0.0000001
 43
0.0000001
 44
0.0000000001
 40
0.0
 40
0.0
 40
0.0
 40
0.0
 40
0.156973146
 40
0.3073966957
 40
0.4488408604
 40
0.5795358116
 40
0.6986555179
 40
0.806663218
 40
0.8571875438
 40
0.9058777399
 40
0.9532739884
 40
1.0
 40
1.0
 40
1.0
 40
1.0
 10
138.8922307054
 20
74.2547643808
 30
0.0
 10
139.3276383258
 20
75.2715574027
 30
0.0
 10
140.081977236
 20
77.3068696363
 30
0.0
 10
140.8586708671
 20
80.3793395661
 30
0.0
 10
141.2419219119
 20
83.3401722117
 30
0.0
 10
141.2193765801
 20
86.1073385071
 30
0.0
 10
140.789194853
 20
88.6045522997
 30
0.0
 10
140.0766344169
 20
90.4458020186
 30
0.0
 10
139.3061234104
 20
91.6903627178
 30
0.0
 10
138.6499004368
 20
92.4924983201
 30
0.0
 10
137.9075166247
 20
93.1767286174
 30
0.0
 10
137.3570260903
 20
93.5517393619
 30
0.0
 10
137.0718747941
 20
93.7163432775
 30
0.0
  0
SPLINE
  5
480
100
AcDbEntity
  8
0
100
AcDbSpline
 62
7
  6
CONTINUOUS
 70
0
 71
3
 72
12
 73
8
 74
0
 42
0.0000001
 43
0.0000001
 44
0.0000000001
 40
0.0
 40
0.0
 40
0.0
 40
0.0
 40
0.2895821567
 40
0.5486359363
 40
0.7816376878
 40
0.8918387163
 40
1.0
 40
1.0
 40
1.0
 40
1.0
 10
148.6387174625
 20
111.464296949
 30
0.0
 10
148.6387174625
 20
111.8089628247
 30
0.0
 10
148.586496544
 20
112.4643004491
 30
0.0
 10
148.3215095957
 20
113.3641630888
 30
0.0
 10
147.9407497896
 20
113.9850666192
 30
0.0
 10
147.5561632288
 20
114.3632255968
 30
0.0
 10
147.341836722
 20
114.5128660452
 30
0.0
 10
147.2303478771
 20
114.5772327004
 30
0.0
  0
SPLINE
  5
481
100
AcDbEntity
  8
0
100
AcDbSpline
 62
7
  6
CONTINUOUS
 70
0
 71
3
 72
15
 73
11
 74
0
 42
0.0000001
 43
0.0000001
 44
0.0000000001
 40
0.0
 40
0.0
 40
0.0
 40
0.0
 40
0.1141543519
 40
0.237325601
 40
0.366974755
 40
0.4999984147
 40
0.6330222943
 40
0.7626720931
 40
0.8858443543
 40
1.0
 40
1.0
 40
1.0
 40
1.0
 10
143.8304113694
 20
61.1677960257
 30
0.0
 10
144.1595786661
 20
61.3578397186
 30
0.0
 10
144.8097430118
 20
61.8136003283
 30
0.0
 10
145.7043336509
 20
62.6505624656
 30
0.0
 10
146.5287472692
 20
63.6399141634
 30
0.0
 10
147.2519318894
 20
64.7445416725
 30
0.0
 10
147.8469702162
 20
65.9231565192
 30
0.0
 10
148.2915641987
 20
67.1318031822
 30
0.0
 10
148.5690985324
 20
68.3250326746
 30
0.0
 10
148.6387174625
 20
69.1159793132
 30
0.0
 10
148.6387174625
 20
69.4960727085
 30
0.0
  0
SPLINE
  5
482
100
AcDbEntity
  8
0
100
AcDbSpline
 62
7
  6
CONTINUOUS
 70
0
 71
3
 72
11
 73
7
 74
0
 42
0.0000001
 43
0.0000001
 44
0.0000000001
 40
0.0
 40
0.0
 40
0.0
 40
0.0
 40
0.2177651606
 40
0.4508956102
 40
0.7103690052
 40
1.0
 40
1.0
 40
1.0
 40
1.0
 10
106.1731848312
 20
85.9217378651
 30
0.0
 10
106.1006368882
 20
85.9636609271
 30
0.0
 10
105.9647868545
 20
86.0776952389
 30
0.0
 10
105.8202560223
 20
86.3141163852
 30
0.0
 10
105.7344543675
 20
86.6053916063
 30
0.0
 10
105.7175145436
 20
86.8173856869
 30
0.0
 10
105.7175145436
 20
86.9288275341
 30
0.0
  0
SPLINE
  5
483
100
AcDbEntity
  8
0
100
AcDbSpline
 62
7
  6
CONTINUOUS
 70
0
 71
3
 72
17
 73
13
 74
0
 42
0.0000001
 43
0.0000001
 44
0.0000000001
 40
0.0
 40
0.0
 40
0.0
 40
0.0
 40
0.1286891333
 40
0.2702803493
 40
0.4174326844
 40
0.5617743804
 40
0.6954465661
 40
0.8127104963
 40
0.8646756522
 40
0.91250911
 40
0.9571392634
 40
1.0
 40
1.0
 40
1.0
 40
1.0
 10
142.4869140787
 20
108.1575235354
 30
0.0
 10
142.4869140787
 20
108.3455680722
 30
0.0
 10
142.5395220683
 20
108.7409602848
 30
0.0
 10
142.7358630013
 20
109.3215066464
 30
0.0
 10
143.038424218
 20
109.8807528084
 30
0.0
 10
143.4228705136
 20
110.3728470732
 30
0.0
 10
143.8577941203
 20
110.758041901
 30
0.0
 10
144.2514608255
 20
110.9733041239
 30
0.0
 10
144.5594067297
 20
111.0552188079
 30
0.0
 10
144.7713494765
 20
111.0708273058
 30
0.0
 10
144.9687034335
 20
111.0419053809
 30
0.0
 10
145.0882741327
 20
110.9922232106
 30
0.0
 10
145.1425006749
 20
110.9608874814
 30
0.0
  0
SPLINE
  5
484
100
AcDbEntity
  8
0
100
AcDbSpline
 62
7
  6
CONTINUOUS
 70
0
 71
3
 72
17
 73
13
 74
0
 42
0.0000001
 43
0.0000001
 44
0.0000000001
 40
0.0
 40
0.0
 40
0.0
 40
0.0
 40
0.1286891333
 40
0.2702803493
 40
0.4174326844
 40
0.5617743804
 40
0.6954465661
 40
0.8127104963
 40
0.8646756522
 40
0.91250911
 40
0.9571392634
 40
1.0
 40
1.0
 40
1.0
 40
1.0
 10
105.7175145436
 20
86.9288275341
 30
0.0
 10
105.7175145436
 20
87.1168720709
 30
0.0
 10
105.7701225332
 20
87.5122642834
 30
0.0
 10
105.9664634661
 20
88.0928106451
 30
0.0
 10
106.2690246829
 20
88.6520568071
 30
0.0
 10
106.6534709785
 20
89.1441510719
 30
0.0
 10
107.0883945852
 20
89.5293458997
 30
0.0
 10
107.4820612904
 20
89.7446081226
 30
0.0
 10
107.7900071946
 20
89.8265228066
 30
0.0
 10
108.0019499414
 20
89.8421313045
 30
0.0
 10
108.1993038983
 20
89.8132093796
 30
0.0
 10
108.3188745976
 20
89.7635272093
 30
0.0
 10
108.3731011398
 20
89.7321914801
 30
0.0
  0
SPLINE
  5
485
100
AcDbEntity
  8
0
100
AcDbSpline
 62
7
  6
CONTINUOUS
 70
0
 71
3
 72
17
 73
13
 74
0
 42
0.0000001
 43
0.0000001
 44
0.0000000001
 40
0.0
 40
0.0
 40
0.0
 40
0.0
 40
0.1286891333
 40
0.2702803493
 40
0.4174326844
 40
0.5617743804
 40
0.6954465661
 40
0.8127104963
 40
0.8646756522
 40
0.91250911
 40
0.9571392634
 40
1.0
 40
1.0
 40
1.0
 40
1.0
 10
105.7175145436
 20
44.4707018434
 30
0.0
 10
105.7175145436
 20
44.6587463802
 30
0.0
 10
105.7701225332
 20
45.0541385927
 30
0.0
 10
105.9664634661
 20
45.6346849544
 30
0.0
 10
106.2690246829
 20
46.1939311163
 30
0.0
 10
106.6534709785
 20
46.6860253812
 30
0.0
 10
107.0883945852
 20
47.071220209
 30
0.0
 10
107.4820612904
 20
47.2864824319
 30
0.0
 10
107.7900071946
 20
47.3683971158
 30
0.0
 10
108.0019499414
 20
47.3840056138
 30
0.0
 10
108.1993038983
 20
47.3550836888
 30
0.0
 10
108.3188745976
 20
47.3054015185
 30
0.0
 10
108.3731011398
 20
47.2740657894
 30
0.0
  0
SPLINE
  5
486
100
AcDbEntity
  8
0
100
AcDbSpline
 62
7
  6
CONTINUOUS
 70
0
 71
3
 72
15
 73
11
 74
0
 42
0.0000001
 43
0.0000001
 44
0.0000000001
 40
0.0
 40
0.0
 40
0.0
 40
0.0
 40
0.114155658
 40
0.2373279333
 40
0.3669777387
 40
0.5000016213
 40
0.633025278
 40
0.7626744253
 40
0.8858456604
 40
1.0
 40
1.0
 40
1.0
 40
1.0
 10
98.4343096927
 20
87.3778714745
 30
0.0
 10
98.4343096927
 20
87.7579649107
 30
0.0
 10
98.5039286457
 20
88.5489116364
 30
0.0
 10
98.7814630197
 20
89.7421412327
 30
0.0
 10
99.2260570701
 20
90.9507879557
 30
0.0
 10
99.8210954367
 20
92.1294028065
 30
0.0
 10
100.5442800734
 20
93.2340302791
 30
0.0
 10
101.3686936736
 20
94.2233818881
 30
0.0
 10
102.2632842429
 20
95.0603439384
 30
0.0
 10
102.9134485246
 20
95.5161044848
 30
0.0
 10
103.2426157858
 20
95.7061481573
 30
0.0
  0
SPLINE
  5
487
100
AcDbEntity
  8
0
100
AcDbSpline
 62
7
  6
CONTINUOUS
 70
0
 71
3
 72
11
 73
7
 74
0
 42
0.0000001
 43
0.0000001
 44
0.0000000001
 40
0.0
 40
0.0
 40
0.0
 40
0.0
 40
0.2177651606
 40
0.4508956102
 40
0.7103690052
 40
1.0
 40
1.0
 40
1.0
 40
1.0
 10
106.1731848312
 20
43.4636121744
 30
0.0
 10
106.1006368882
 20
43.5055352364
 30
0.0
 10
105.9647868545
 20
43.6195695481
 30
0.0
 10
105.8202560223
 20
43.8559906945
 30
0.0
 10
105.7344543675
 20
44.1472659155
 30
0.0
 10
105.7175145436
 20
44.3592599962
 30
0.0
 10
105.7175145436
 20
44.4707018434
 30
0.0
  0
SPLINE
  5
488
100
AcDbEntity
  8
0
100
AcDbSpline
 62
7
  6
CONTINUOUS
 70
0
 71
3
 72
12
 73
8
 74
0
 42
0.0000001
 43
0.0000001
 44
0.0000000001
 40
0.0
 40
0.0
 40
0.0
 40
0.0
 40
0.2348287806
 40
0.3604756473
 40
0.4893214011
 40
0.7491687428
 40
1.0
 40
1.0
 40
1.0
 40
1.0
 10
89.6802259473
 20
84.8688244079
 30
0.0
 10
89.7107606228
 20
85.2899215037
 30
0.0
 10
89.8344744972
 20
85.9323306068
 30
0.0
 10
90.1192670177
 20
86.7653049617
 30
0.0
 10
90.4937642018
 20
87.6120896051
 30
0.0
 10
91.0908124465
 20
88.6010388373
 30
0.0
 10
91.6943770319
 20
89.3007098218
 30
0.0
 10
92.0215738946
 20
89.6110638428
 30
0.0
  0
SPLINE
  5
489
100
AcDbEntity
  8
0
100
AcDbSpline
 62
7
  6
CONTINUOUS
 70
0
 71
3
 72
11
 73
7
 74
0
 42
0.0000001
 43
0.0000001
 44
0.0000000001
 40
0.0
 40
0.0
 40
0.0
 40
0.0
 40
0.2177651606
 40
0.4508956102
 40
0.7103690052
 40
1.0
 40
1.0
 40
1.0
 40
1.0
 10
142.9425843663
 20
107.1504338665
 30
0.0
 10
142.8700364233
 20
107.1923569284
 30
0.0
 10
142.7341863896
 20
107.3063912402
 30
0.0
 10
142.5896555574
 20
107.5428123865
 30
0.0
 10
142.5038539026
 20
107.8340876076
 30
0.0
 10
142.4869140787
 20
108.0460816882
 30
0.0
 10
142.4869140787
 20
108.1575235354
 30
0.0
  0
SPLINE
  5
48A
100
AcDbEntity
  8
0
100
AcDbSpline
 62
7
  6
CONTINUOUS
 70
0
 71
3
 72
12
 73
8
 74
0
 42
0.0000001
 43
0.0000001
 44
0.0000000001
 40
0.0
 40
0.0
 40
0.0
 40
0.0
 40
0.2508254577
 40
0.5106657404
 40
0.6395094366
 40
0.7651492373
 40
1.0
 40
1.0
 40
1.0
 40
1.0
 10
98.1020993219
 20
100.1429012832
 30
0.0
 10
98.2072670094
 20
100.5814089599
 30
0.0
 10
98.511380347
 20
101.4538916747
 30
0.0
 10
99.0692670545
 20
102.465350166
 30
0.0
 10
99.6152531128
 20
103.2130597391
 30
0.0
 10
100.1942933853
 20
103.8760939424
 30
0.0
 10
100.6885378633
 20
104.3047148779
 30
0.0
 10
101.0379680778
 20
104.5417181891
 30
0.0
  0
SPLINE
  5
48B
100
AcDbEntity
  8
0
100
AcDbSpline
 62
7
  6
CONTINUOUS
 70
0
 71
3
 72
11
 73
7
 74
0
 42
0.0000001
 43
0.0000001
 44
0.0000000001
 40
0.0
 40
0.0
 40
0.0
 40
0.0
 40
0.2457253786
 40
0.5003661518
 40
0.7548643693
 40
1.0
 40
1.0
 40
1.0
 40
1.0
 10
95.1923441254
 20
92.6160835563
 30
0.0
 10
95.4205046435
 20
92.8345860682
 30
0.0
 10
95.8478742127
 20
93.3190983557
 30
0.0
 10
96.3889398951
 20
94.1279310571
 30
0.0
 10
96.8158148945
 20
95.00185715
 30
0.0
 10
97.0161798139
 20
95.6150462758
 30
0.0
 10
97.0896792492
 20
95.9215098612
 30
0.0
  0
SPLINE
  5
48C
100
AcDbEntity
  8
0
100
AcDbSpline
 62
7
  6
CONTINUOUS
 70
0
 71
3
 72
11
 73
7
 74
0
 42
0.0000001
 43
0.0000001
 44
0.0000000001
 40
0.0
 40
0.0
 40
0.0
 40
0.0
 40
0.2177765917
 40
0.4509448302
 40
0.7102106369
 40
1.0
 40
1.0
 40
1.0
 40
1.0
 10
59.8303193984
 20
73.993855636
 30
0.0
 10
59.6719993339
 20
74.0852908583
 30
0.0
 10
59.3756422468
 20
74.3342527011
 30
0.0
 10
59.0604201709
 20
74.8499558834
 30
0.0
 10
58.8729203916
 20
75.48538933
 30
0.0
 10
58.8361650845
 20
75.9479202894
 30
0.0
 10
58.8361650845
 20
76.1912029333
 30
0.0
  0
SPLINE
  5
48D
100
AcDbEntity
  8
0
100
AcDbSpline
 62
7
  6
CONTINUOUS
 70
0
 71
3
 72
12
 73
8
 74
0
 42
0.0000001
 43
0.0000001
 44
0.0000000001
 40
0.0
 40
0.0
 40
0.0
 40
0.0
 40
0.1081612896
 40
0.2183623225
 40
0.4513640816
 40
0.710417852
 40
1.0
 40
1.0
 40
1.0
 40
1.0
 10
99.8426792781
 20
42.2967114826
 30
0.0
 10
99.7311904212
 20
42.3610781312
 30
0.0
 10
99.5168639129
 20
42.5107186019
 30
0.0
 10
99.1322773314
 20
42.8888775872
 30
0.0
 10
98.7515175467
 20
43.5097811386
 30
0.0
 10
98.4865305982
 20
44.4096437627
 30
0.0
 10
98.4343096927
 20
45.0649813683
 30
0.0
 10
98.4343096927
 20
45.409647234
 30
0.0
  0
SPLINE
  5
48E
100
AcDbEntity
  8
0
100
AcDbSpline
 62
7
  6
CONTINUOUS
 70
0
 71
3
 72
12
 73
8
 74
0
 42
0.0000001
 43
0.0000001
 44
0.0000000001
 40
0.0
 40
0.0
 40
0.0
 40
0.0
 40
0.1081620389
 40
0.2183637051
 40
0.4513660653
 40
0.7104193096
 40
1.0
 40
1.0
 40
1.0
 40
1.0
 10
104.085337629
 20
39.8472669555
 30
0.0
 10
104.1968228311
 20
39.7829024033
 30
0.0
 10
104.4335724017
 20
39.6721181148
 30
0.0
 10
104.9533441649
 20
39.5281469192
 30
0.0
 10
105.6814138189
 20
39.5088549567
 30
0.0
 10
106.5931733091
 20
39.7292914114
 30
0.0
 10
107.186797635
 20
40.0117220568
 30
0.0
 10
107.4852741367
 20
40.1840465167
 30
0.0
  0
SPLINE
  5
48F
100
AcDbEntity
  8
0
100
AcDbSpline
 62
7
  6
CONTINUOUS
 70
0
 71
3
 72
11
 73
7
 74
0
 42
0.0000001
 43
0.0000001
 44
0.0000000001
 40
0.0
 40
0.0
 40
0.0
 40
0.0
 40
0.2177562901
 40
0.451348561
 40
0.7107488034
 40
1.0
 40
1.0
 40
1.0
 40
1.0
 10
90.6225027526
 20
56.2170875513
 30
0.0
 10
90.4694574337
 20
56.3111717867
 30
0.0
 10
90.184258211
 20
56.5627116407
 30
0.0
 10
89.8816982262
 20
57.0737781048
 30
0.0
 10
89.7015702257
 20
57.69914793
 30
0.0
 10
89.6661638317
 20
58.1532788753
 30
0.0
 10
89.6661638317
 20
58.3919147044
 30
0.0
  0
SPLINE
  5
490
100
AcDbEntity
  8
0
100
AcDbSpline
 62
7
  6
CONTINUOUS
 70
0
 71
3
 72
14
 73
10
 74
0
 42
0.0000001
 43
0.0000001
 44
0.0000000001
 40
0.0
 40
0.0
 40
0.0
 40
0.0
 40
0.1080482358
 40
0.2181310152
 40
0.3321036305
 40
0.4515037909
 40
0.5774547497
 40
0.7107171139
 40
1.0
 40
1.0
 40
1.0
 40
1.0
 10
117.0722496126
 20
59.0751933603
 30
0.0
 10
117.4001642916
 20
58.8859042325
 30
0.0
 10
118.0963244488
 20
58.559840408
 30
0.0
 10
119.2228005367
 20
58.2484169927
 30
0.0
 10
120.4236399502
 20
58.1144023512
 30
0.0
 10
121.6860132085
 20
58.1584238905
 30
0.0
 10
122.9979772857
 20
58.3784121352
 30
0.0
 10
124.846353185
 20
58.9173752721
 30
0.0
 10
126.1941563795
 20
59.5588638381
 30
0.0
 10
127.0720622033
 20
60.0657199763
 30
0.0
  0
SPLINE
  5
491
100
AcDbEntity
  8
0
100
AcDbSpline
 62
7
  6
CONTINUOUS
 70
0
 71
3
 72
11
 73
7
 74
0
 42
0.0000001
 43
0.0000001
 44
0.0000000001
 40
0.0
 40
0.0
 40
0.0
 40
0.0
 40
0.217781332
 40
0.4509261302
 40
0.7102612678
 40
1.0
 40
1.0
 40
1.0
 40
1.0
 10
141.3356316936
 20
63.5421303444
 30
0.0
 10
141.4675593499
 20
63.4659326238
 30
0.0
 10
141.7707475849
 20
63.3559455415
 30
0.0
 10
142.2742513184
 20
63.3431881096
 30
0.0
 10
142.8109249262
 20
63.4727374833
 30
0.0
 10
143.1600507283
 20
63.6388766333
 30
0.0
 10
143.3355858817
 20
63.7402212964
 30
0.0
  0
SPLINE
  5
492
100
AcDbEntity
  8
0
100
AcDbSpline
 62
7
  6
CONTINUOUS
 70
0
 71
3
 72
17
 73
13
 74
0
 42
0.0000001
 43
0.0000001
 44
0.0000000001
 40
0.0
 40
0.0
 40
0.0
 40
0.0
 40
0.1286923789
 40
0.270276527
 40
0.4174326654
 40
0.5617773345
 40
0.6954483281
 40
0.8127111608
 40
0.8646773724
 40
0.9125099429
 40
0.9571398521
 40
1.0
 40
1.0
 40
1.0
 40
1.0
 10
143.3355858817
 20
63.7402212964
 30
0.0
 10
143.6316915084
 20
63.9111769392
 30
0.0
 10
144.2064547639
 20
64.3534561687
 30
0.0
 10
144.9420538758
 20
65.1904316503
 30
0.0
 10
145.5476040811
 20
66.1752521275
 30
0.0
 10
145.9729618957
 20
67.2279841194
 30
0.0
 10
146.1841123889
 20
68.2630191085
 30
0.0
 10
146.1650923464
 20
69.0785605788
 30
0.0
 10
146.0142218504
 20
69.6379615245
 30
0.0
 10
145.8460102555
 20
69.9858194429
 30
0.0
 10
145.6211162054
 20
70.2703331703
 30
0.0
 10
145.4341464796
 20
70.413379284
 30
0.0
 10
145.3355400699
 20
70.4703315855
 30
0.0
  0
SPLINE
  5
493
100
AcDbEntity
  8
0
100
AcDbSpline
 62
7
  6
CONTINUOUS
 70
0
 71
3
 72
12
 73
8
 74
0
 42
0.0000001
 43
0.0000001
 44
0.0000000001
 40
0.0
 40
0.0
 40
0.0
 40
0.0
 40
0.2895806991
 40
0.5486339526
 40
0.7816363052
 40
0.891837967
 40
1.0
 40
1.0
 40
1.0
 40
1.0
 10
139.5877530186
 20
116.6898976663
 30
0.0
 10
139.886229529
 20
116.8622221313
 30
0.0
 10
140.4798538776
 20
117.1446527747
 30
0.0
 10
141.3916133812
 20
117.3650892374
 30
0.0
 10
142.1196830277
 20
117.3457972459
 30
0.0
 10
142.6394547739
 20
117.2018260643
 30
0.0
 10
142.8762043245
 20
117.0910417659
 30
0.0
 10
142.9876895263
 20
117.0266772275
 30
0.0
  0
SPLINE
  5
494
100
AcDbEntity
  8
0
100
AcDbSpline
 62
7
  6
CONTINUOUS
 70
0
 71
3
 72
11
 73
7
 74
0
 42
0.0000001
 43
0.0000001
 44
0.0000000001
 40
0.0
 40
0.0
 40
0.0
 40
0.0
 40
0.2301704937
 40
0.4840340961
 40
0.7463195391
 40
1.0
 40
1.0
 40
1.0
 40
1.0
 10
58.8361650845
 20
102.3192802814
 30
0.0
 10
58.8361650845
 20
102.7596427467
 30
0.0
 10
58.968195681
 20
103.6866972482
 30
0.0
 10
59.454061868
 20
105.0373790927
 30
0.0
 10
60.1953690804
 20
106.3186403708
 30
0.0
 10
60.8394579192
 20
107.0763551859
 30
0.0
 10
61.1915898782
 20
107.4103607399
 30
0.0
  0
SPLINE
  5
495
100
AcDbEntity
  8
0
100
AcDbSpline
 62
7
  6
CONTINUOUS
 70
0
 71
3
 72
11
 73
7
 74
0
 42
0.0000001
 43
0.0000001
 44
0.0000000001
 40
0.0
 40
0.0
 40
0.0
 40
0.0
 40
0.2892497195
 40
0.548649414
 40
0.7822422826
 40
1.0
 40
1.0
 40
1.0
 40
1.0
 10
123.9606850632
 20
117.7920976376
 30
0.0
 10
124.1673406353
 20
117.9114095756
 30
0.0
 10
124.5783149677
 20
118.1078026591
 30
0.0
 10
125.2099382483
 20
118.2644854711
 30
0.0
 10
125.8037916304
 20
118.2579970402
 30
0.0
 10
126.1642193517
 20
118.1367866939
 30
0.0
 10
126.3222176824
 20
118.0512937181
 30
0.0
  0
SPLINE
  5
496
100
AcDbEntity
  8
0
100
AcDbSpline
 62
7
  6
CONTINUOUS
 70
0
 71
3
 72
15
 73
11
 74
0
 42
0.0000001
 43
0.0000001
 44
0.0000000001
 40
0.0
 40
0.0
 40
0.0
 40
0.0
 40
0.1141543519
 40
0.237325601
 40
0.366974755
 40
0.4999984147
 40
0.6330222943
 40
0.7626720931
 40
0.8858443543
 40
1.0
 40
1.0
 40
1.0
 40
1.0
 10
107.4852741367
 20
93.2567036301
 30
0.0
 10
107.15610684
 20
93.0666599372
 30
0.0
 10
106.5059424943
 20
92.6108993275
 30
0.0
 10
105.6113518552
 20
91.7739371902
 30
0.0
 10
104.7869382369
 20
90.7845854925
 30
0.0
 10
104.0637536167
 20
89.6799579834
 30
0.0
 10
103.4687152899
 20
88.5013431366
 30
0.0
 10
103.0241213074
 20
87.2926964736
 30
0.0
 10
102.7465869737
 20
86.0994669812
 30
0.0
 10
102.6769680436
 20
85.3085203426
 30
0.0
 10
102.6769680436
 20
84.9284269473
 30
0.0
  0
SPLINE
  5
497
100
AcDbEntity
  8
0
100
AcDbSpline
 62
7
  6
CONTINUOUS
 70
0
 71
3
 72
11
 73
7
 74
0
 42
0.0000001
 43
0.0000001
 44
0.0000000001
 40
0.0
 40
0.0
 40
0.0
 40
0.0
 40
0.2177651606
 40
0.4508956102
 40
0.7103690052
 40
1.0
 40
1.0
 40
1.0
 40
1.0
 10
145.1425006749
 20
110.9608874814
 30
0.0
 10
145.2150486179
 20
110.9189644195
 30
0.0
 10
145.3508986516
 20
110.8049301077
 30
0.0
 10
145.4954294838
 20
110.5685089614
 30
0.0
 10
145.5812311386
 20
110.2772337403
 30
0.0
 10
145.5981709625
 20
110.0652396597
 30
0.0
 10
145.5981709625
 20
109.9537978125
 30
0.0
  0
SPLINE
  5
498
100
AcDbEntity
  8
0
100
AcDbSpline
 62
7
  6
CONTINUOUS
 70
0
 71
3
 72
11
 73
7
 74
0
 42
0.0000001
 43
0.0000001
 44
0.0000000001
 40
0.0
 40
0.0
 40
0.0
 40
0.0
 40
0.2177668457
 40
0.4510458507
 40
0.7103480807
 40
1.0
 40
1.0
 40
1.0
 40
1.0
 10
113.6226862116
 20
125.3838614581
 30
0.0
 10
113.4644178905
 20
125.4736981849
 30
0.0
 10
113.1014882918
 20
125.6029699125
 30
0.0
 10
112.4999813237
 20
125.6158111759
 30
0.0
 10
111.859188212
 20
125.4601125349
 30
0.0
 10
111.4423421224
 20
125.2614616527
 30
0.0
 10
111.2327100108
 20
125.1404312191
 30
0.0
  0
SPLINE
  5
499
100
AcDbEntity
  8
0
100
AcDbSpline
 62
7
  6
CONTINUOUS
 70
0
 71
3
 72
12
 73
8
 74
0
 42
0.0000001
 43
0.0000001
 44
0.0000000001
 40
0.0
 40
0.0
 40
0.0
 40
0.0
 40
0.1081620389
 40
0.2183637051
 40
0.4513660653
 40
0.7104193096
 40
1.0
 40
1.0
 40
1.0
 40
1.0
 10
147.2303478771
 20
114.5772327004
 30
0.0
 10
147.118862675
 20
114.6415972525
 30
0.0
 10
146.8821131044
 20
114.752381541
 30
0.0
 10
146.3623413412
 20
114.8963527367
 30
0.0
 10
145.6342716872
 20
114.9156446992
 30
0.0
 10
144.722512197
 20
114.6952082445
 30
0.0
 10
144.1288878711
 20
114.4127775991
 30
0.0
 10
143.8304113694
 20
114.2404531391
 30
0.0
  0
SPLINE
  5
49A
100
AcDbEntity
  8
0
100
AcDbSpline
 62
7
  6
CONTINUOUS
 70
0
 71
3
 72
11
 73
7
 74
0
 42
0.0000001
 43
0.0000001
 44
0.0000000001
 40
0.0
 40
0.0
 40
0.0
 40
0.0
 40
0.2177651606
 40
0.4508956102
 40
0.7103690052
 40
1.0
 40
1.0
 40
1.0
 40
1.0
 10
108.3731011398
 20
89.7321914801
 30
0.0
 10
108.4456490828
 20
89.6902684182
 30
0.0
 10
108.5814991165
 20
89.5762341064
 30
0.0
 10
108.7260299487
 20
89.3398129601
 30
0.0
 10
108.8118316035
 20
89.048537739
 30
0.0
 10
108.8287714274
 20
88.8365436584
 30
0.0
 10
108.8287714274
 20
88.7251018112
 30
0.0
  0
SPLINE
  5
49B
100
AcDbEntity
  8
0
100
AcDbSpline
 62
7
  6
CONTINUOUS
 70
0
 71
3
 72
23
 73
19
 74
0
 42
0.0000001
 43
0.0000001
 44
0.0000000001
 40
0.0
 40
0.0
 40
0.0
 40
0.0
 40
0.0623904624
 40
0.1287434758
 40
0.1983452962
 40
0.2703333573
 40
0.3437220139
 40
0.4174667047
 40
0.4905036785
 40
0.5618024304
 40
0.6304111827
 40
0.695509363
 40
0.7564666522
 40
0.8129128354
 40
0.8648215783
 40
0.9126040254
 40
0.957185669
 40
1.0
 40
1.0
 40
1.0
 40
1.0
 10
127.0720622033
 20
92.7258166615
 30
0.0
 10
126.3535271577
 20
92.3109727358
 30
0.0
 10
124.9260525431
 20
91.3569937839
 30
0.0
 10
122.9045335887
 20
89.6558222766
 30
0.0
 10
120.972207151
 20
87.6717580803
 30
0.0
 10
119.1703076927
 20
85.4474494829
 30
0.0
 10
117.5370425386
 20
83.0299477591
 30
0.0
 10
116.1072086648
 20
80.470910634
 30
0.0
 10
114.9113450081
 20
77.8248868141
 30
0.0
 10
113.9749383304
 20
75.1482879881
 30
0.0
 10
113.3179438238
 20
72.4979432681
 30
0.0
 10
112.9544387432
 20
69.9297784215
 30
0.0
 10
112.8925533169
 20
67.4974600788
 30
0.0
 10
113.1348855284
 20
65.2511677203
 30
0.0
 10
113.6791336722
 20
63.2370701508
 30
0.0
 10
114.5196516724
 20
61.4976155374
 30
0.0
 10
115.6444827478
 20
60.075299767
 30
0.0
 10
116.5791474546
 20
59.3598371514
 30
0.0
 10
117.0722496126
 20
59.0751933603
 30
0.0
  0
SPLINE
  5
49C
100
AcDbEntity
  8
0
100
AcDbSpline
 62
7
  6
CONTINUOUS
 70
0
 71
3
 72
12
 73
8
 74
0
 42
0.0000001
 43
0.0000001
 44
0.0000000001
 40
0.0
 40
0.0
 40
0.0
 40
0.0
 40
0.2895821567
 40
0.5486359363
 40
0.7816376878
 40
0.8918387163
 40
1.0
 40
1.0
 40
1.0
 40
1.0
 10
102.6769680436
 20
42.9602027069
 30
0.0
 10
102.6769680436
 20
42.6155368311
 30
0.0
 10
102.7291889621
 20
41.9601992067
 30
0.0
 10
102.9941759104
 20
41.0603365671
 30
0.0
 10
103.3749357165
 20
40.4394330366
 30
0.0
 10
103.7595222773
 20
40.061274059
 30
0.0
 10
103.9738487841
 20
39.9116336106
 30
0.0
 10
104.085337629
 20
39.8472669555
 30
0.0
  0
SPLINE
  5
49D
100
AcDbEntity
  8
0
100
AcDbSpline
 62
7
  6
CONTINUOUS
 70
0
 71
3
 72
11
 73
7
 74
0
 42
0.0000001
 43
0.0000001
 44
0.0000000001
 40
0.0
 40
0.0
 40
0.0
 40
0.0
 40
0.2180076697
 40
0.4512740044
 40
0.7104522442
 40
1.0
 40
1.0
 40
1.0
 40
1.0
 10
77.9323237473
 20
63.559214384
 30
0.0
 10
77.7748556378
 20
63.6501562339
 30
0.0
 10
77.480013387
 20
63.8973490926
 30
0.0
 10
77.1654671285
 20
64.4090705115
 30
0.0
 10
76.9772047271
 20
65.0395992121
 30
0.0
 10
76.9390620617
 20
65.4987352763
 30
0.0
 10
76.9381887791
 20
65.740248286
 30
0.0
  0
SPLINE
  5
49E
100
AcDbEntity
  8
0
100
AcDbSpline
 62
7
  6
CONTINUOUS
 70
0
 71
3
 72
14
 73
10
 74
0
 42
0.0000001
 43
0.0000001
 44
0.0000000001
 40
0.0
 40
0.0
 40
0.0
 40
0.0
 40
0.1080482358
 40
0.2181310152
 40
0.3321036305
 40
0.4515037909
 40
0.5774547497
 40
0.7107171139
 40
1.0
 40
1.0
 40
1.0
 40
1.0
 10
137.0718747941
 20
93.7163432775
 30
0.0
 10
136.743960115
 20
93.9056324053
 30
0.0
 10
136.0477999579
 20
94.2316962298
 30
0.0
 10
134.92132387
 20
94.5431196451
 30
0.0
 10
133.7204844564
 20
94.6771342866
 30
0.0
 10
132.4581111981
 20
94.6331127472
 30
0.0
 10
131.146147121
 20
94.4131245026
 30
0.0
 10
129.2977712217
 20
93.8741613657
 30
0.0
 10
127.9499680272
 20
93.2326727997
 30
0.0
 10
127.0720622033
 20
92.7258166615
 30
0.0
  0
SPLINE
  5
49F
100
AcDbEntity
  8
0
100
AcDbSpline
 62
7
  6
CONTINUOUS
 70
0
 71
3
 72
11
 73
7
 74
0
 42
0.0000001
 43
0.0000001
 44
0.0000000001
 40
0.0
 40
0.0
 40
0.0
 40
0.0
 40
0.2351796562
 40
0.4893842602
 40
0.749140315
 40
1.0
 40
1.0
 40
1.0
 40
1.0
 10
76.9522509378
 20
92.2171582644
 30
0.0
 10
76.9840480758
 20
92.6364683082
 30
0.0
 10
77.1550043513
 20
93.5021690535
 30
0.0
 10
77.6509913888
 20
94.752939079
 30
0.0
 10
78.3603599647
 20
95.9290212079
 30
0.0
 10
78.9598790915
 20
96.6253759207
 30
0.0
 10
79.2847506724
 20
96.9346592283
 30
0.0
  0
SPLINE
  5
4A0
100
AcDbEntity
  8
0
100
AcDbSpline
 62
7
  6
CONTINUOUS
 70
0
 71
3
 72
23
 73
19
 74
0
 42
0.0000001
 43
0.0000001
 44
0.0000000001
 40
0.0
 40
0.0
 40
0.0
 40
0.0
 40
0.0428149924
 40
0.0873973996
 40
0.1351806374
 40
0.1870900809
 40
0.2435367621
 40
0.3044942612
 40
0.3695922671
 40
0.4382003807
 40
0.5094981263
 40
0.582533939
 40
0.6562775548
 40
0.7296654245
 40
0.8016531544
 40
0.8712549535
 40
0.9376087937
 40
1.0
 40
1.0
 40
1.0
 40
1.0
 10
115.6580303459
 20
59.8916752185
 30
0.0
 10
115.1649203531
 20
60.1763229956
 30
0.0
 10
114.2302431242
 20
60.8918017547
 30
0.0
 10
113.1054014911
 20
62.3141470364
 30
0.0
 10
112.2648829386
 20
64.053635106
 30
0.0
 10
111.7206433539
 20
66.0677624538
 30
0.0
 10
111.4783265677
 20
68.3140752997
 30
0.0
 10
111.5402297434
 20
70.7464001756
 30
0.0
 10
111.9037504212
 20
73.3145545039
 30
0.0
 10
112.5607512788
 20
75.9648724013
 30
0.0
 10
113.4971527757
 20
78.641433206
 30
0.0
 10
114.6930018932
 20
81.2874160187
 30
0.0
 10
116.1228165598
 20
83.8464175529
 30
0.0
 10
117.7560633769
 20
86.2638963144
 30
0.0
 10
119.5579510204
 20
88.4881946427
 30
0.0
 10
121.4902757269
 20
90.4722693173
 30
0.0
 10
123.5118095323
 20
92.173455133
 30
0.0
 10
124.9392991609
 20
93.1274493105
 30
0.0
 10
125.6578427531
 20
93.5422981705
 30
0.0
  0
SPLINE
  5
4A1
100
AcDbEntity
  8
0
100
AcDbSpline
 62
7
  6
CONTINUOUS
 70
0
 71
3
 72
12
 73
8
 74
0
 42
0.0000001
 43
0.0000001
 44
0.0000000001
 40
0.0
 40
0.0
 40
0.0
 40
0.0
 40
0.2508312197
 40
0.5106785501
 40
0.6395243087
 40
0.7651711837
 40
1.0
 40
1.0
 40
1.0
 40
1.0
 10
79.2935988419
 20
96.9593974242
 30
0.0
 10
78.9664020449
 20
96.6490434655
 30
0.0
 10
78.3628375333
 20
95.9493725981
 30
0.0
 10
77.765789336
 20
94.9604235025
 30
0.0
 10
77.3912921046
 20
94.1136389289
 30
0.0
 10
77.106499528
 20
93.2806645485
 30
0.0
 10
76.9827856165
 20
92.6382554026
 30
0.0
 10
76.9522509378
 20
92.2171582644
 30
0.0
  0
SPLINE
  5
4A2
100
AcDbEntity
  8
0
100
AcDbSpline
 62
7
  6
CONTINUOUS
 70
0
 71
3
 72
11
 73
7
 74
0
 42
0.0000001
 43
0.0000001
 44
0.0000000001
 40
0.0
 40
0.0
 40
0.0
 40
0.0
 40
0.217781332
 40
0.4509261302
 40
0.7102612678
 40
1.0
 40
1.0
 40
1.0
 40
1.0
 10
145.3355400699
 20
70.4703315855
 30
0.0
 10
145.2036124136
 20
70.5465293061
 30
0.0
 10
144.9004241786
 20
70.6565163883
 30
0.0
 10
144.3969204451
 20
70.6692738203
 30
0.0
 10
143.8602468372
 20
70.5397244465
 30
0.0
 10
143.5111210351
 20
70.3735852966
 30
0.0
 10
143.3355858817
 20
70.2722406334
 30
0.0
  0
SPLINE
  5
4A3
100
AcDbEntity
  8
0
100
AcDbSpline
 62
7
  6
CONTINUOUS
 70
0
 71
3
 72
11
 73
7
 74
0
 42
0.0000001
 43
0.0000001
 44
0.0000000001
 40
0.0
 40
0.0
 40
0.0
 40
0.0
 40
0.2451356307
 40
0.4996338481
 40
0.7542746217
 40
1.0
 40
1.0
 40
1.0
 40
1.0
 10
84.3617041965
 20
103.2698434426
 30
0.0
 10
84.2882047613
 20
102.9633798572
 30
0.0
 10
84.0878400184
 20
102.3501905472
 30
0.0
 10
83.6609641988
 20
101.4762653095
 30
0.0
 10
83.1199015116
 20
100.6674294819
 30
0.0
 10
82.6925247167
 20
100.1829247385
 30
0.0
 10
82.4643690727
 20
99.9644171377
 30
0.0
  0
SPLINE
  5
4A4
100
AcDbEntity
  8
0
100
AcDbSpline
 62
7
  6
CONTINUOUS
 70
0
 71
3
 72
17
 73
13
 74
0
 42
0.0000001
 43
0.0000001
 44
0.0000000001
 40
0.0
 40
0.0
 40
0.0
 40
0.0
 40
0.0428580528
 40
0.0874868444
 40
0.1353185356
 40
0.1872839888
 40
0.3045447935
 40
0.4382126403
 40
0.5825566886
 40
0.7297173777
 40
0.8713064245
 40
1.0
 40
1.0
 40
1.0
 40
1.0
 10
125.0721076691
 20
72.9316670902
 30
0.0
 10
124.973505695
 20
72.9886159677
 30
0.0
 10
124.7865377654
 20
73.1316503389
 30
0.0
 10
124.5616519995
 20
73.4161576206
 30
0.0
 10
124.3934394953
 20
73.7640059799
 30
0.0
 10
124.242556801
 20
74.3233938019
 30
0.0
 10
124.2235299948
 20
75.1389204265
 30
0.0
 10
124.4346684686
 20
76.1739414832
 30
0.0
 10
124.8600130284
 20
77.2266811456
 30
0.0
 10
125.4655649559
 20
78.2115287863
 30
0.0
 10
126.2011781739
 20
79.0485303939
 30
0.0
 10
126.7759537903
 20
79.4908207359
 30
0.0
 10
127.0720622033
 20
79.6617779874
 30
0.0
  0
SPLINE
  5
4A5
100
AcDbEntity
  8
0
100
AcDbSpline
 62
7
  6
CONTINUOUS
 70
0
 71
3
 72
12
 73
8
 74
0
 42
0.0000001
 43
0.0000001
 44
0.0000000001
 40
0.0
 40
0.0
 40
0.0
 40
0.0
 40
0.2348507415
 40
0.36049053
 40
0.4893342207
 40
0.7491745097
 40
1.0
 40
1.0
 40
1.0
 40
1.0
 10
88.3099930123
 20
111.890051935
 30
0.0
 10
87.9605628232
 20
111.6530486411
 30
0.0
 10
87.4663185098
 20
111.224427593
 30
0.0
 10
86.887278198
 20
110.5613935058
 30
0.0
 10
86.3412921237
 20
109.813683945
 30
0.0
 10
85.7834053497
 20
108.802225401
 30
0.0
 10
85.4792919723
 20
107.9297426059
 30
0.0
 10
85.3741242693
 20
107.4912348645
 30
0.0
  0
SPLINE
  5
4A6
100
AcDbEntity
  8
0
100
AcDbSpline
 62
7
  6
CONTINUOUS
 70
0
 71
3
 72
11
 73
7
 74
0
 42
0.0000001
 43
0.0000001
 44
0.0000000001
 40
0.0
 40
0.0
 40
0.0
 40
0.0
 40
0.2507401376
 40
0.5104979762
 40
0.7647543484
 40
1.0
 40
1.0
 40
1.0
 40
1.0
 10
85.388266346
 20
107.4993997476
 30
0.0
 10
85.4930583761
 20
107.9363410811
 30
0.0
 10
85.7957487046
 20
108.80590027
 30
0.0
 10
86.4597753194
 20
110.0115608647
 30
0.0
 10
87.2964350941
 20
111.0693998985
 30
0.0
 10
87.9618900414
 20
111.6522669732
 30
0.0
 10
88.3099930123
 20
111.890051935
 30
0.0
  0
SPLINE
  5
4A7
100
AcDbEntity
  8
0
100
AcDbSpline
 62
7
  6
CONTINUOUS
 70
0
 71
3
 72
17
 73
13
 74
0
 42
0.0000001
 43
0.0000001
 44
0.0000000001
 40
0.0
 40
0.0
 40
0.0
 40
0.0
 40
0.1286923789
 40
0.270276527
 40
0.4174326654
 40
0.5617773345
 40
0.6954483281
 40
0.8127111608
 40
0.8646773724
 40
0.9125099429
 40
0.9571398521
 40
1.0
 40
1.0
 40
1.0
 40
1.0
 10
143.3355858817
 20
70.2722406334
 30
0.0
 10
143.039480255
 20
70.1012849906
 30
0.0
 10
142.4647169996
 20
69.6590057611
 30
0.0
 10
141.7291178877
 20
68.8220302795
 30
0.0
 10
141.1235676823
 20
67.8372098023
 30
0.0
 10
140.6982098677
 20
66.7844778104
 30
0.0
 10
140.4870593746
 20
65.7494428213
 30
0.0
 10
140.5060794171
 20
64.933901351
 30
0.0
 10
140.656949913
 20
64.3745004053
 30
0.0
 10
140.825161508
 20
64.0266424869
 30
0.0
 10
141.050055558
 20
63.7421287595
 30
0.0
 10
141.2370252838
 20
63.5990826459
 30
0.0
 10
141.3356316936
 20
63.5421303444
 30
0.0
  0
SPLINE
  5
4A8
100
AcDbEntity
  8
0
100
AcDbSpline
 62
7
  6
CONTINUOUS
 70
0
 71
3
 72
11
 73
7
 74
0
 42
0.0000001
 43
0.0000001
 44
0.0000000001
 40
0.0
 40
0.0
 40
0.0
 40
0.0
 40
0.2452831959
 40
0.5000160026
 40
0.7546926633
 40
1.0
 40
1.0
 40
1.0
 40
1.0
 10
82.4643690727
 20
99.9644171377
 30
0.0
 10
82.6936823867
 20
100.1827273391
 30
0.0
 10
83.1277354819
 20
100.6641754475
 30
0.0
 10
83.6703846141
 20
101.4768219994
 30
0.0
 10
84.1005485502
 20
102.3539676044
 30
0.0
 10
84.3019992713
 20
102.9700955242
 30
0.0
 10
84.3758462733
 20
103.2780083257
 30
0.0
  0
SPLINE
  5
4A9
100
AcDbEntity
  8
0
100
AcDbSpline
 62
7
  6
CONTINUOUS
 70
0
 71
3
 72
14
 73
10
 74
0
 42
0.0000001
 43
0.0000001
 44
0.0000000001
 40
0.0
 40
0.0
 40
0.0
 40
0.0
 40
0.2892793691
 40
0.4225409029
 40
0.5484922172
 40
0.66789294
 40
0.7818663667
 40
0.8919503142
 40
1.0
 40
1.0
 40
1.0
 40
1.0
 10
125.6578427531
 20
93.5422981705
 30
0.0
 10
126.5357379379
 20
94.0491481663
 30
0.0
 10
127.8835266635
 20
94.6906302801
 30
0.0
 10
129.7318868423
 20
95.2295976279
 30
0.0
 10
131.0438505466
 20
95.4495896406
 30
0.0
 10
132.3062296629
 20
95.4936197343
 30
0.0
 10
133.5070784738
 20
95.3596068057
 30
0.0
 10
134.6335670828
 20
95.048183169
 30
0.0
 10
135.329735913
 20
94.7221158451
 30
0.0
 10
135.6576551602
 20
94.5328244373
 30
0.0
  0
SPLINE
  5
4AA
100
AcDbEntity
  8
0
100
AcDbSpline
 62
7
  6
CONTINUOUS
 70
0
 71
3
 72
11
 73
7
 74
0
 42
0.0000001
 43
0.0000001
 44
0.0000000001
 40
0.0
 40
0.0
 40
0.0
 40
0.0
 40
0.2177651606
 40
0.4508956102
 40
0.7103690052
 40
1.0
 40
1.0
 40
1.0
 40
1.0
 10
108.3731011398
 20
47.2740657894
 30
0.0
 10
108.4456490828
 20
47.2321427274
 30
0.0
 10
108.5814991165
 20
47.1181084157
 30
0.0
 10
108.7260299487
 20
46.8816872693
 30
0.0
 10
108.8118316035
 20
46.5904120482
 30
0.0
 10
108.8287714274
 20
46.3784179676
 30
0.0
 10
108.8287714274
 20
46.2669761204
 30
0.0
  0
SPLINE
  5
4AB
100
AcDbEntity
  8
0
100
AcDbSpline
 62
7
  6
CONTINUOUS
 70
0
 71
3
 72
17
 73
13
 74
0
 42
0.0000001
 43
0.0000001
 44
0.0000000001
 40
0.0
 40
0.0
 40
0.0
 40
0.0
 40
0.1286891333
 40
0.2702803493
 40
0.4174326844
 40
0.5617743804
 40
0.6954465661
 40
0.8127104963
 40
0.8646756522
 40
0.91250911
 40
0.9571392634
 40
1.0
 40
1.0
 40
1.0
 40
1.0
 10
145.5981709625
 20
109.9537978125
 30
0.0
 10
145.5981709625
 20
109.7657532757
 30
0.0
 10
145.5455629729
 20
109.3703610631
 30
0.0
 10
145.34922204
 20
108.7898147015
 30
0.0
 10
145.0466608232
 20
108.2305685395
 30
0.0
 10
144.6622145276
 20
107.7384742747
 30
0.0
 10
144.2272909209
 20
107.3532794469
 30
0.0
 10
143.8336242157
 20
107.138017224
 30
0.0
 10
143.5256783115
 20
107.05610254
 30
0.0
 10
143.3137355647
 20
107.0404940421
 30
0.0
 10
143.1163816078
 20
107.069415967
 30
0.0
 10
142.9968109085
 20
107.1190981373
 30
0.0
 10
142.9425843663
 20
107.1504338665
 30
0.0
  0
SPLINE
  5
4AC
100
AcDbEntity
  8
0
100
AcDbSpline
 62
7
  6
CONTINUOUS
 70
0
 71
3
 72
11
 73
7
 74
0
 42
0.0000001
 43
0.0000001
 44
0.0000000001
 40
0.0
 40
0.0
 40
0.0
 40
0.0
 40
0.2897457798
 40
0.5490781132
 40
0.7822210945
 40
1.0
 40
1.0
 40
1.0
 40
1.0
 10
127.0720622033
 20
79.6617779874
 30
0.0
 10
127.2476017579
 20
79.7631251915
 30
0.0
 10
127.5967306066
 20
79.9292662993
 30
0.0
 10
128.1334066049
 20
80.058812914
 30
0.0
 10
128.6369064527
 20
80.0460565323
 30
0.0
 10
128.9400899529
 20
79.9360656113
 30
0.0
 10
129.0720167376
 20
79.8598695476
 30
0.0
  0
SPLINE
  5
4AD
100
AcDbEntity
  8
0
100
AcDbSpline
 62
7
  6
CONTINUOUS
 70
0
 71
3
 72
11
 73
7
 74
0
 42
0.0000001
 43
0.0000001
 44
0.0000000001
 40
0.0
 40
0.0
 40
0.0
 40
0.0
 40
0.2896533683
 40
0.5489561116
 40
0.7822345489
 40
1.0
 40
1.0
 40
1.0
 40
1.0
 10
76.9381887791
 20
65.740248286
 30
0.0
 10
76.9381887791
 20
65.4981755123
 30
0.0
 10
76.9745756716
 20
65.0378307163
 30
0.0
 10
77.1601408574
 20
64.4050118637
 30
0.0
 10
77.4720292342
 20
63.8904937457
 30
0.0
 10
77.7654607785
 20
63.6408181521
 30
0.0
 10
77.9224028357
 20
63.5486720957
 30
0.0
  0
SPLINE
  5
4AE
100
AcDbEntity
  8
0
100
AcDbSpline
 62
7
  6
CONTINUOUS
 70
0
 71
3
 72
11
 73
7
 74
0
 42
0.0000001
 43
0.0000001
 44
0.0000000001
 40
0.0
 40
0.0
 40
0.0
 40
0.0
 40
0.2895458204
 40
0.5487241837
 40
0.7819907529
 40
1.0
 40
1.0
 40
1.0
 40
1.0
 10
111.2327100108
 20
125.1404312191
 30
0.0
 10
111.4422936016
 20
125.2604252822
 30
0.0
 10
111.8589709289
 20
125.4569508681
 30
0.0
 10
112.4991289555
 20
125.6091695794
 30
0.0
 10
113.09954304
 20
125.5926271629
 30
0.0
 10
113.4610280123
 20
125.4608930619
 30
0.0
 10
113.6185164247
 20
125.3699982751
 30
0.0
  0
SPLINE
  5
4AF
100
AcDbEntity
  8
0
100
AcDbSpline
 62
7
  6
CONTINUOUS
 70
0
 71
3
 72
17
 73
13
 74
0
 42
0.0000001
 43
0.0000001
 44
0.0000000001
 40
0.0
 40
0.0
 40
0.0
 40
0.0
 40
0.1286891333
 40
0.2702803493
 40
0.4174326844
 40
0.5617743804
 40
0.6954465661
 40
0.8127104963
 40
0.8646756522
 40
0.91250911
 40
0.9571392634
 40
1.0
 40
1.0
 40
1.0
 40
1.0
 10
108.8287714274
 20
88.7251018112
 30
0.0
 10
108.8287714274
 20
88.5370572743
 30
0.0
 10
108.7761634378
 20
88.1416650618
 30
0.0
 10
108.5798225048
 20
87.5611187001
 30
0.0
 10
108.2772612881
 20
87.0018725382
 30
0.0
 10
107.8928149925
 20
86.5097782734
 30
0.0
 10
107.4578913858
 20
86.1245834456
 30
0.0
 10
107.0642246806
 20
85.9093212227
 30
0.0
 10
106.7562787764
 20
85.8274065387
 30
0.0
 10
106.5443360296
 20
85.8117980408
 30
0.0
 10
106.3469820726
 20
85.8407199657
 30
0.0
 10
106.2274113734
 20
85.890402136
 30
0.0
 10
106.1731848312
 20
85.9217378651
 30
0.0
  0
SPLINE
  5
4B0
100
AcDbEntity
  8
0
100
AcDbSpline
 62
7
  6
CONTINUOUS
 70
0
 71
3
 72
17
 73
13
 74
0
 42
0.0000001
 43
0.0000001
 44
0.0000000001
 40
0.0
 40
0.0
 40
0.0
 40
0.0
 40
0.1286891333
 40
0.2702803493
 40
0.4174326844
 40
0.5617743804
 40
0.6954465661
 40
0.8127104963
 40
0.8646756522
 40
0.91250911
 40
0.9571392634
 40
1.0
 40
1.0
 40
1.0
 40
1.0
 10
108.8287714274
 20
46.2669761204
 30
0.0
 10
108.8287714274
 20
46.0789315836
 30
0.0
 10
108.7761634378
 20
45.6835393711
 30
0.0
 10
108.5798225048
 20
45.1029930094
 30
0.0
 10
108.2772612881
 20
44.5437468474
 30
0.0
 10
107.8928149925
 20
44.0516525826
 30
0.0
 10
107.4578913858
 20
43.6664577548
 30
0.0
 10
107.0642246806
 20
43.4511955319
 30
0.0
 10
106.7562787764
 20
43.369280848
 30
0.0
 10
106.5443360296
 20
43.35367235
 30
0.0
 10
106.3469820726
 20
43.382594275
 30
0.0
 10
106.2274113734
 20
43.4322764453
 30
0.0
 10
106.1731848312
 20
43.4636121744
 30
0.0
  0
SPLINE
  5
4B1
100
AcDbEntity
  8
0
100
AcDbSpline
 62
7
  6
CONTINUOUS
 70
0
 71
3
 72
11
 73
7
 74
0
 42
0.0000001
 43
0.0000001
 44
0.0000000001
 40
0.0
 40
0.0
 40
0.0
 40
0.0
 40
0.2177825102
 40
0.4509091639
 40
0.7102957096
 40
1.0
 40
1.0
 40
1.0
 40
1.0
 10
25.0919539263
 20
96.0463439487
 30
0.0
 10
24.9929940023
 20
96.1034772064
 30
0.0
 10
24.8078437958
 20
96.2591311663
 30
0.0
 10
24.6107297189
 20
96.5814210018
 30
0.0
 10
24.4936556158
 20
96.9786030599
 30
0.0
 10
24.4706094794
 20
97.2676843087
 30
0.0
 10
24.4706094794
 20
97.419689428
 30
0.0
  0
SPLINE
  5
4B2
100
AcDbEntity
  8
0
100
AcDbSpline
 62
7
  6
CONTINUOUS
 70
0
 71
3
 72
13
 73
9
 74
0
 42
0.0000001
 43
0.0000001
 44
0.0000000001
 40
0.0
 40
0.0
 40
0.0
 40
0.0
 40
0.1142249338
 40
0.2375584468
 40
0.4999994088
 40
0.7624406902
 40
0.885774603
 40
1.0
 40
1.0
 40
1.0
 40
1.0
 10
72.9076079882
 20
116.730635169
 30
0.0
 10
72.7624275636
 20
116.6468157121
 30
0.0
 10
72.4448112034
 20
116.4989547612
 30
0.0
 10
71.7410078075
 20
116.2851199411
 30
0.0
 10
70.7862912288
 20
116.1813129328
 30
0.0
 10
69.8315736097
 20
116.285115418
 30
0.0
 10
69.127767386
 20
116.4989468391
 30
0.0
 10
68.8101489188
 20
116.6468062211
 30
0.0
 10
68.6649673011
 20
116.7306249709
 30
0.0
  0
SPLINE
  5
4B3
100
AcDbEntity
  8
0
100
AcDbSpline
 62
7
  6
CONTINUOUS
 70
0
 71
3
 72
11
 73
7
 74
0
 42
0.0000001
 43
0.0000001
 44
0.0000000001
 40
0.0
 40
0.0
 40
0.0
 40
0.0
 40
0.2177821605
 40
0.4509085882
 40
0.7102951949
 40
1.0
 40
1.0
 40
1.0
 40
1.0
 10
109.9899803085
 20
138.8574581108
 30
0.0
 10
109.9899802765
 20
138.7431941002
 30
0.0
 10
109.9477546027
 20
138.5050319143
 30
0.0
 10
109.7672048001
 20
138.1731951749
 30
0.0
 10
109.4817808845
 20
137.8732276956
 30
0.0
 10
109.2429602907
 20
137.7087353796
 30
0.0
 10
109.1113244535
 20
137.6327358472
 30
0.0
  0
SPLINE
  5
4B4
100
AcDbEntity
  8
0
100
AcDbSpline
 62
7
  6
CONTINUOUS
 70
0
 71
3
 72
9
 73
5
 74
0
 42
0.0000001
 43
0.0000001
 44
0.0000000001
 40
0.0
 40
0.0
 40
0.0
 40
0.0
 40
0.2465708886
 40
1.0
 40
1.0
 40
1.0
 40
1.0
 10
69.6750427878
 20
139.4535605781
 30
0.0
 10
69.7181065451
 20
139.4436464725
 30
0.0
 10
69.8933412372
 20
139.4060069772
 30
0.0
 10
70.0707304209
 20
139.3784998917
 30
0.0
 10
70.2048911674
 20
139.3632122785
 30
0.0
  0
SPLINE
  5
4B5
100
AcDbEntity
  8
0
100
AcDbSpline
 62
7
  6
CONTINUOUS
 70
0
 71
3
 72
9
 73
5
 74
0
 42
0.0000001
 43
0.0000001
 44
0.0000000001
 40
0.0
 40
0.0
 40
0.0
 40
0.0
 40
0.2532154778
 40
1.0
 40
1.0
 40
1.0
 40
1.0
 10
71.3676370036
 20
139.3632089219
 30
0.0
 10
71.4127223055
 20
139.3683461193
 30
0.0
 10
71.590487114
 20
139.391049074
 30
0.0
 10
71.7670265424
 20
139.4235219524
 30
0.0
 10
71.8974418175
 20
139.4535437717
 30
0.0
  0
SPLINE
  5
4B6
100
AcDbEntity
  8
0
100
AcDbSpline
 62
7
  6
CONTINUOUS
 70
0
 71
3
 72
9
 73
5
 74
0
 42
0.0000001
 43
0.0000001
 44
0.0000000001
 40
0.0
 40
0.0
 40
0.0
 40
0.0
 40
0.256139438
 40
1.0
 40
1.0
 40
1.0
 40
1.0
 10
109.2993583628
 20
160.8589855417
 30
0.0
 10
109.3181322016
 20
160.8720644994
 30
0.0
 10
109.3907069113
 20
160.9241476045
 30
0.0
 10
109.4603254501
 20
160.9803926804
 30
0.0
 10
109.5098849178
 20
161.0246550744
 30
0.0
  0
SPLINE
  5
4B7
100
AcDbEntity
  8
0
100
AcDbSpline
 62
7
  6
CONTINUOUS
 70
0
 71
3
 72
9
 73
5
 74
0
 42
0.0000001
 43
0.0000001
 44
0.0000000001
 40
0.0
 40
0.0
 40
0.0
 40
0.0
 40
0.2609341878
 40
1.0
 40
1.0
 40
1.0
 40
1.0
 10
109.5098849178
 20
161.0246550744
 30
0.0
 10
109.5358740806
 20
161.0478664328
 30
0.0
 10
109.6331281605
 20
161.1393715701
 30
0.0
 10
109.7204958758
 20
161.2417045871
 30
0.0
 10
109.7765848837
 20
161.3229132692
 30
0.0
  0
SPLINE
  5
4B8
100
AcDbEntity
  8
0
100
AcDbSpline
 62
7
  6
CONTINUOUS
 70
0
 71
3
 72
9
 73
5
 74
0
 42
0.0000001
 43
0.0000001
 44
0.0000000001
 40
0.0
 40
0.0
 40
0.0
 40
0.0
 40
0.2604112263
 40
1.0
 40
1.0
 40
1.0
 40
1.0
 10
109.7765848837
 20
161.3229132692
 30
0.0
 10
109.7973265607
 20
161.3529441848
 30
0.0
 10
109.8725935621
 20
161.4711695114
 30
0.0
 10
109.9287672085
 20
161.6020190302
 30
0.0
 10
109.95534237
 20
161.7022105281
 30
0.0
  0
SPLINE
  5
4B9
100
AcDbEntity
  8
0
100
AcDbSpline
 62
7
  6
CONTINUOUS
 70
0
 71
3
 72
9
 73
5
 74
0
 42
0.0000001
 43
0.0000001
 44
0.0000000001
 40
0.0
 40
0.0
 40
0.0
 40
0.0
 40
0.2527278947
 40
1.0
 40
1.0
 40
1.0
 40
1.0
 10
109.95534237
 20
161.7022105281
 30
0.0
 10
109.9610649624
 20
161.7237853775
 30
0.0
 10
109.9810524155
 20
161.8098318452
 30
0.0
 10
109.9899803207
 20
161.8984775504
 30
0.0
 10
109.9899803085
 20
161.9644765155
 30
0.0
  0
ELLIPSE
  5
4BA
100
AcDbEntity
  8
0
100
AcDbEllipse
 62
7
  6
CONTINUOUS
 10
36.8655488314
 20
120.8936310293
 30
0.0
 11
1.1250924179
 21
1.0230995198
 31
0.0
 40
0.2565808008
 41
0.3809969543
 42
1.1388330116
  0
ENDSEC
  0
SECTION
  2
OBJECTS
  0
DICTIONARY
  5
C
100
AcDbDictionary
280
0
281
1
  3
ACAD_GROUP
350
D
  3
ACAD_MLINESTYLE
350
17
  3
ACAD_LAYOUT
350
1A
  3
ACAD_PLOTSETTINGS
350
19
  3
ACAD_PLOTSTYLENAME
350
E
  0
DICTIONARY
  5
D
102
{ACAD_REACTORS
330
C
102
}
100
AcDbDictionary
280
0
281
1
  0
ACDBDICTIONARYWDFLT
  5
E
102
{ACAD_REACTORS
330
C
102
}
100
AcDbDictionary
281
1
  3
Normal
350
F
100
AcDbDictionaryWithDefault
340
F
  0
DICTIONARY
  5
17
102
{ACAD_REACTORS
330
C
102
}
100
AcDbDictionary
280
0
281
1
  3
Standard
350
18
  0
DICTIONARY
  5
19
102
{ACAD_REACTORS
330
C
102
}
100
AcDbDictionary
281
1
  0
DICTIONARY
  5
1A
102
{ACAD_REACTORS
330
C
102
}
100
AcDbDictionary
281
1
  3
Model
350
4BB
  3
Layout1
350
4BC
  0
ACDBPLACEHOLDER
  5
F
102
{ACAD_REACTORS
330
E
102
}
  0
MLINESTYLE
  5
18
102
{ACAD_REACTORS
330
17
102
}
100
AcDbMlineStyle
  2
STANDARD
 70
0
  3

 62
256
 51
90.0
 52
90.0
 71
2
 49
0.5
 62
256
  6
BYLAYER
 49
-0.5
 62
256
  6
BYLAYER
  0
LAYOUT
  5
4BB
102
{ACAD_REACTORS
330
1A
102
}
100
AcDbPlotSettings
  1

  2
none_device
  4

  6

 40
0.0
 41
0.0
 42
0.0
 43
0.0
 44
210.0
 45
297.0
 46
0.0
 47
0.0
 48
0.0
 49
0.0
140
0.0
141
0.0
142
1.0
143
1.0
 70
1024
 72
1
 73
0
 74
0
  7

 75
0
147
1.0
148
0.0
149
0.0
100
AcDbLayout
  1
Model
 70
0
 71
0
 10
0.0
 20
0.0
 11
210.0
 21
297.0
 12
0.0
 22
0.0
 32
0.0
 14
0.0
 24
0.0
 34
0.0
 15
0.0
 25
0.0
 35
0.0
146
0.0
 13
0.0
 23
0.0
 33
0.0
 16
1.0
 26
0.0
 36
0.0
 17
0.0
 27
1.0
 37
0.0
 76
0
330
210
345
0
346
0
  0
LAYOUT
  5
4BC
102
{ACAD_REACTORS
330
1A
102
}
100
AcDbPlotSettings
  1

  2
none_device
  4

  6

 40
0.0
 41
0.0
 42
0.0
 43
0.0
 44
210.0
 45
297.0
 46
0.0
 47
0.0
 48
0.0
 49
0.0
140
0.0
141
0.0
142
1.0
143
1.0
 70
0
 72
1
 73
0
 74
0
  7

 75
0
147
1.0
148
0.0
149
0.0
100
AcDbLayout
  1
Layout1
 70
0
 71
1
 10
0.0
 20
0.0
 11
210.0
 21
297.0
 12
0.0
 22
0.0
 32
0.0
 14
0.0
 24
0.0
 34
0.0
 15
0.0
 25
0.0
 35
0.0
146
0.0
 13
0.0
 23
0.0
 33
0.0
 16
1.0
 26
0.0
 36
0.0
 17
0.0
 27
1.0
 37
0.0
 76
0
330
211
345
0
346
0
  0
ENDSEC
  0
EOF
