999
DXF file: C:\Users\sesa63760\Dev\_Creo\CAD\MCADID0000440_3D-CAD\drw0001_1.dxf
999
Pro/ENGINEER 2019471 by Parametric Technology Corporation
  0
SECTION
  2
HEADER
  9
$ACADVER
  1
AC1024
  9
$DWGCODEPAGE
  3
ANSI_1252
  9
$EXTMAX
 10
89.7735126275
 20
126.9653964303
 30
0.0
  9
$EXTMIN
 10
0.0
 20
0.0
 30
0.0
  9
$LIMMIN
 10
0.0
 20
0.0
  9
$LIMMAX
 10
89.7735126275
 20
126.9653964303
  9
$VIEWCTR
 10
44.8867563137
 20
63.4826982151
  9
$VIEWSIZE
 40
126.9653964303
  9
$CLAYER
  8
0
  9
$LTSCALE
 40
8.2762628784
  9
$CELTYPE
  6
BYLAYER
  9
$DIMSCALE
 40
1.0
  9
$DIMASZ
 40
1.0687322932
  9
$DIMEXO
 40
1.0
  9
$DIMDLI
 40
5.7181452615
  9
$DIMEXE
 40
1.0
  9
$DIMCEN
 40
1.3542975619
  9
$DIMLFAC
 40
1.0
  9
$DIMBLK
  1
_FILLED
  9
$DIMALT
 70
0
  9
$DIMALTF
 40
0.0393700787
  9
$DIMTXT
 40
1.4962252105
  9
$DIMTOL
 70
1
  9
$DIMLIM
 70
0
  9
$DIMTFAC
 40
1.0
  9
$DIMTP
 40
0.01
  9
$DIMTM
 40
0.01
  9
$DIMGAP
 40
0.625
  9
$DIMDSEP
 70
46
  9
$AUNITS
 70
0
  9
$PDMODE
 70
3
  9
$PDSIZE
 40
0.3125
  9
$HANDSEED
  5
2B3
  9
$TILEMODE
 70
1
  9
$MEASUREMENT
 70
1
  9
$INSUNITS
 70
4
  0
ENDSEC
  0
SECTION
  2
CLASSES
  0
CLASS
  1
ACDBDICTIONARYWDFLT
  2
AcDbDictionaryWithDefault
  3
AutoCAD 2000
 90
0
 91
1
280
0
281
0
  0
CLASS
  1
ACDBPLACEHOLDER
  2
AcDbPlaceHolder
  3
AutoCAD 2000
 90
0
 91
1
280
0
281
0
  0
CLASS
  1
LAYOUT
  2
AcDbLayout
  3
AutoCAD 2000
 90
0
 91
0
280
0
281
0
  0
ENDSEC
  0
SECTION
  2
TABLES
  0
TABLE
  2
VPORT
  5
8
100
AcDbSymbolTable
 70
2
  0
VPORT
  5
1F4
100
AcDbSymbolTableRecord
100
AcDbViewportTableRecord
  2
*ACTIVE
 70
0
 10
0.0
 20
0.0
 11
1.0
 21
1.0
 12
44.8867563137
 22
63.4826982151
 13
0.0
 23
0.0
 14
1.0
 24
1.0
 15
0.0
 25
0.0
 16
0.0
 26
0.0
 36
1.0
 17
0.0
 27
0.0
 37
0.0
 40
126.9653964303
 41
0.7070707071
 42
50.0
 43
0.0
 44
0.0
 50
0.0
 51
0.0
 71
0
 72
100
 73
1
 74
1
 75
0
 76
0
 77
0
 78
0
  0
ENDTAB
  0
TABLE
  2
LTYPE
  5
5
100
AcDbSymbolTable
 70
6
  0
LTYPE
  5
14
100
AcDbSymbolTableRecord
100
AcDbLinetypeTableRecord
  2
BYBLOCK
 70
0
  3

 72
65
 73
0
 40
0.0
  0
LTYPE
  5
15
100
AcDbSymbolTableRecord
100
AcDbLinetypeTableRecord
  2
BYLAYER
 70
0
  3

 72
65
 73
0
 40
0.0
  0
LTYPE
  5
16
100
AcDbSymbolTableRecord
100
AcDbLinetypeTableRecord
  2
CONTINUOUS
 70
64
  3
Solid line
 72
65
 73
0
 40
0.0
  0
LTYPE
  5
1F5
100
AcDbSymbolTableRecord
100
AcDbLinetypeTableRecord
  2
CENTER
 70
64
  3
____ _ ____ _ ____ _ ____ _ ____ _ ____ _ ____
 72
65
 73
4
 40
0.6
 49
0.375
 74
0
 49
-0.075
 74
0
 49
0.075
 74
0
 49
-0.075
 74
0
  0
LTYPE
  5
1F6
100
AcDbSymbolTableRecord
100
AcDbLinetypeTableRecord
  2
HIDDEN
 70
64
  3
- - - - - - - - - - - - - - - - - - - -
 72
65
 73
2
 40
0.2
 49
0.1
 74
0
 49
-0.1
 74
0
  0
LTYPE
  5
1F7
100
AcDbSymbolTableRecord
100
AcDbLinetypeTableRecord
  2
PHANTOM
 70
64
  3
_____ _ _ _____ _ _ _____ _ _ _____
 72
65
 73
6
 40
0.8
 49
0.45
 74
0
 49
-0.05
 74
0
 49
0.1
 74
0
 49
-0.05
 74
0
 49
0.1
 74
0
 49
-0.05
 74
0
  0
LTYPE
  5
1F8
100
AcDbSymbolTableRecord
100
AcDbLinetypeTableRecord
  2
DOT
 70
64
  3
. . . . . . . . . . . . . . . . . . . .
 72
65
 73
2
 40
0.2
 49
0.1
 74
0
 49
-0.1
 74
0
  0
LTYPE
  5
1F9
100
AcDbSymbolTableRecord
100
AcDbLinetypeTableRecord
  2
DASHED
 70
64
  3
- - - - - - - - - - - - - - - - - - - -
 72
65
 73
2
 40
0.2
 49
0.1
 74
0
 49
-0.1
 74
0
  0
ENDTAB
  0
TABLE
  2
LAYER
  5
2
100
AcDbSymbolTable
 70
36
  0
LAYER
  5
10
100
AcDbSymbolTableRecord
100
AcDbLayerTableRecord
  2
0
 70
0
 62
7
  6
CONTINUOUS
370
-3
390
F
  0
LAYER
  5
1FA
100
AcDbSymbolTableRecord
100
AcDbLayerTableRecord
  2
DEFAULT_1
 70
0
 62
7
  6
CENTER
370
-3
390
F
  0
LAYER
  5
1FB
100
AcDbSymbolTableRecord
100
AcDbLayerTableRecord
  2
DEFAULT_2
 70
0
 62
8
  6
HIDDEN
370
-3
390
F
  0
LAYER
  5
1FC
100
AcDbSymbolTableRecord
100
AcDbLayerTableRecord
  2
DEFAULT_3
 70
0
 62
7
  6
PHANTOM
370
-3
390
F
  0
LAYER
  5
1FD
100
AcDbSymbolTableRecord
100
AcDbLayerTableRecord
  2
00_COMPONENTS
 70
0
 62
7
  6
CONTINUOUS
370
-3
390
F
  0
LAYER
  5
1FE
100
AcDbSymbolTableRecord
100
AcDbLayerTableRecord
  2
01_1_DEFAULT_DATUMS
 70
0
 62
7
  6
CONTINUOUS
370
-3
390
F
  0
LAYER
  5
1FF
100
AcDbSymbolTableRecord
100
AcDbLayerTableRecord
  2
01_PLANES
 70
0
 62
7
  6
CONTINUOUS
370
-3
390
F
  0
LAYER
  5
200
100
AcDbSymbolTableRecord
100
AcDbLayerTableRecord
  2
02_COORD_SYS
 70
0
 62
7
  6
CONTINUOUS
370
-3
390
F
  0
LAYER
  5
201
100
AcDbSymbolTableRecord
100
AcDbLayerTableRecord
  2
03_AXES
 70
0
 62
7
  6
CONTINUOUS
370
-3
390
F
  0
LAYER
  5
202
100
AcDbSymbolTableRecord
100
AcDbLayerTableRecord
  2
04_POINTS
 70
0
 62
7
  6
CONTINUOUS
370
-3
390
F
  0
LAYER
  5
203
100
AcDbSymbolTableRecord
100
AcDbLayerTableRecord
  2
05_CURVES
 70
0
 62
7
  6
CONTINUOUS
370
-3
390
F
  0
LAYER
  5
204
100
AcDbSymbolTableRecord
100
AcDbLayerTableRecord
  2
06_SURFS
 70
0
 62
7
  6
CONTINUOUS
370
-3
390
F
  0
LAYER
  5
205
100
AcDbSymbolTableRecord
100
AcDbLayerTableRecord
  2
07_COSMETICS
 70
0
 62
7
  6
CONTINUOUS
370
-3
390
F
  0
LAYER
  5
206
100
AcDbSymbolTableRecord
100
AcDbLayerTableRecord
  2
10_NOTES
 70
0
 62
7
  6
CONTINUOUS
370
-3
390
F
  0
LAYER
  5
207
100
AcDbSymbolTableRecord
100
AcDbLayerTableRecord
  2
11_NOTES_PUB
 70
0
 62
7
  6
CONTINUOUS
370
-3
390
F
  0
LAYER
  5
208
100
AcDbSymbolTableRecord
100
AcDbLayerTableRecord
  2
13_REF_GTOL
 70
0
 62
7
  6
CONTINUOUS
370
-3
390
F
  0
LAYER
  5
209
100
AcDbSymbolTableRecord
100
AcDbLayerTableRecord
  2
16_MISC
 70
0
 62
7
  6
CONTINUOUS
370
-3
390
F
  0
LAYER
  5
20A
100
AcDbSymbolTableRecord
100
AcDbLayerTableRecord
  2
17_NO_PRINT
 70
0
 62
7
  6
CONTINUOUS
370
-3
390
F
  0
LAYER
  5
20B
100
AcDbSymbolTableRecord
100
AcDbLayerTableRecord
  2
18_DATUM_CAMS_JOINTS
 70
0
 62
7
  6
CONTINUOUS
370
-3
390
F
  0
LAYER
  5
20C
100
AcDbSymbolTableRecord
100
AcDbLayerTableRecord
  2
19_DATUM_FUNCTIONAL
 70
0
 62
7
  6
CONTINUOUS
370
-3
390
F
  0
LAYER
  5
20D
100
AcDbSymbolTableRecord
100
AcDbLayerTableRecord
  2
20_DATUM_KINEMATIC_SCHEME
 70
0
 62
7
  6
CONTINUOUS
370
-3
390
F
  0
ENDTAB
  0
TABLE
  2
STYLE
  5
3
100
AcDbSymbolTable
 70
1
  0
STYLE
  5
11
100
AcDbSymbolTableRecord
100
AcDbTextStyleTableRecord
  2
STANDARD
 70
0
 40
0.0
 41
0.8
 50
0.0
 71
0
 42
0.2
  3
txt
  4

  0
STYLE
  5
20E
100
AcDbSymbolTableRecord
100
AcDbTextStyleTableRecord
  2
TEXTSTYLE_1
 70
0
 40
0.0
 41
0.8
 50
0.0
 71
0
 42
0.2
  3
gdt
  4

  0
ENDTAB
  0
TABLE
  2
VIEW
  5
6
100
AcDbSymbolTable
 70
0
  0
ENDTAB
  0
TABLE
  2
UCS
  5
7
100
AcDbSymbolTable
 70
0
  0
ENDTAB
  0
TABLE
  2
APPID
  5
9
100
AcDbSymbolTable
 70
1
  0
APPID
  5
20F
100
AcDbSymbolTableRecord
100
AcDbRegAppTableRecord
  2
ACAD
 70
0
  0
ENDTAB
  0
TABLE
  2
BLOCK_RECORD
  5
1
100
AcDbSymbolTable
 70
0
  0
BLOCK_RECORD
  5
210
100
AcDbSymbolTableRecord
100
AcDbBlockTableRecord
  2
*Model_Space
  0
BLOCK_RECORD
  5
211
100
AcDbSymbolTableRecord
100
AcDbBlockTableRecord
  2
*Paper_Space
  0
BLOCK_RECORD
  5
212
100
AcDbSymbolTableRecord
100
AcDbBlockTableRecord
  2
_FILLED
  0
ENDTAB
  0
TABLE
  2
DIMSTYLE
  5
A
100
AcDbSymbolTable
 70
1
100
AcDbDimStyleTable
 71
0
  0
DIMSTYLE
105
213
100
AcDbSymbolTableRecord
100
AcDbDimStyleTableRecord
  2
STANDARD
 70
0
  3

  4

 40
1.0
 41
1.0687322932
 42
1.0
 43
0.38
 44
1.0
 45
0.0
 46
0.0
 47
0.01
 48
0.01
140
1.4962252105
141
0.09
142
0.0
143
25.4
144
1.0
145
0.0
146
1.0
147
0.625
 71
1
 72
0
 73
0
 74
0
 75
0
 76
0
 77
1
 78
8
 79
2
170
0
171
1
172
0
173
0
174
0
175
0
176
0
177
0
178
0
270
2
179
2
271
2
272
2
273
2
274
2
275
0
280
0
281
0
282
0
283
1
284
8
285
0
286
0
287
3
288
0
340
11
278
46
341
212
342
212
343
212
344
212
  0
ENDTAB
  0
ENDSEC
  0
SECTION
  2
BLOCKS
  0
BLOCK
  5
20
100
AcDbEntity
  8
0
100
AcDbBlockBegin
  2
*Model_Space
 70
0
 10
0.0
 20
0.0
 30
0.0
  3
*Model_Space
  1

  0
ENDBLK
  5
21
100
AcDbEntity
  8
0
100
AcDbBlockEnd
  0
BLOCK
  5
1C
100
AcDbEntity
  8
0
100
AcDbBlockBegin
  2
*Paper_Space
 70
0
 10
0.0
 20
0.0
 30
0.0
  3
*Paper_Space
  1

  0
ENDBLK
  5
1D
100
AcDbEntity
  8
0
100
AcDbBlockEnd
  0
BLOCK
  5
214
100
AcDbEntity
  8
0
100
AcDbBlockBegin
  2
_FILLED
 70
64
 10
0.0
 20
0.0
  3
_FILLED
  1

  0
SOLID
  5
215
100
AcDbEntity
  8
0
  6
BYBLOCK
 62
0
100
AcDbTrace
 10
0.0
 20
0.0
 11
-1.0
 21
0.25
 12
-1.0
 22
-0.25
 13
-1.0
 23
-0.25
  0
ENDBLK
  5
216
100
AcDbEntity
  8
0
  6
BYBLOCK
 62
0
100
AcDbBlockEnd
  0
ENDSEC
  0
SECTION
  2
ENTITIES
  0
LINE
  5
217
100
AcDbEntity
  8
0
100
AcDbLine
 62
7
  6
CONTINUOUS
 10
10.7494066298
 20
47.8237076666
 11
10.7494066298
 21
77.4437325735
  0
LINE
  5
218
100
AcDbEntity
  8
0
100
AcDbLine
 62
7
  6
CONTINUOUS
 10
10.4147603336
 20
71.2177730347
 11
10.7494066298
 21
72.9116818076
  0
LWPOLYLINE
  5
219
100
AcDbEntity
  8
0
100
AcDbPolyline
 62
7
  6
CONTINUOUS
 90
4
 70
0
 10
15.9878878989
 20
81.9881889801
 10
17.4192283914
 20
83.2101438102
 10
18.7558190689
 20
83.9260261416
 10
19.6854181522
 20
84.1229463244
  0
LINE
  5
21A
100
AcDbEntity
  8
0
100
AcDbLine
 62
7
  6
CONTINUOUS
 10
18.1092548179
 20
43.537497884
 11
11.391712429
 21
47.4157850519
  0
LINE
  5
21B
100
AcDbEntity
  8
0
100
AcDbLine
 62
7
  6
CONTINUOUS
 10
17.4669490187
 20
43.9454204986
 11
10.7494066298
 21
47.8237076666
  0
LINE
  5
21C
100
AcDbEntity
  8
0
100
AcDbLine
 62
7
  6
CONTINUOUS
 10
10.7494066298
 20
68.7328042007
 11
10.4147603336
 21
69.993019409
  0
LINE
  5
21D
100
AcDbEntity
  8
0
100
AcDbLine
 62
7
  6
CONTINUOUS
 10
17.4669490187
 20
43.9454204986
 11
17.4669490187
 21
73.5654454056
  0
LINE
  5
21E
100
AcDbEntity
  8
0
100
AcDbLine
 62
7
  6
CONTINUOUS
 10
12.0657814345
 20
79.7237732739
 11
37.7171853136
 21
94.5335298062
  0
LWPOLYLINE
  5
21F
100
AcDbEntity
  8
0
100
AcDbPolyline
 62
7
  6
CONTINUOUS
 90
6
 70
0
 10
49.186479391
 20
33.6783286699
 10
50.8879787875
 20
32.9847608215
 10
54.848961236
 20
32.9517348588
 10
59.2204739694
 20
34.6886663283
 10
63.5778387647
 20
38.0116257118
 10
66.259412736
 20
41.1418883163
  0
LINE
  5
220
100
AcDbEntity
  8
0
100
AcDbLine
 62
7
  6
CONTINUOUS
 10
19.7103587315
 20
56.8886710876
 11
19.3021087413
 21
57.9408714142
  0
LINE
  5
221
100
AcDbEntity
  8
0
100
AcDbLine
 62
7
  6
CONTINUOUS
 10
20.5268587118
 20
58.0502801028
 11
20.935108702
 21
56.9980797761
  0
LINE
  5
222
100
AcDbEntity
  8
0
100
AcDbLine
 62
7
  6
CONTINUOUS
 10
18.7833238234
 20
75.8454861059
 11
44.4347277025
 21
90.6552426383
  0
LINE
  5
223
100
AcDbEntity
  8
0
100
AcDbLine
 62
7
  6
CONTINUOUS
 10
10.4147603336
 20
69.993019409
 11
10.7494066298
 21
70.1862263849
  0
LINE
  5
224
100
AcDbEntity
  8
0
100
AcDbLine
 62
7
  6
CONTINUOUS
 10
49.186474714
 20
33.6783205695
 11
41.7618226
 21
37.9648484919
  0
LINE
  5
225
100
AcDbEntity
  8
0
100
AcDbLine
 62
7
  6
CONTINUOUS
 10
21.6341950091
 20
49.6430115109
 11
41.4703790433
 21
38.1908444016
  0
LINE
  5
226
100
AcDbEntity
  8
0
100
AcDbLine
 62
7
  6
CONTINUOUS
 10
32.9332004874
 20
81.4244367995
 11
33.2320543344
 21
82.0683788629
  0
LINE
  5
227
100
AcDbEntity
  8
0
100
AcDbLine
 62
7
  6
CONTINUOUS
 10
20.5268587118
 20
56.4172752685
 11
19.7103587315
 21
56.8886710876
  0
LINE
  5
228
100
AcDbEntity
  8
0
100
AcDbLine
 62
7
  6
CONTINUOUS
 10
35.1639081421
 20
81.7695292882
 11
34.8650542951
 21
81.1255872249
  0
LINE
  5
229
100
AcDbEntity
  8
0
100
AcDbLine
 62
7
  6
CONTINUOUS
 10
19.3021087413
 20
57.9408714142
 11
19.7103587315
 21
58.5216759218
  0
LINE
  5
22A
100
AcDbEntity
  8
0
100
AcDbLine
 62
7
  6
CONTINUOUS
 10
20.935108702
 20
56.9980797761
 11
20.5268587118
 21
56.4172752685
  0
LINE
  5
22B
100
AcDbEntity
  8
0
100
AcDbLine
 62
7
  6
CONTINUOUS
 10
19.7103587315
 20
58.5216759218
 11
20.5268587118
 21
58.0502801028
  0
LINE
  5
22C
100
AcDbEntity
  8
0
100
AcDbLine
 62
7
  6
CONTINUOUS
 10
54.1006347797
 20
38.9240511723
 11
52.6864153294
 21
39.7405326813
  0
LINE
  5
22D
100
AcDbEntity
  8
0
100
AcDbLine
 62
7
  6
CONTINUOUS
 10
33.2320543344
 20
81.2518973538
 11
33.2320543344
 21
82.0683788629
  0
LINE
  5
22E
100
AcDbEntity
  8
0
100
AcDbLine
 62
7
  6
CONTINUOUS
 10
10.7494066298
 20
69.7998156506
 11
10.4147603336
 21
69.993019409
  0
LINE
  5
22F
100
AcDbEntity
  8
0
100
AcDbLine
 62
7
  6
CONTINUOUS
 10
34.3474081618
 20
81.0455069006
 11
34.3474081618
 21
82.2409251073
  0
LINE
  5
230
100
AcDbEntity
  8
0
100
AcDbLine
 62
7
  6
CONTINUOUS
 10
10.4147603336
 20
71.2177730347
 11
10.7494066298
 21
71.0245692763
  0
LINE
  5
231
100
AcDbEntity
  8
0
100
AcDbLine
 62
7
  6
CONTINUOUS
 10
58.3076851202
 20
44.5780225295
 11
57.6005753951
 21
44.9862632841
  0
LINE
  5
232
100
AcDbEntity
  8
0
100
AcDbLine
 62
7
  6
CONTINUOUS
 10
74.7176454525
 20
36.2586358545
 11
58.8076766367
 21
45.4440528312
  0
LINE
  5
233
100
AcDbEntity
  8
0
100
AcDbLine
 62
7
  6
CONTINUOUS
 10
20.0092306857
 20
58.3491260222
 11
19.3021087413
 21
57.9408714142
  0
LINE
  5
234
100
AcDbEntity
  8
0
100
AcDbLine
 62
7
  6
CONTINUOUS
 10
20.7456457703
 20
57.4863907702
 11
19.7103587315
 21
56.8886710876
  0
LINE
  5
235
100
AcDbEntity
  8
0
100
AcDbLine
 62
7
  6
CONTINUOUS
 10
10.7494066298
 20
77.4437325735
 11
17.4669490187
 21
73.5654454056
  0
LINE
  5
236
100
AcDbEntity
  8
0
100
AcDbLine
 62
7
  6
CONTINUOUS
 10
18.7833238234
 20
75.8454861059
 11
12.0657814345
 21
79.7237732739
  0
LINE
  5
237
100
AcDbEntity
  8
0
100
AcDbLine
 62
7
  6
CONTINUOUS
 10
45.7511025073
 20
89.8952115604
 11
45.7511025073
 21
81.7917143827
  0
LINE
  5
238
100
AcDbEntity
  8
0
100
AcDbLine
 62
7
  6
CONTINUOUS
 10
79.7175606174
 20
44.9189388714
 11
63.8075918016
 21
54.1043558481
  0
LINE
  5
239
100
AcDbEntity
  8
0
100
AcDbLine
 62
7
  6
CONTINUOUS
 10
79.1267627877
 20
45.7734973835
 11
68.5201169105
 21
51.8971087013
  0
LINE
  5
23A
100
AcDbEntity
  8
0
100
AcDbLine
 62
7
  6
CONTINUOUS
 10
64.3075833181
 20
54.9703861498
 11
63.6004735929
 21
55.3786269043
  0
LINE
  5
23B
100
AcDbEntity
  8
0
100
AcDbLine
 62
7
  6
CONTINUOUS
 10
25.8012922751
 20
47.2371912095
 11
18.7833238234
 21
43.1853894207
  0
LINE
  5
23C
100
AcDbEntity
  8
0
100
AcDbLine
 62
7
  6
CONTINUOUS
 10
67.1004142083
 20
61.4408390161
 11
65.686194758
 21
62.2573205252
  0
LINE
  5
23D
100
AcDbEntity
  8
0
100
AcDbLine
 62
7
  6
CONTINUOUS
 10
33.7497004677
 20
80.9530409805
 11
32.9332004874
 21
81.4244367995
  0
LINE
  5
23E
100
AcDbEntity
  8
0
100
AcDbLine
 62
7
  6
CONTINUOUS
 10
34.3474081618
 20
82.2409251073
 11
35.1639081421
 21
81.7695292882
  0
LINE
  5
23F
100
AcDbEntity
  8
0
100
AcDbLine
 62
7
  6
CONTINUOUS
 10
41.5838565169
 20
84.1976205482
 11
61.417555423
 21
72.7468881959
  0
LINE
  5
240
100
AcDbEntity
  8
0
100
AcDbLine
 62
7
  6
CONTINUOUS
 10
69.1861353735
 20
68.319532637
 11
61.7614832594
 21
72.6060605595
  0
LINE
  5
241
100
AcDbEntity
  8
0
100
AcDbLine
 62
7
  6
CONTINUOUS
 10
34.8650542951
 20
81.1255872249
 11
33.7497004677
 21
80.9530409805
  0
LINE
  5
242
100
AcDbEntity
  8
0
100
AcDbLine
 62
7
  6
CONTINUOUS
 10
67.7701202681
 20
51.9713951198
 11
67.636097116
 21
51.8940172788
  0
LINE
  5
243
100
AcDbEntity
  8
0
100
AcDbLine
 62
7
  6
CONTINUOUS
 10
68.0754334051
 20
51.6403720922
 11
68.5201169105
 21
51.8971087013
  0
LINE
  5
244
100
AcDbEntity
  8
0
100
AcDbLine
 62
7
  6
CONTINUOUS
 10
33.2320543344
 20
82.0683788629
 11
34.3474081618
 21
82.2409251073
  0
LINE
  5
245
100
AcDbEntity
  8
0
100
AcDbLine
 62
7
  6
CONTINUOUS
 10
37.7171853136
 20
94.5335298062
 11
44.4347277025
 21
90.6552426383
  0
LINE
  5
246
100
AcDbEntity
  8
0
100
AcDbLine
 62
7
  6
CONTINUOUS
 10
45.1087967081
 20
90.3031341751
 11
38.3912543192
 21
94.181421343
  0
LWPOLYLINE
  5
247
100
AcDbEntity
  8
0
100
AcDbPolyline
 62
7
  6
CONTINUOUS
 90
5
 70
0
 10
69.1161121463
 20
51.5530184758
 10
69.6559028201
 20
53.5850627589
 10
69.6521225794
 20
57.2586636449
 10
68.5639161539
 20
60.0821591396
 10
67.1001111266
 20
61.4403139881
  0
LWPOLYLINE
  5
248
100
AcDbEntity
  8
0
100
AcDbPolyline
 62
7
  6
CONTINUOUS
 90
3
 70
0
 10
71.4105660291
 20
50.2283448771
 10
72.6314268348
 20
53.6981695266
 10
73.328381788
 20
59.1638096807
  0
LINE
  5
249
100
AcDbEntity
  8
0
100
AcDbLine
 62
7
  6
CONTINUOUS
 10
77.5587809517
 20
42.5411636071
 11
77.5475350963
 21
42.5345878946
  0
LINE
  5
24A
100
AcDbEntity
  8
0
100
AcDbLine
 62
7
  6
CONTINUOUS
 10
79.1267627877
 20
45.7734973835
 11
78.6820792823
 21
45.5167607744
  0
LINE
  5
24B
100
AcDbEntity
  8
0
100
AcDbLine
 62
7
  6
CONTINUOUS
 10
80.753122221
 20
42.6300081323
 11
80.753125165
 21
42.2217656781
  0
LINE
  5
24C
100
AcDbEntity
  8
0
100
AcDbLine
 62
7
  6
CONTINUOUS
 10
77.5712128827
 20
36.7104378547
 11
77.2176641296
 21
36.5063105507
  0
ARC
  5
24D
100
AcDbEntity
  8
0
100
AcDbCircle
 62
7
  6
CONTINUOUS
 10
51.8673979546
 20
55.2244039091
 40
46.7374344277
100
AcDbArc
 50
148.3861635892
 51
151.6141118557
  0
ARC
  5
24E
100
AcDbEntity
  8
0
100
AcDbCircle
 62
7
  6
CONTINUOUS
 10
58.5849403435
 20
51.3461167411
 40
46.7374344277
100
AcDbArc
 50
148.3861635892
 51
151.6141118557
  0
ARC
  5
24F
100
AcDbEntity
  8
0
100
AcDbCircle
 62
7
  6
CONTINUOUS
 10
15.904705883
 20
55.2314835598
 40
9.0250902529
100
AcDbArc
 50
235.1647550598
 51
239.9967132275
  0
ARC
  5
250
100
AcDbEntity
  8
0
100
AcDbCircle
 62
7
  6
CONTINUOUS
 10
33.8793228213
 20
86.3651395313
 40
9.0250644427
100
AcDbArc
 50
60.0044033857
 51
64.8338351735
  0
ARC
  5
251
100
AcDbEntity
  8
0
100
AcDbCircle
 62
7
  6
CONTINUOUS
 10
22.6211863158
 20
51.3537796957
 40
9.0250644427
100
AcDbArc
 50
235.1647550598
 51
244.8338351735
  0
ARC
  5
252
100
AcDbEntity
  8
0
100
AcDbCircle
 62
7
  6
CONTINUOUS
 10
40.5968652102
 20
82.4868523634
 40
9.0250644426
100
AcDbArc
 50
55.1647550598
 51
64.8338351735
  0
ARC
  5
253
100
AcDbEntity
  8
0
100
AcDbCircle
 62
7
  6
CONTINUOUS
 10
78.827019274
 20
40.3735074433
 40
2.5114419384
100
AcDbArc
 50
120.3298422302
 51
120.627994595
  0
ARC
  5
254
100
AcDbEntity
  8
0
100
AcDbCircle
 62
7
  6
CONTINUOUS
 10
78.8131989232
 20
40.3971349144
 40
2.4840693339
100
AcDbArc
 50
120.0001693548
 51
120.3299008006
  0
ARC
  5
255
100
AcDbEntity
  8
0
100
AcDbCircle
 62
7
  6
CONTINUOUS
 10
78.7887599975
 20
40.4396613629
 40
2.4350208886
100
AcDbArc
 50
118.8911801941
 51
120.0024903119
  0
ARC
  5
256
100
AcDbEntity
  8
0
100
AcDbCircle
 62
7
  6
CONTINUOUS
 10
19.1161439182
 20
58.9946494712
 40
1.2779200549
100
AcDbArc
 50
115.2864465001
 51
119.9973166913
  0
ARC
  5
257
100
AcDbEntity
  8
0
100
AcDbCircle
 62
7
  6
CONTINUOUS
 10
32.2264795159
 20
81.7025715128
 40
1.2779167096
100
AcDbArc
 50
180.0029082072
 51
184.7128592479
  0
ARC
  5
258
100
AcDbEntity
  8
0
100
AcDbCircle
 62
7
  6
CONTINUOUS
 10
21.1439561928
 20
55.6961181591
 40
1.051577423
100
AcDbArc
 50
289.0046528569
 51
296.9293301664
  0
ARC
  5
259
100
AcDbEntity
  8
0
100
AcDbCircle
 62
7
  6
CONTINUOUS
 10
36.0970418001
 20
81.5956787144
 40
1.0515362786
100
AcDbArc
 50
3.0317035877
 51
11.0153712099
  0
ARC
  5
25A
100
AcDbEntity
  8
0
100
AcDbCircle
 62
7
  6
CONTINUOUS
 10
19.0952368641
 20
59.244476598
 40
1.0511358168
100
AcDbArc
 50
122.7029623261
 51
131.026834805
  0
ARC
  5
25B
100
AcDbEntity
  8
0
100
AcDbCircle
 62
7
  6
CONTINUOUS
 10
31.9996346175
 20
81.5957491144
 40
1.0510985721
100
AcDbArc
 50
168.9851860952
 51
177.257909588
  0
ARC
  5
25C
100
AcDbEntity
  8
0
100
AcDbCircle
 62
7
  6
CONTINUOUS
 10
36.31317705
 20
81.7034675159
 40
0.8353693211
100
AcDbArc
 50
348.1007299554
 51
359.934288404
  0
SPLINE
  5
25D
100
AcDbEntity
  8
0
100
AcDbSpline
 62
7
  6
CONTINUOUS
 70
0
 71
3
 72
11
 73
7
 74
0
 42
0.0000001
 43
0.0000001
 44
0.0000000001
 40
0.0
 40
0.0
 40
0.0
 40
0.0
 40
0.2177843137
 40
0.4509117637
 40
0.7102976701
 40
1.0
 40
1.0
 40
1.0
 40
1.0
 10
67.7701240105
 20
51.9713886378
 30
0.0
 10
67.8196028064
 20
51.9999550415
 30
0.0
 10
67.9332880322
 20
52.041212341
 30
0.0
 10
68.122117255
 20
52.0459934605
 30
0.0
 10
68.3233649523
 20
51.9973957293
 30
0.0
 10
68.4542986744
 20
51.935108018
 30
0.0
 10
68.5201169105
 20
51.8971087013
 30
0.0
  0
SPLINE
  5
25E
100
AcDbEntity
  8
0
100
AcDbSpline
 62
7
  6
CONTINUOUS
 70
0
 71
3
 72
11
 73
7
 74
0
 42
0.0000001
 43
0.0000001
 44
0.0000000001
 40
0.0
 40
0.0
 40
0.0
 40
0.0
 40
0.2177651606
 40
0.4508956102
 40
0.7103690052
 40
1.0
 40
1.0
 40
1.0
 40
1.0
 10
49.836372768
 20
54.4343030576
 30
0.0
 10
49.7803129939
 20
54.4666981509
 30
0.0
 10
49.6753379678
 20
54.5548155736
 30
0.0
 10
49.563655052
 20
54.7375046413
 30
0.0
 10
49.4973537733
 20
54.9625809485
 30
0.0
 10
49.4842639094
 20
55.1263945562
 30
0.0
 10
49.4842639094
 20
55.2125087109
 30
0.0
  0
SPLINE
  5
25F
100
AcDbEntity
  8
0
100
AcDbSpline
 62
7
  6
CONTINUOUS
 70
0
 71
3
 72
13
 73
9
 74
0
 42
0.0000001
 43
0.0000001
 44
0.0000000001
 40
0.0
 40
0.0
 40
0.0
 40
0.0
 40
0.2893742652
 40
0.548309931
 40
0.667739479
 40
0.7817645732
 40
0.8919045752
 40
1.0
 40
1.0
 40
1.0
 40
1.0
 10
80.753122221
 20
42.6300081323
 30
0.0
 10
80.753122221
 20
42.8834125842
 30
0.0
 10
80.7149250938
 20
43.3650047687
 30
0.0
 10
80.5476295604
 20
43.9315557172
 30
0.0
 10
80.3445125105
 20
44.3133986609
 30
0.0
 10
80.1653698672
 20
44.5566200101
 30
0.0
 10
79.9571770585
 20
44.7616476768
 30
0.0
 10
79.7995264488
 20
44.8715899709
 30
0.0
 10
79.7175489384
 20
44.9189186423
 30
0.0
  0
SPLINE
  5
260
100
AcDbEntity
  8
0
100
AcDbSpline
 62
7
  6
CONTINUOUS
 70
0
 71
3
 72
17
 73
13
 74
0
 42
0.0000001
 43
0.0000001
 44
0.0000000001
 40
0.0
 40
0.0
 40
0.0
 40
0.0
 40
0.0428577105
 40
0.0874850346
 40
0.1353175376
 40
0.187280999
 40
0.3045421928
 40
0.4382102316
 40
0.5825530817
 40
0.7297120738
 40
0.8713109572
 40
1.0
 40
1.0
 40
1.0
 40
1.0
 10
49.8363700134
 20
34.8042491606
 30
0.0
 10
49.7944508485
 20
34.8284282075
 30
0.0
 10
49.7150148451
 20
34.8892513015
 30
0.0
 10
49.6193988756
 20
35.01012962
 30
0.0
 10
49.5479646769
 20
35.157992151
 30
0.0
 10
49.4837818141
 20
35.395708348
 30
0.0
 10
49.475733431
 20
35.7423167857
 30
0.0
 10
49.5654492096
 20
36.1821941723
 30
0.0
 10
49.7462158969
 20
36.6296075421
 30
0.0
 10
50.003565789
 20
37.0481812267
 30
0.0
 10
50.3162196213
 20
37.403894823
 30
0.0
 10
50.5604992637
 20
37.5918744182
 30
0.0
 10
50.6863404327
 20
37.6645284173
 30
0.0
  0
SPLINE
  5
261
100
AcDbEntity
  8
0
100
AcDbSpline
 62
7
  6
CONTINUOUS
 70
0
 71
3
 72
11
 73
7
 74
0
 42
0.0000001
 43
0.0000001
 44
0.0000000001
 40
0.0
 40
0.0
 40
0.0
 40
0.0
 40
0.2753056686
 40
0.5301582493
 40
0.7693579082
 40
1.0
 40
1.0
 40
1.0
 40
1.0
 10
65.4399972751
 20
53.2694809182
 30
0.0
 10
65.3971998479
 20
53.4573520525
 30
0.0
 10
65.2877642745
 20
53.8139791186
 30
0.0
 10
65.0380961144
 20
54.2948884481
 30
0.0
 10
64.7129194373
 20
54.6894084257
 30
0.0
 10
64.4473779155
 20
54.8896685224
 30
0.0
 10
64.3075713729
 20
54.970365458
 30
0.0
  0
SPLINE
  5
262
100
AcDbEntity
  8
0
100
AcDbSpline
 62
7
  6
CONTINUOUS
 70
0
 71
3
 72
17
 73
13
 74
0
 42
0.0000001
 43
0.0000001
 44
0.0000000001
 40
0.0
 40
0.0
 40
0.0
 40
0.0
 40
0.0428577105
 40
0.0874850346
 40
0.1353175376
 40
0.187280999
 40
0.3045421928
 40
0.4382102316
 40
0.5825530817
 40
0.7297120738
 40
0.8713109572
 40
1.0
 40
1.0
 40
1.0
 40
1.0
 10
66.8362992355
 20
64.2491537507
 30
0.0
 10
66.7943800706
 20
64.2733327976
 30
0.0
 10
66.7149440672
 20
64.3341558916
 30
0.0
 10
66.6193280977
 20
64.4550342101
 30
0.0
 10
66.547893899
 20
64.6028967411
 30
0.0
 10
66.4837110362
 20
64.8406129381
 30
0.0
 10
66.4756626531
 20
65.1872213758
 30
0.0
 10
66.5653784317
 20
65.6270987624
 30
0.0
 10
66.746145119
 20
66.0745121322
 30
0.0
 10
67.003495011
 20
66.4930858168
 30
0.0
 10
67.3161488434
 20
66.848799413
 30
0.0
 10
67.5604284858
 20
67.0367790083
 30
0.0
 10
67.6862696548
 20
67.1094330074
 30
0.0
  0
SPLINE
  5
263
100
AcDbEntity
  8
0
100
AcDbSpline
 62
7
  6
CONTINUOUS
 70
0
 71
3
 72
10
 73
6
 74
0
 42
0.0000001
 43
0.0000001
 44
0.0000000001
 40
0.0
 40
0.0
 40
0.0
 40
0.0
 40
0.2353754215
 40
0.4813522405
 40
1.0
 40
1.0
 40
1.0
 40
1.0
 10
60.600524494
 20
39.5679136715
 30
0.0
 10
60.9047055486
 20
39.743531637
 30
0.0
 10
61.5115806355
 20
40.1295812556
 30
0.0
 10
62.7068244469
 20
41.0245749543
 30
0.0
 10
63.5451209234
 20
41.8052434275
 30
0.0
 10
64.079015322
 20
42.3655590905
 30
0.0
  0
SPLINE
  5
264
100
AcDbEntity
  8
0
100
AcDbSpline
 62
7
  6
CONTINUOUS
 70
0
 71
3
 72
15
 73
11
 74
0
 42
0.0000001
 43
0.0000001
 44
0.0000000001
 40
0.0
 40
0.0
 40
0.0
 40
0.0
 40
0.1485726609
 40
0.289508411
 40
0.4227249482
 40
0.5486391185
 40
0.6680004377
 40
0.7819367551
 40
0.8919852383
 40
1.0
 40
1.0
 40
1.0
 40
1.0
 10
73.328381788
 20
59.1638096807
 30
0.0
 10
73.328381788
 20
59.6846320051
 30
0.0
 10
73.2863461536
 20
60.7002024661
 30
0.0
 10
73.0865029191
 20
62.1708819408
 30
0.0
 10
72.7525486874
 20
63.5359572967
 30
0.0
 10
72.287129069
 20
64.7820904135
 30
0.0
 10
71.6940063983
 20
65.89741758
 30
0.0
 10
70.9775398002
 20
66.8704399814
 30
0.0
 10
70.1444832749
 20
67.6902381676
 30
0.0
 10
69.5140495024
 20
68.1302038221
 30
0.0
 10
69.1861307676
 20
68.3195246598
 30
0.0
  0
SPLINE
  5
265
100
AcDbEntity
  8
0
100
AcDbSpline
 62
7
  6
CONTINUOUS
 70
0
 71
3
 72
11
 73
7
 74
0
 42
0.0000001
 43
0.0000001
 44
0.0000000001
 40
0.0
 40
0.0
 40
0.0
 40
0.0
 40
0.2896408744
 40
0.5491100035
 40
0.7822350384
 40
1.0
 40
1.0
 40
1.0
 40
1.0
 10
67.6862696548
 20
67.1094330074
 30
0.0
 10
67.7608465074
 20
67.1524897163
 30
0.0
 10
67.9092539598
 20
67.2230581884
 30
0.0
 10
68.1373186621
 20
67.2781751212
 30
0.0
 10
68.3513608897
 20
67.2727941492
 30
0.0
 10
68.4801566285
 20
67.2259530742
 30
0.0
 10
68.536240074
 20
67.1936040458
 30
0.0
  0
SPLINE
  5
266
100
AcDbEntity
  8
0
100
AcDbSpline
 62
7
  6
CONTINUOUS
 70
0
 71
3
 72
11
 73
7
 74
0
 42
0.0000001
 43
0.0000001
 44
0.0000000001
 40
0.0
 40
0.0
 40
0.0
 40
0.0
 40
0.2896408744
 40
0.5491100035
 40
0.7822350384
 40
1.0
 40
1.0
 40
1.0
 40
1.0
 10
50.6863404327
 20
37.6645284173
 30
0.0
 10
50.7609172853
 20
37.7075851263
 30
0.0
 10
50.9093247377
 20
37.7781535984
 30
0.0
 10
51.13738944
 20
37.8332705311
 30
0.0
 10
51.3514316676
 20
37.8278895592
 30
0.0
 10
51.4802274064
 20
37.7810484842
 30
0.0
 10
51.5363108519
 20
37.7486994558
 30
0.0
  0
SPLINE
  5
267
100
AcDbEntity
  8
0
100
AcDbSpline
 62
7
  6
CONTINUOUS
 70
0
 71
3
 72
17
 73
13
 74
0
 42
0.0000001
 43
0.0000001
 44
0.0000000001
 40
0.0
 40
0.0
 40
0.0
 40
0.0
 40
0.1286891333
 40
0.2702803493
 40
0.4174326844
 40
0.5617743804
 40
0.6954465661
 40
0.8127104963
 40
0.8646756522
 40
0.91250911
 40
0.9571392634
 40
1.0
 40
1.0
 40
1.0
 40
1.0
 10
49.4842639094
 20
55.2125087109
 30
0.0
 10
49.4842639094
 20
55.357815853
 30
0.0
 10
49.5249155377
 20
55.663346199
 30
0.0
 10
49.6766335314
 20
56.1119502058
 30
0.0
 10
49.9104308352
 20
56.5440949673
 30
0.0
 10
50.2075029727
 20
56.9243496264
 30
0.0
 10
50.5435803052
 20
57.2220001752
 30
0.0
 10
50.8477773047
 20
57.3883391656
 30
0.0
 10
51.0857355033
 20
57.451636876
 30
0.0
 10
51.249509444
 20
57.463697988
 30
0.0
 10
51.402010229
 20
57.4413492278
 30
0.0
 10
51.4944057693
 20
57.4029584599
 30
0.0
 10
51.5363080974
 20
57.3787444873
 30
0.0
  0
SPLINE
  5
268
100
AcDbEntity
  8
0
100
AcDbSpline
 62
7
  6
CONTINUOUS
 70
0
 71
3
 72
11
 73
7
 74
0
 42
0.0000001
 43
0.0000001
 44
0.0000000001
 40
0.0
 40
0.0
 40
0.0
 40
0.0
 40
0.2280181191
 40
0.4663046683
 40
0.7224276072
 40
1.0
 40
1.0
 40
1.0
 40
1.0
 10
30.9528834788
 20
81.5975750798
 30
0.0
 10
30.9629425567
 20
81.4755433007
 30
0.0
 10
31.020089807
 20
81.2277191934
 30
0.0
 10
31.2088853825
 20
80.8839398708
 30
0.0
 10
31.492635791
 20
80.577200591
 30
0.0
 10
31.7274552242
 20
80.4090802194
 30
0.0
 10
31.8565428452
 20
80.3345539531
 30
0.0
  0
SPLINE
  5
269
100
AcDbEntity
  8
0
100
AcDbSpline
 62
7
  6
CONTINUOUS
 70
0
 71
3
 72
25
 73
21
 74
0
 42
0.0000001
 43
0.0000001
 44
0.0000000001
 40
0.0
 40
0.0
 40
0.0
 40
0.0
 40
0.0623823621
 40
0.1287228928
 40
0.1983147978
 40
0.2702910253
 40
0.3436686466
 40
0.4174013453
 40
0.4904262898
 40
0.5617131433
 40
0.6303104322
 40
0.6953978868
 40
0.756345301
 40
0.8127824473
 40
0.8646829124
 40
0.9124577109
 40
0.9351021859
 40
0.9571075751
 40
0.9786678942
 40
1.0
 40
1.0
 40
1.0
 40
1.0
 10
37.6195761854
 20
47.1205714483
 30
0.0
 10
37.6195761854
 20
47.9502802813
 30
0.0
 10
37.731991628
 20
49.6634847927
 30
0.0
 10
38.1945080141
 20
52.264744924
 30
0.0
 10
38.9465320236
 20
54.930197696
 30
0.0
 10
39.9718853754
 20
57.6028395944
 30
0.0
 10
41.248827285
 20
60.2260326169
 30
0.0
 10
42.7500740278
 20
62.7438112756
 30
0.0
 10
44.4436222184
 20
65.1024521821
 30
0.0
 10
46.2933756901
 20
67.2516854505
 30
0.0
 10
48.2600897354
 20
69.145823214
 30
0.0
 10
50.3023927584
 20
70.7447158103
 30
0.0
 10
52.3778115054
 20
72.0144969873
 30
0.0
 10
54.4444239029
 20
72.9277848555
 30
0.0
 10
56.4603248436
 20
73.463605319
 30
0.0
 10
58.095346826
 20
73.5836859095
 30
0.0
 10
59.3216192671
 20
73.4685443138
 30
0.0
 10
60.185017621
 20
73.2844811342
 30
0.0
 10
61.0028026807
 20
73.0017115455
 30
0.0
 10
61.5157645074
 20
72.7479132262
 30
0.0
 10
61.7614788712
 20
72.6060529597
 30
0.0
  0
SPLINE
  5
26A
100
AcDbEntity
  8
0
100
AcDbSpline
 62
7
  6
CONTINUOUS
 70
0
 71
3
 72
9
 73
5
 74
0
 42
0.0000001
 43
0.0000001
 44
0.0000000001
 40
0.0
 40
0.0
 40
0.0
 40
0.0
 40
0.2486687046
 40
1.0
 40
1.0
 40
1.0
 40
1.0
 10
21.5772108364
 20
54.7320383482
 30
0.0
 10
21.5899045801
 20
54.7393670543
 30
0.0
 10
21.6401556334
 20
54.7702005358
 30
0.0
 10
21.6870473214
 20
54.8064741638
 30
0.0
 10
21.719876324
 20
54.8361983842
 30
0.0
  0
SPLINE
  5
26B
100
AcDbEntity
  8
0
100
AcDbSpline
 62
7
  6
CONTINUOUS
 70
0
 71
3
 72
11
 73
7
 74
0
 42
0.0000001
 43
0.0000001
 44
0.0000000001
 40
0.0
 40
0.0
 40
0.0
 40
0.0
 40
0.2073981135
 40
0.439468032
 40
0.7033217716
 40
1.0
 40
1.0
 40
1.0
 40
1.0
 10
21.719876324
 20
54.8361983842
 30
0.0
 10
21.7899541335
 20
54.8996486292
 30
0.0
 10
21.9163257838
 20
55.0594424714
 30
0.0
 10
22.0440736833
 20
55.3562434003
 30
0.0
 10
22.1193883447
 20
55.7114088338
 30
0.0
 10
22.1338959634
 20
55.9673763338
 30
0.0
 10
22.1338615233
 20
56.1026062197
 30
0.0
  0
SPLINE
  5
26C
100
AcDbEntity
  8
0
100
AcDbSpline
 62
7
  6
CONTINUOUS
 70
0
 71
3
 72
17
 73
13
 74
0
 42
0.0000001
 43
0.0000001
 44
0.0000000001
 40
0.0
 40
0.0
 40
0.0
 40
0.0
 40
0.0428577105
 40
0.0874850346
 40
0.1353175376
 40
0.187280999
 40
0.3045421928
 40
0.4382102316
 40
0.5825530817
 40
0.7297120738
 40
0.8713109572
 40
1.0
 40
1.0
 40
1.0
 40
1.0
 10
18.7591053046
 20
72.3764633562
 30
0.0
 10
18.7171861397
 20
72.400642403
 30
0.0
 10
18.6377501363
 20
72.461465497
 30
0.0
 10
18.5421341668
 20
72.5823438155
 30
0.0
 10
18.4706999681
 20
72.7302063465
 30
0.0
 10
18.4065171053
 20
72.9679225436
 30
0.0
 10
18.3984687222
 20
73.3145309812
 30
0.0
 10
18.4881845008
 20
73.7544083678
 30
0.0
 10
18.6689511881
 20
74.2018217376
 30
0.0
 10
18.9263010801
 20
74.6203954222
 30
0.0
 10
19.2389549125
 20
74.9761090185
 30
0.0
 10
19.4832345549
 20
75.1640886138
 30
0.0
 10
19.6090757239
 20
75.2367426129
 30
0.0
  0
SPLINE
  5
26D
100
AcDbEntity
  8
0
100
AcDbSpline
 62
7
  6
CONTINUOUS
 70
0
 71
3
 72
17
 73
13
 74
0
 42
0.0000001
 43
0.0000001
 44
0.0000000001
 40
0.0
 40
0.0
 40
0.0
 40
0.0
 40
0.0428577105
 40
0.0874850346
 40
0.1353175376
 40
0.187280999
 40
0.3045421928
 40
0.4382102316
 40
0.5825530817
 40
0.7297120738
 40
0.8713109572
 40
1.0
 40
1.0
 40
1.0
 40
1.0
 10
18.7591053046
 20
44.6634523478
 30
0.0
 10
18.7171861397
 20
44.6876313947
 30
0.0
 10
18.6377501363
 20
44.7484544887
 30
0.0
 10
18.5421341668
 20
44.8693328072
 30
0.0
 10
18.4706999681
 20
45.0171953382
 30
0.0
 10
18.4065171053
 20
45.2549115352
 30
0.0
 10
18.3984687222
 20
45.6015199729
 30
0.0
 10
18.4881845008
 20
46.0413973595
 30
0.0
 10
18.6689511881
 20
46.4888107293
 30
0.0
 10
18.9263010801
 20
46.9073844139
 30
0.0
 10
19.2389549125
 20
47.2630980101
 30
0.0
 10
19.4832345549
 20
47.4510776054
 30
0.0
 10
19.6090757239
 20
47.5237316045
 30
0.0
  0
SPLINE
  5
26E
100
AcDbEntity
  8
0
100
AcDbSpline
 62
7
  6
CONTINUOUS
 70
0
 71
3
 72
17
 73
13
 74
0
 42
0.0000001
 43
0.0000001
 44
0.0000000001
 40
0.0
 40
0.0
 40
0.0
 40
0.0
 40
0.0428577105
 40
0.0874850346
 40
0.1353175376
 40
0.187280999
 40
0.3045421928
 40
0.4382102316
 40
0.5825530817
 40
0.7297120738
 40
0.8713109572
 40
1.0
 40
1.0
 40
1.0
 40
1.0
 10
42.7590053829
 20
86.2327294161
 30
0.0
 10
42.7170862179
 20
86.256908463
 30
0.0
 10
42.6376502146
 20
86.317731557
 30
0.0
 10
42.5420342451
 20
86.4386098755
 30
0.0
 10
42.4706000464
 20
86.5864724065
 30
0.0
 10
42.4064171836
 20
86.8241886035
 30
0.0
 10
42.3983688005
 20
87.1707970412
 30
0.0
 10
42.4880845791
 20
87.6106744278
 30
0.0
 10
42.6688512664
 20
88.0580877976
 30
0.0
 10
42.9262011584
 20
88.4766614822
 30
0.0
 10
43.2388549908
 20
88.8323750785
 30
0.0
 10
43.4831346332
 20
89.0203546737
 30
0.0
 10
43.6089758021
 20
89.0930086728
 30
0.0
  0
SPLINE
  5
26F
100
AcDbEntity
  8
0
100
AcDbSpline
 62
7
  6
CONTINUOUS
 70
0
 71
3
 72
11
 73
7
 74
0
 42
0.0000001
 43
0.0000001
 44
0.0000000001
 40
0.0
 40
0.0
 40
0.0
 40
0.0
 40
0.2896408744
 40
0.5491100035
 40
0.7822350384
 40
1.0
 40
1.0
 40
1.0
 40
1.0
 10
43.6089758021
 20
89.0930086728
 30
0.0
 10
43.6835526548
 20
89.1360653817
 30
0.0
 10
43.8319601072
 20
89.2066338539
 30
0.0
 10
44.0600248095
 20
89.2617507866
 30
0.0
 10
44.274067037
 20
89.2563698147
 30
0.0
 10
44.4028627758
 20
89.2095287396
 30
0.0
 10
44.4589462213
 20
89.1771797112
 30
0.0
  0
SPLINE
  5
270
100
AcDbEntity
  8
0
100
AcDbSpline
 62
7
  6
CONTINUOUS
 70
0
 71
3
 72
11
 73
7
 74
0
 42
0.0000001
 43
0.0000001
 44
0.0000000001
 40
0.0
 40
0.0
 40
0.0
 40
0.0
 40
0.2896408744
 40
0.5491100035
 40
0.7822350384
 40
1.0
 40
1.0
 40
1.0
 40
1.0
 10
19.6090757239
 20
47.5237316045
 30
0.0
 10
19.6836525765
 20
47.5667883134
 30
0.0
 10
19.8320600289
 20
47.6373567856
 30
0.0
 10
20.0601247312
 20
47.6924737183
 30
0.0
 10
20.2741669588
 20
47.6870927464
 30
0.0
 10
20.4029626976
 20
47.6402516713
 30
0.0
 10
20.4590461431
 20
47.6079026429
 30
0.0
  0
SPLINE
  5
271
100
AcDbEntity
  8
0
100
AcDbSpline
 62
7
  6
CONTINUOUS
 70
0
 71
3
 72
11
 73
7
 74
0
 42
0.0000001
 43
0.0000001
 44
0.0000000001
 40
0.0
 40
0.0
 40
0.0
 40
0.0
 40
0.2896408744
 40
0.5491100035
 40
0.7822350384
 40
1.0
 40
1.0
 40
1.0
 40
1.0
 10
19.6090757239
 20
75.2367426129
 30
0.0
 10
19.6836525765
 20
75.2797993218
 30
0.0
 10
19.8320600289
 20
75.3503677939
 30
0.0
 10
20.0601247312
 20
75.4054847267
 30
0.0
 10
20.2741669588
 20
75.4001037547
 30
0.0
 10
20.4029626976
 20
75.3532626797
 30
0.0
 10
20.4590461431
 20
75.3209136513
 30
0.0
  0
SPLINE
  5
272
100
AcDbEntity
  8
0
100
AcDbSpline
 62
7
  6
CONTINUOUS
 70
0
 71
3
 72
15
 73
11
 74
0
 42
0.0000001
 43
0.0000001
 44
0.0000000001
 40
0.0
 40
0.0
 40
0.0
 40
0.0
 40
0.1080133841
 40
0.2180606944
 40
0.3319960729
 40
0.4513568397
 40
0.577270588
 40
0.7104877404
 40
0.8514260112
 40
1.0
 40
1.0
 40
1.0
 40
1.0
 10
41.7618269881
 20
37.9648560917
 30
0.0
 10
41.4339120696
 20
38.1541738711
 30
0.0
 10
40.8034851653
 20
38.5941337546
 30
0.0
 10
39.9704365072
 20
39.4139221249
 30
0.0
 10
39.2539705584
 20
40.3869332322
 30
0.0
 10
38.6608471232
 20
41.50225247
 30
0.0
 10
38.1954226576
 20
42.7483822413
 30
0.0
 10
37.8614592134
 20
44.1134653931
 30
0.0
 10
37.6616165163
 20
45.5841607824
 30
0.0
 10
37.6195761854
 20
46.5997444757
 30
0.0
 10
37.6195761854
 20
47.1205714483
 30
0.0
  0
SPLINE
  5
273
100
AcDbEntity
  8
0
100
AcDbSpline
 62
7
  6
CONTINUOUS
 70
0
 71
3
 72
15
 73
11
 74
0
 42
0.0000001
 43
0.0000001
 44
0.0000000001
 40
0.0
 40
0.0
 40
0.0
 40
0.0
 40
0.1080121478
 40
0.2180595446
 40
0.3319974209
 40
0.4513580406
 40
0.577265741
 40
0.7104900407
 40
0.8514457082
 40
1.0
 40
1.0
 40
1.0
 40
1.0
 10
54.1006567725
 20
38.9240893297
 30
0.0
 10
54.3137901463
 20
38.8010388801
 30
0.0
 10
54.7662850252
 20
38.5890829859
 30
0.0
 10
55.4985007932
 20
38.3866671396
 30
0.0
 10
56.2790431132
 20
38.2995876303
 30
0.0
 10
57.0996013037
 20
38.3281572277
 30
0.0
 10
57.9522953973
 20
38.4711636534
 30
0.0
 10
58.8292748125
 20
38.726797875
 30
0.0
 10
59.7220531434
 20
39.092324872
 30
0.0
 10
60.3073927836
 20
39.3986750098
 30
0.0
 10
60.600524494
 20
39.5679136715
 30
0.0
  0
SPLINE
  5
274
100
AcDbEntity
  8
0
100
AcDbSpline
 62
7
  6
CONTINUOUS
 70
0
 71
3
 72
11
 73
7
 74
0
 42
0.0000001
 43
0.0000001
 44
0.0000000001
 40
0.0
 40
0.0
 40
0.0
 40
0.0
 40
0.2775502874
 40
0.5336848999
 40
0.7719714697
 40
1.0
 40
1.0
 40
1.0
 40
1.0
 10
20.115322701
 20
59.9993964121
 30
0.0
 10
19.9862818533
 20
60.0738514919
 30
0.0
 10
19.7233719565
 20
60.1930508461
 30
0.0
 10
19.3160041317
 20
60.2852406496
 30
0.0
 10
18.9240485451
 20
60.2768110506
 30
0.0
 10
18.6809582291
 20
60.2024067454
 30
0.0
 10
18.5702880499
 20
60.1501238489
 30
0.0
  0
SPLINE
  5
275
100
AcDbEntity
  8
0
100
AcDbSpline
 62
7
  6
CONTINUOUS
 70
0
 71
3
 72
11
 73
7
 74
0
 42
0.0000001
 43
0.0000001
 44
0.0000000001
 40
0.0
 40
0.0
 40
0.0
 40
0.0
 40
0.2291078345
 40
0.4675450014
 40
0.7228287677
 40
1.0
 40
1.0
 40
1.0
 40
1.0
 10
58.3076970654
 20
44.5780432213
 30
0.0
 10
58.454411501
 20
44.4933590203
 30
0.0
 10
58.7774682197
 20
44.3585999403
 30
0.0
 10
59.3106415214
 20
44.2789421363
 30
0.0
 10
59.8830498193
 20
44.3185231731
 30
0.0
 10
60.266169949
 20
44.4182818094
 30
0.0
 10
60.4600764031
 20
44.4846140363
 30
0.0
  0
SPLINE
  5
276
100
AcDbEntity
  8
0
100
AcDbSpline
 62
7
  6
CONTINUOUS
 70
0
 71
3
 72
15
 73
11
 74
0
 42
0.0000001
 43
0.0000001
 44
0.0000000001
 40
0.0
 40
0.0
 40
0.0
 40
0.0
 40
0.1149775158
 40
0.2396361138
 40
0.3705153246
 40
0.503973762
 40
0.6364867486
 40
0.7649379621
 40
0.8867718629
 40
1.0
 40
1.0
 40
1.0
 40
1.0
 10
22.1338728155
 20
56.1026127392
 30
0.0
 10
22.1338283347
 20
56.2772677615
 30
0.0
 10
22.1069421134
 20
56.6415190425
 30
0.0
 10
21.9992393734
 20
57.1950188143
 30
0.0
 10
21.8251162181
 20
57.7608474251
 30
0.0
 10
21.5874873925
 20
58.3161304717
 30
0.0
 10
21.2917426807
 20
58.8387156857
 30
0.0
 10
20.9436063752
 20
59.30677747
 30
0.0
 10
20.55354581
 20
59.6999566371
 30
0.0
 10
20.2643007598
 20
59.9134377553
 30
0.0
 10
20.1153230995
 20
59.9993961821
 30
0.0
  0
SPLINE
  5
277
100
AcDbEntity
  8
0
100
AcDbSpline
 62
7
  6
CONTINUOUS
 70
0
 71
3
 72
13
 73
9
 74
0
 42
0.0000001
 43
0.0000001
 44
0.0000000001
 40
0.0
 40
0.0
 40
0.0
 40
0.0
 40
0.1080961762
 40
0.2182368155
 40
0.3322623314
 40
0.4516920354
 40
0.7106271874
 40
1.0
 40
1.0
 40
1.0
 40
1.0
 10
74.7176571316
 20
36.2586560837
 30
0.0
 10
74.7996319587
 20
36.2113289615
 30
0.0
 10
74.9736655889
 20
36.1297763398
 30
0.0
 10
75.2553123378
 20
36.0519958311
 30
0.0
 10
75.5555088423
 20
36.0184676894
 30
0.0
 10
75.9877358503
 20
36.0334855885
 30
0.0
 10
76.5620066417
 20
36.171872823
 30
0.0
 10
76.9981578251
 20
36.3795792826
 30
0.0
 10
77.217603035
 20
36.5062752773
 30
0.0
  0
SPLINE
  5
278
100
AcDbEntity
  8
0
100
AcDbSpline
 62
7
  6
CONTINUOUS
 70
0
 71
3
 72
15
 73
11
 74
0
 42
0.0000001
 43
0.0000001
 44
0.0000000001
 40
0.0
 40
0.0
 40
0.0
 40
0.0
 40
0.1141535103
 40
0.2373235842
 40
0.3669718651
 40
0.4999914808
 40
0.6330170321
 40
0.7626617361
 40
0.8858535038
 40
1.0
 40
1.0
 40
1.0
 40
1.0
 10
77.571212883
 20
36.7104497033
 30
0.0
 10
77.7890370342
 20
36.8362163378
 30
0.0
 10
78.2192804576
 20
37.13782041
 30
0.0
 10
78.8112710466
 20
37.6916883424
 30
0.0
 10
79.3568123784
 20
38.3463956892
 30
0.0
 10
79.83539463
 20
39.0773762971
 30
0.0
 10
80.2291292762
 20
39.8573299118
 30
0.0
 10
80.52341168
 20
40.6571728762
 30
0.0
 10
80.7070269793
 20
41.4468236782
 30
0.0
 10
80.753125165
 20
41.9702565671
 30
0.0
 10
80.753125165
 20
42.2217656781
 30
0.0
  0
SPLINE
  5
279
100
AcDbEntity
  8
0
100
AcDbSpline
 62
7
  6
CONTINUOUS
 70
0
 71
3
 72
15
 73
11
 74
0
 42
0.0000001
 43
0.0000001
 44
0.0000000001
 40
0.0
 40
0.0
 40
0.0
 40
0.0
 40
0.1144691382
 40
0.2376941099
 40
0.367190296
 40
0.4999576377
 40
0.6327371624
 40
0.7622307513
 40
0.8855228385
 40
1.0
 40
1.0
 40
1.0
 40
1.0
 10
75.6974885615
 20
39.3297090008
 30
0.0
 10
75.6990594632
 20
39.4761669406
 30
0.0
 10
75.7283129256
 20
39.7802860556
 30
0.0
 10
75.8373232937
 20
40.2385078112
 30
0.0
 10
76.0092230219
 20
40.7020531301
 30
0.0
 10
76.2378319607
 20
41.1540349508
 30
0.0
 10
76.5148928658
 20
41.5780382887
 30
0.0
 10
76.8303233568
 20
41.9588631389
 30
0.0
 10
77.1727217579
 20
42.2824408964
 30
0.0
 10
77.421492782
 20
42.4599624758
 30
0.0
 10
77.547535263
 20
42.534586173
 30
0.0
  0
SPLINE
  5
27A
100
AcDbEntity
  8
0
100
AcDbSpline
 62
7
  6
CONTINUOUS
 70
0
 71
3
 72
11
 73
7
 74
0
 42
0.0000001
 43
0.0000001
 44
0.0000000001
 40
0.0
 40
0.0
 40
0.0
 40
0.0
 40
0.296847033
 40
0.5607112764
 40
0.7926807234
 40
1.0
 40
1.0
 40
1.0
 40
1.0
 10
36.2406048827
 20
80.5355683251
 30
0.0
 10
36.3580921714
 20
80.6033998326
 30
0.0
 10
36.5730877499
 20
80.744463324
 30
0.0
 10
36.8434849798
 20
80.9882539163
 30
0.0
 10
37.036527372
 20
81.2483848956
 30
0.0
 10
37.1111139873
 20
81.4384983338
 30
0.0
 10
37.130595631
 20
81.5312212795
 30
0.0
  0
SPLINE
  5
27B
100
AcDbEntity
  8
0
100
AcDbSpline
 62
7
  6
CONTINUOUS
 70
0
 71
3
 72
15
 73
11
 74
0
 42
0.0000001
 43
0.0000001
 44
0.0000000001
 40
0.0
 40
0.0
 40
0.0
 40
0.0
 40
0.1132449638
 40
0.2350920764
 40
0.3635538605
 40
0.4960724886
 40
0.6295297895
 40
0.7604014065
 40
0.8850426992
 40
1.0
 40
1.0
 40
1.0
 40
1.0
 10
31.856542839
 20
80.3345539568
 30
0.0
 10
32.005523171
 20
80.2485430141
 30
0.0
 10
32.335097857
 20
80.1048230846
 30
0.0
 10
32.8707501813
 20
79.9637795259
 30
0.0
 10
33.4502318119
 20
79.8963864468
 30
0.0
 10
34.0507101699
 20
79.9016820102
 30
0.0
 10
34.6504078886
 20
79.9736218207
 30
0.0
 10
35.2274389377
 20
80.1058403931
 30
0.0
 10
35.7605525509
 20
80.2893739671
 30
0.0
 10
36.0893732489
 20
80.4482546672
 30
0.0
 10
36.2406048827
 20
80.5355685359
 30
0.0
  0
SPLINE
  5
27C
100
AcDbEntity
  8
0
100
AcDbSpline
 62
7
  6
CONTINUOUS
 70
0
 71
3
 72
10
 73
6
 74
0
 42
0.0000001
 43
0.0000001
 44
0.0000000001
 40
0.0
 40
0.0
 40
0.0
 40
0.0
 40
0.2285794344
 40
0.4751143651
 40
1.0
 40
1.0
 40
1.0
 40
1.0
 10
79.1267627877
 20
45.7734973835
 30
0.0
 10
79.1976807806
 20
45.7325537875
 30
0.0
 10
79.337902834
 20
45.634634208
 30
0.0
 10
79.6011326613
 20
45.3906276978
 30
0.0
 10
79.7679508438
 20
45.1661755266
 30
0.0
 10
79.8636100457
 20
45.0042852468
 30
0.0
  0
SPLINE
  5
27D
100
AcDbEntity
  8
0
100
AcDbSpline
 62
7
  6
CONTINUOUS
 70
0
 71
3
 72
9
 73
5
 74
0
 42
0.0000001
 43
0.0000001
 44
0.0000000001
 40
0.0
 40
0.0
 40
0.0
 40
0.0
 40
0.252122149
 40
1.0
 40
1.0
 40
1.0
 40
1.0
 10
79.8636100457
 20
45.0042852468
 30
0.0
 10
79.8825389911
 20
44.9722505631
 30
0.0
 10
79.9548519004
 20
44.8435822924
 30
0.0
 10
80.0162521119
 20
44.7087347302
 30
0.0
 10
80.0550171167
 20
44.6053911911
 30
0.0
  0
SPLINE
  5
27E
100
AcDbEntity
  8
0
100
AcDbSpline
 62
7
  6
CONTINUOUS
 70
0
 71
3
 72
15
 73
11
 74
0
 42
0.0000001
 43
0.0000001
 44
0.0000000001
 40
0.0
 40
0.0
 40
0.0
 40
0.0
 40
0.1485726609
 40
0.289508411
 40
0.4227249482
 40
0.5486391185
 40
0.6680004377
 40
0.7819367551
 40
0.8919852383
 40
1.0
 40
1.0
 40
1.0
 40
1.0
 10
45.0442282994
 20
42.8340435258
 30
0.0
 10
45.0442282994
 20
42.3132212014
 30
0.0
 10
45.0862639338
 20
41.2976507404
 30
0.0
 10
45.2861071683
 20
39.8269712656
 30
0.0
 10
45.6200614001
 20
38.4618959098
 30
0.0
 10
46.0854810185
 20
37.2157627929
 30
0.0
 10
46.6786036891
 20
36.1004356264
 30
0.0
 10
47.3950702872
 20
35.1274132251
 30
0.0
 10
48.2281268125
 20
34.3076150389
 30
0.0
 10
48.858560585
 20
33.8676493844
 30
0.0
 10
49.1864793198
 20
33.6783285467
 30
0.0
  0
SPLINE
  5
27F
100
AcDbEntity
  8
0
100
AcDbSpline
 62
7
  6
CONTINUOUS
 70
0
 71
3
 72
17
 73
13
 74
0
 42
0.0000001
 43
0.0000001
 44
0.0000000001
 40
0.0
 40
0.0
 40
0.0
 40
0.0
 40
0.0428577105
 40
0.0874850346
 40
0.1353175376
 40
0.187280999
 40
0.3045421928
 40
0.4382102316
 40
0.5825530817
 40
0.7297120738
 40
0.8713109572
 40
1.0
 40
1.0
 40
1.0
 40
1.0
 10
68.536240074
 20
67.1936040458
 30
0.0
 10
68.578159239
 20
67.169424999
 30
0.0
 10
68.6575952423
 20
67.108601905
 30
0.0
 10
68.7532112118
 20
66.9877235865
 30
0.0
 10
68.8246454105
 20
66.8398610555
 30
0.0
 10
68.8888282733
 20
66.6021448584
 30
0.0
 10
68.8968766564
 20
66.2555364207
 30
0.0
 10
68.8071608778
 20
65.8156590342
 30
0.0
 10
68.6263941905
 20
65.3682456644
 30
0.0
 10
68.3690442985
 20
64.9496719798
 30
0.0
 10
68.0563904661
 20
64.5939583835
 30
0.0
 10
67.8121108237
 20
64.4059787882
 30
0.0
 10
67.6862696548
 20
64.3333247891
 30
0.0
  0
SPLINE
  5
280
100
AcDbEntity
  8
0
100
AcDbSpline
 62
7
  6
CONTINUOUS
 70
0
 71
3
 72
15
 73
11
 74
0
 42
0.0000001
 43
0.0000001
 44
0.0000000001
 40
0.0
 40
0.0
 40
0.0
 40
0.0
 40
0.1485536509
 40
0.2895069192
 40
0.4227301407
 40
0.5486380795
 40
0.6679993173
 40
0.7819378226
 40
0.8919863572
 40
1.0
 40
1.0
 40
1.0
 40
1.0
 10
59.1863050437
 20
61.6134580259
 30
0.0
 10
59.4794355185
 20
61.7826959742
 30
0.0
 10
60.0647677476
 20
62.08904564
 30
0.0
 10
60.9575383498
 20
62.4545667358
 30
0.0
 10
61.8345094113
 20
62.7102035698
 30
0.0
 10
62.6872028038
 20
62.8532103256
 30
0.0
 10
63.5077643379
 20
62.8817889175
 30
0.0
 10
64.2883119243
 20
62.7947066577
 30
0.0
 10
65.020536577
 20
62.5922946068
 30
0.0
 10
65.4730361463
 20
62.3803339783
 30
0.0
 10
65.6861726931
 20
62.2572821635
 30
0.0
  0
SPLINE
  5
281
100
AcDbEntity
  8
0
100
AcDbSpline
 62
7
  6
CONTINUOUS
 70
0
 71
3
 72
11
 73
7
 74
0
 42
0.0000001
 43
0.0000001
 44
0.0000000001
 40
0.0
 40
0.0
 40
0.0
 40
0.0
 40
0.2896408744
 40
0.5491100035
 40
0.7822350384
 40
1.0
 40
1.0
 40
1.0
 40
1.0
 10
67.6862696548
 20
64.3333247891
 30
0.0
 10
67.6116928021
 20
64.2902680802
 30
0.0
 10
67.4632853497
 20
64.2196996081
 30
0.0
 10
67.2352206474
 20
64.1645826753
 30
0.0
 10
67.0211784198
 20
64.1699636473
 30
0.0
 10
66.8923826811
 20
64.2168047223
 30
0.0
 10
66.8362992355
 20
64.2491537507
 30
0.0
  0
SPLINE
  5
282
100
AcDbEntity
  8
0
100
AcDbSpline
 62
7
  6
CONTINUOUS
 70
0
 71
3
 72
11
 73
7
 74
0
 42
0.0000001
 43
0.0000001
 44
0.0000000001
 40
0.0
 40
0.0
 40
0.0
 40
0.0
 40
0.2896408744
 40
0.5491100035
 40
0.7822350384
 40
1.0
 40
1.0
 40
1.0
 40
1.0
 10
50.6863404327
 20
34.8884201991
 30
0.0
 10
50.61176358
 20
34.8453634902
 30
0.0
 10
50.4633561276
 20
34.774795018
 30
0.0
 10
50.2352914253
 20
34.7196780853
 30
0.0
 10
50.0212491977
 20
34.7250590572
 30
0.0
 10
49.892453459
 20
34.7719001323
 30
0.0
 10
49.8363700134
 20
34.8042491606
 30
0.0
  0
SPLINE
  5
283
100
AcDbEntity
  8
0
100
AcDbSpline
 62
7
  6
CONTINUOUS
 70
0
 71
3
 72
11
 73
7
 74
0
 42
0.0000001
 43
0.0000001
 44
0.0000000001
 40
0.0
 40
0.0
 40
0.0
 40
0.0
 40
0.2414549185
 40
0.500070368
 40
0.7587008823
 40
1.0
 40
1.0
 40
1.0
 40
1.0
 10
75.8905862053
 20
40.2436998412
 30
0.0
 10
76.0180712945
 20
40.3380661083
 30
0.0
 10
76.2576852129
 20
40.5672816564
 30
0.0
 10
76.5461984459
 20
40.9768799671
 30
0.0
 10
76.7564552133
 20
41.4315124571
 30
0.0
 10
76.8351064614
 20
41.7535494718
 30
0.0
 10
76.8530206278
 20
41.9110425427
 30
0.0
  0
SPLINE
  5
284
100
AcDbEntity
  8
0
100
AcDbSpline
 62
7
  6
CONTINUOUS
 70
0
 71
3
 72
17
 73
13
 74
0
 42
0.0000001
 43
0.0000001
 44
0.0000000001
 40
0.0
 40
0.0
 40
0.0
 40
0.0
 40
0.1286891333
 40
0.2702803493
 40
0.4174326844
 40
0.5617743804
 40
0.6954465661
 40
0.8127104963
 40
0.8646756522
 40
0.91250911
 40
0.9571392634
 40
1.0
 40
1.0
 40
1.0
 40
1.0
 10
51.8884169559
 20
56.600538834
 30
0.0
 10
51.8884169559
 20
56.455231692
 30
0.0
 10
51.8477653276
 20
56.1497013459
 30
0.0
 10
51.696047334
 20
55.7010973392
 30
0.0
 10
51.4622500301
 20
55.2689525777
 30
0.0
 10
51.1651778926
 20
54.8886979185
 30
0.0
 10
50.8291005602
 20
54.5910473697
 30
0.0
 10
50.5249035607
 20
54.4247083793
 30
0.0
 10
50.286945362
 20
54.361410669
 30
0.0
 10
50.1231714213
 20
54.3493495569
 30
0.0
 10
49.9706706364
 20
54.3716983171
 30
0.0
 10
49.878275096
 20
54.4100890851
 30
0.0
 10
49.836372768
 20
54.4343030576
 30
0.0
  0
SPLINE
  5
285
100
AcDbEntity
  8
0
100
AcDbSpline
 62
7
  6
CONTINUOUS
 70
0
 71
3
 72
13
 73
9
 74
0
 42
0.0000001
 43
0.0000001
 44
0.0000000001
 40
0.0
 40
0.0
 40
0.0
 40
0.0
 40
0.1015615139
 40
0.206061489
 40
0.3162769854
 40
0.4344177472
 40
0.6977839257
 40
1.0
 40
1.0
 40
1.0
 40
1.0
 10
37.1485458217
 20
81.7025094446
 30
0.0
 10
37.1485454861
 20
81.7547022988
 30
0.0
 10
37.1382925205
 20
81.8608657074
 30
0.0
 10
37.0924541221
 20
82.0176734773
 30
0.0
 10
37.0170576825
 20
82.1720317811
 30
0.0
 10
36.8736011622
 20
82.3809673614
 30
0.0
 10
36.6194803547
 20
82.6285223328
 30
0.0
 10
36.3750692337
 20
82.7880265216
 30
0.0
 10
36.2405657915
 20
82.8656797413
 30
0.0
  0
SPLINE
  5
286
100
AcDbEntity
  8
0
100
AcDbSpline
 62
7
  6
CONTINUOUS
 70
0
 71
3
 72
11
 73
7
 74
0
 42
0.0000001
 43
0.0000001
 44
0.0000000001
 40
0.0
 40
0.0
 40
0.0
 40
0.0
 40
0.2187381457
 40
0.4548480689
 40
0.7146026158
 40
1.0
 40
1.0
 40
1.0
 40
1.0
 10
37.1292045304
 20
81.7965982093
 30
0.0
 10
37.109336128
 20
81.8987749472
 30
0.0
 10
37.0362329896
 20
82.1058880274
 30
0.0
 10
36.8440988069
 20
82.3899535264
 30
0.0
 10
36.574387696
 20
82.6490578529
 30
0.0
 10
36.3581829852
 20
82.7946417992
 30
0.0
 10
36.2405657905
 20
82.8625459365
 30
0.0
  0
SPLINE
  5
287
100
AcDbEntity
  8
0
100
AcDbSpline
 62
7
  6
CONTINUOUS
 70
0
 71
3
 72
9
 73
5
 74
0
 42
0.0000001
 43
0.0000001
 44
0.0000000001
 40
0.0
 40
0.0
 40
0.0
 40
0.0
 40
0.2778154748
 40
1.0
 40
1.0
 40
1.0
 40
1.0
 10
76.2983603923
 20
39.8130964764
 30
0.0
 10
76.253035022
 20
39.7869280179
 30
0.0
 10
76.0857256153
 20
39.701460346
 30
0.0
 10
75.8943866283
 20
39.6529999418
 30
0.0
 10
75.7585024046
 20
39.6597349118
 30
0.0
  0
SPLINE
  5
288
100
AcDbEntity
  8
0
100
AcDbSpline
 62
7
  6
CONTINUOUS
 70
0
 71
3
 72
11
 73
7
 74
0
 42
0.0000001
 43
0.0000001
 44
0.0000000001
 40
0.0
 40
0.0
 40
0.0
 40
0.0
 40
0.228264621
 40
0.4662177135
 40
0.7218251523
 40
1.0
 40
1.0
 40
1.0
 40
1.0
 10
18.4772357216
 20
60.1013906256
 30
0.0
 10
18.3643812176
 20
60.0362343422
 30
0.0
 10
18.1534513216
 20
59.8660242712
 30
0.0
 10
17.9203608931
 20
59.519700051
 30
0.0
 10
17.7787207342
 20
59.0977759196
 30
0.0
 10
17.7497926144
 20
58.7917669398
 30
0.0
 10
17.7497926144
 20
58.6329608957
 30
0.0
  0
SPLINE
  5
289
100
AcDbEntity
  8
0
100
AcDbSpline
 62
7
  6
CONTINUOUS
 70
0
 71
3
 72
11
 73
7
 74
0
 42
0.0000001
 43
0.0000001
 44
0.0000000001
 40
0.0
 40
0.0
 40
0.0
 40
0.0
 40
0.2187421471
 40
0.454855769
 40
0.7146095271
 40
1.0
 40
1.0
 40
1.0
 40
1.0
 10
18.4052582488
 20
60.0374558006
 30
0.0
 10
18.326726146
 20
59.9691539248
 30
0.0
 10
18.1839545189
 20
59.8022869048
 30
0.0
 10
18.0340566797
 20
59.4938874209
 30
0.0
 10
17.9445440754
 20
59.1308056614
 30
0.0
 10
17.9265685737
 20
58.8708126553
 30
0.0
 10
17.9265685737
 20
58.7350219342
 30
0.0
  0
SPLINE
  5
28A
100
AcDbEntity
  8
0
100
AcDbSpline
 62
7
  6
CONTINUOUS
 70
0
 71
3
 72
17
 73
13
 74
0
 42
0.0000001
 43
0.0000001
 44
0.0000000001
 40
0.0
 40
0.0
 40
0.0
 40
0.0
 40
0.0428577105
 40
0.0874850346
 40
0.1353175376
 40
0.187280999
 40
0.3045421928
 40
0.4382102316
 40
0.5825530817
 40
0.7297120738
 40
0.8713109572
 40
1.0
 40
1.0
 40
1.0
 40
1.0
 10
20.4590461431
 20
75.3209136513
 30
0.0
 10
20.5009653081
 20
75.2967346044
 30
0.0
 10
20.5804013114
 20
75.2359115104
 30
0.0
 10
20.6760172809
 20
75.1150331919
 30
0.0
 10
20.7474514796
 20
74.9671706609
 30
0.0
 10
20.8116343424
 20
74.7294544639
 30
0.0
 10
20.8196827255
 20
74.3828460262
 30
0.0
 10
20.7299669469
 20
73.9429686396
 30
0.0
 10
20.5492002596
 20
73.4955552698
 30
0.0
 10
20.2918503676
 20
73.0769815852
 30
0.0
 10
19.9791965352
 20
72.721267989
 30
0.0
 10
19.7349168928
 20
72.5332883937
 30
0.0
 10
19.6090757239
 20
72.4606343946
 30
0.0
  0
SPLINE
  5
28B
100
AcDbEntity
  8
0
100
AcDbSpline
 62
7
  6
CONTINUOUS
 70
0
 71
3
 72
9
 73
5
 74
0
 42
0.0000001
 43
0.0000001
 44
0.0000000001
 40
0.0
 40
0.0
 40
0.0
 40
0.0
 40
0.2555772426
 40
1.0
 40
1.0
 40
1.0
 40
1.0
 10
80.753125165
 20
42.2217656781
 30
0.0
 10
80.753125165
 20
42.2574468896
 30
0.0
 10
80.7513484778
 20
42.3970480833
 30
0.0
 10
80.7423528966
 20
42.5365842844
 30
0.0
 10
80.7311233902
 20
42.6399049035
 30
0.0
  0
SPLINE
  5
28C
100
AcDbEntity
  8
0
100
AcDbSpline
 62
7
  6
CONTINUOUS
 70
0
 71
3
 72
15
 73
11
 74
0
 42
0.0000001
 43
0.0000001
 44
0.0000000001
 40
0.0
 40
0.0
 40
0.0
 40
0.0
 40
0.1383236395
 40
0.2629435853
 40
0.3772189276
 40
0.486787273
 40
0.5986527637
 40
0.7191148311
 40
0.8523848663
 40
1.0
 40
1.0
 40
1.0
 40
1.0
 10
80.7311233902
 20
42.6399049035
 30
0.0
 10
80.7096727618
 20
42.8372681821
 30
0.0
 10
80.6373861431
 20
43.2104935807
 30
0.0
 10
80.419992679
 20
43.7119064472
 30
0.0
 10
80.1021852315
 20
44.1073275894
 30
0.0
 10
79.69243493
 20
44.3763563552
 30
0.0
 10
79.2107361694
 20
44.5044073522
 30
0.0
 10
78.6802642552
 20
44.4906140392
 30
0.0
 10
78.1197531786
 20
44.3410350492
 30
0.0
 10
77.7546351213
 20
44.164857855
 30
0.0
 10
77.5711578975
 20
44.0589278628
 30
0.0
  0
SPLINE
  5
28D
100
AcDbEntity
  8
0
100
AcDbSpline
 62
7
  6
CONTINUOUS
 70
0
 71
3
 72
15
 73
11
 74
0
 42
0.0000001
 43
0.0000001
 44
0.0000000001
 40
0.0
 40
0.0
 40
0.0
 40
0.0
 40
0.1476239065
 40
0.2809017187
 40
0.4013728581
 40
0.5132451227
 40
0.6228173632
 40
0.7370984382
 40
0.8617472399
 40
1.0
 40
1.0
 40
1.0
 40
1.0
 10
74.3891906301
 20
38.5475682933
 30
0.0
 10
74.3891906301
 20
38.3357000532
 30
0.0
 10
74.4191719655
 20
37.9313957398
 30
0.0
 10
74.5698935042
 20
37.371167609
 30
0.0
 10
74.8231889495
 20
36.9048473017
 30
0.0
 10
75.1749512115
 20
36.5517009187
 30
0.0
 10
75.6128238157
 20
36.3313664606
 30
0.0
 10
76.114220144
 20
36.2538261887
 30
0.0
 10
76.6570714021
 20
36.3163739844
 30
0.0
 10
77.0163944063
 20
36.4402703734
 30
0.0
 10
77.1979447391
 20
36.5203298842
 30
0.0
  0
SPLINE
  5
28E
100
AcDbEntity
  8
0
100
AcDbSpline
 62
7
  6
CONTINUOUS
 70
0
 71
3
 72
9
 73
5
 74
0
 42
0.0000001
 43
0.0000001
 44
0.0000000001
 40
0.0
 40
0.0
 40
0.0
 40
0.0
 40
0.2442255171
 40
1.0
 40
1.0
 40
1.0
 40
1.0
 10
77.1979447391
 20
36.5203298842
 30
0.0
 10
77.2291560431
 20
36.5340933497
 30
0.0
 10
77.3561326082
 20
36.5922995004
 30
0.0
 10
77.4797963705
 20
36.6576679201
 30
0.0
 10
77.571212883
 20
36.7104497033
 30
0.0
  0
SPLINE
  5
28F
100
AcDbEntity
  8
0
100
AcDbSpline
 62
7
  6
CONTINUOUS
 70
0
 71
3
 72
17
 73
13
 74
0
 42
0.0000001
 43
0.0000001
 44
0.0000000001
 40
0.0
 40
0.0
 40
0.0
 40
0.0
 40
0.0428577105
 40
0.0874850346
 40
0.1353175376
 40
0.187280999
 40
0.3045421928
 40
0.4382102316
 40
0.5825530817
 40
0.7297120738
 40
0.8713109572
 40
1.0
 40
1.0
 40
1.0
 40
1.0
 10
20.4590461431
 20
47.6079026429
 30
0.0
 10
20.5009653081
 20
47.5837235961
 30
0.0
 10
20.5804013114
 20
47.5229005021
 30
0.0
 10
20.6760172809
 20
47.4020221836
 30
0.0
 10
20.7474514796
 20
47.2541596526
 30
0.0
 10
20.8116343424
 20
47.0164434555
 30
0.0
 10
20.8196827255
 20
46.6698350179
 30
0.0
 10
20.7299669469
 20
46.2299576313
 30
0.0
 10
20.5492002596
 20
45.7825442615
 30
0.0
 10
20.2918503676
 20
45.3639705769
 30
0.0
 10
19.9791965352
 20
45.0082569806
 30
0.0
 10
19.7349168928
 20
44.8202773853
 30
0.0
 10
19.6090757239
 20
44.7476233862
 30
0.0
  0
SPLINE
  5
290
100
AcDbEntity
  8
0
100
AcDbSpline
 62
7
  6
CONTINUOUS
 70
0
 71
3
 72
15
 73
11
 74
0
 42
0.0000001
 43
0.0000001
 44
0.0000000001
 40
0.0
 40
0.0
 40
0.0
 40
0.0
 40
0.1141462769
 40
0.2373347432
 40
0.3669750849
 40
0.4999983967
 40
0.6330219315
 40
0.7626629244
 40
0.8858524171
 40
1.0
 40
1.0
 40
1.0
 40
1.0
 10
77.5711578975
 20
44.0589278628
 30
0.0
 10
77.353342411
 20
43.9331727836
 30
0.0
 10
76.9230885172
 20
43.6315331552
 30
0.0
 10
76.3310471205
 20
43.0776958601
 30
0.0
 10
75.7855171407
 20
42.4229249314
 30
0.0
 10
75.3069171849
 20
41.6919634956
 30
0.0
 10
74.913189172
 20
40.911999853
 30
0.0
 10
74.6189077862
 20
40.1121664469
 30
0.0
 10
74.435291833
 20
39.3225180883
 30
0.0
 10
74.3891906301
 20
38.7990824551
 30
0.0
 10
74.3891906301
 20
38.5475682933
 30
0.0
  0
SPLINE
  5
291
100
AcDbEntity
  8
0
100
AcDbSpline
 62
7
  6
CONTINUOUS
 70
0
 71
3
 72
23
 73
19
 74
0
 42
0.0000001
 43
0.0000001
 44
0.0000000001
 40
0.0
 40
0.0
 40
0.0
 40
0.0
 40
0.0596871448
 40
0.1131102238
 40
0.1612666918
 40
0.2065071661
 40
0.2520293798
 40
0.3009540952
 40
0.3553777085
 40
0.4161407545
 40
0.4830355349
 40
0.5550922527
 40
0.6308298029
 40
0.7084592517
 40
0.7860390398
 40
0.8616094131
 40
0.9334476544
 40
1.0
 40
1.0
 40
1.0
 40
1.0
 10
77.612285467
 20
42.5716168988
 30
0.0
 10
77.727718043
 20
42.6353089195
 30
0.0
 10
77.957015461
 20
42.738752191
 30
0.0
 10
78.3083411572
 20
42.8147014917
 30
0.0
 10
78.6369413086
 20
42.7969480246
 30
0.0
 10
78.9276977827
 20
42.6814479831
 30
0.0
 10
79.1626214471
 20
42.4724462935
 30
0.0
 10
79.3304747826
 20
42.184470673
 30
0.0
 10
79.4285679075
 20
41.8322830352
 30
0.0
 10
79.4563313882
 20
41.4288500064
 30
0.0
 10
79.4140149243
 20
40.9880922885
 30
0.0
 10
79.3035776971
 20
40.5255572744
 30
0.0
 10
79.1291814998
 20
40.0579524925
 30
0.0
 10
78.8972152592
 20
39.6024173206
 30
0.0
 10
78.616211768
 20
39.1758425614
 30
0.0
 10
78.2965595406
 20
38.7937723261
 30
0.0
 10
77.9500337178
 20
38.4706207569
 30
0.0
 10
77.6984658792
 20
38.294436439
 30
0.0
 10
77.5711578975
 20
38.2209355803
 30
0.0
  0
SPLINE
  5
292
100
AcDbEntity
  8
0
100
AcDbSpline
 62
7
  6
CONTINUOUS
 70
0
 71
3
 72
15
 73
11
 74
0
 42
0.0000001
 43
0.0000001
 44
0.0000000001
 40
0.0
 40
0.0
 40
0.0
 40
0.0
 40
0.1080133782
 40
0.2180606857
 40
0.331996069
 40
0.4513568421
 40
0.5772705949
 40
0.7104877478
 40
0.8514260138
 40
1.0
 40
1.0
 40
1.0
 40
1.0
 10
21.6341993866
 20
49.6430190921
 30
0.0
 10
21.3071042705
 20
49.8318635619
 30
0.0
 10
20.6782534446
 20
50.2707235112
 30
0.0
 10
19.8472874419
 20
51.0884624246
 30
0.0
 10
19.1326126116
 20
52.0590410044
 30
0.0
 10
18.5409719648
 20
53.1715719977
 30
0.0
 10
18.0767110452
 20
54.4145864813
 30
0.0
 10
17.7435825245
 20
55.7762569299
 30
0.0
 10
17.5442394303
 20
57.2432755555
 30
0.0
 10
17.5023042106
 20
58.256320264
 30
0.0
 10
17.5023042106
 20
58.7758451598
 30
0.0
  0
SPLINE
  5
293
100
AcDbEntity
  8
0
100
AcDbSpline
 62
7
  6
CONTINUOUS
 70
0
 71
3
 72
15
 73
11
 74
0
 42
0.0000001
 43
0.0000001
 44
0.0000000001
 40
0.0
 40
0.0
 40
0.0
 40
0.0
 40
0.1445419757
 40
0.2738369609
 40
0.3899872323
 40
0.4985805151
 40
0.6074272864
 40
0.7242923126
 40
0.8544430184
 40
1.0
 40
1.0
 40
1.0
 40
1.0
 10
77.5711578975
 20
38.2209355803
 30
0.0
 10
77.454011319
 20
38.1533013754
 30
0.0
 10
77.2209659581
 20
38.042614475
 30
0.0
 10
76.8628234324
 20
37.9570278421
 30
0.0
 10
76.5267784672
 20
37.9675419385
 30
0.0
 10
76.2284314533
 20
38.0788684236
 30
0.0
 10
75.9868392893
 20
38.2872896895
 30
0.0
 10
75.8143274944
 20
38.5777254202
 30
0.0
 10
75.7137845182
 20
38.9343816009
 30
0.0
 10
75.6960275674
 20
39.1934979312
 30
0.0
 10
75.6974885615
 20
39.3297090008
 30
0.0
  0
SPLINE
  5
294
100
AcDbEntity
  8
0
100
AcDbSpline
 62
7
  6
CONTINUOUS
 70
0
 71
3
 72
25
 73
21
 74
0
 42
0.0000001
 43
0.0000001
 44
0.0000000001
 40
0.0
 40
0.0
 40
0.0
 40
0.0
 40
0.0213324538
 40
0.0428931447
 40
0.064898916
 40
0.0875438106
 40
0.1353194285
 40
0.187220614
 40
0.2436582775
 40
0.3046059217
 40
0.3696932458
 40
0.4382899956
 40
0.5095759587
 40
0.5825998223
 40
0.6563314356
 40
0.7297081743
 40
0.8016839111
 40
0.871275678
 40
0.9376168649
 40
1.0
 40
1.0
 40
1.0
 40
1.0
 10
69.1861307676
 20
68.3195246598
 30
0.0
 10
68.9404126868
 20
68.4613877129
 30
0.0
 10
68.4274408121
 20
68.7151876019
 30
0.0
 10
67.6096413838
 20
68.9979600377
 30
0.0
 10
66.7462268174
 20
69.1820229119
 30
0.0
 10
65.5199318002
 20
69.2971551537
 30
0.0
 10
63.8848847568
 20
69.1770596576
 30
0.0
 10
61.8689621378
 20
68.6412138584
 30
0.0
 10
59.802339489
 20
67.7279014831
 30
0.0
 10
57.7269228615
 20
66.4581015462
 30
0.0
 10
55.6846339425
 20
64.8592008939
 30
0.0
 10
53.717943612
 20
62.9650688583
 30
0.0
 10
51.8682192713
 20
60.8158549913
 30
0.0
 10
50.1747000405
 20
58.4572437328
 30
0.0
 10
48.6734767491
 20
55.9394986948
 30
0.0
 10
47.3965488002
 20
53.3163355328
 30
0.0
 10
46.3712008618
 20
50.6437134643
 30
0.0
 10
45.6191698803
 20
47.9782624221
 30
0.0
 10
45.156648522
 20
45.3769858553
 30
0.0
 10
45.0442282994
 20
43.6637625908
 30
0.0
 10
45.0442282994
 20
42.8340435258
 30
0.0
  0
SPLINE
  5
295
100
AcDbEntity
  8
0
100
AcDbSpline
 62
7
  6
CONTINUOUS
 70
0
 71
3
 72
15
 73
11
 74
0
 42
0.0000001
 43
0.0000001
 44
0.0000000001
 40
0.0
 40
0.0
 40
0.0
 40
0.0
 40
0.1141441531
 40
0.2373312038
 40
0.3669729364
 40
0.4999983967
 40
0.63302408
 40
0.7626664638
 40
0.8858545409
 40
1.0
 40
1.0
 40
1.0
 40
1.0
 10
77.217603035
 20
44.6712994486
 30
0.0
 10
76.9755901746
 20
44.5315740926
 30
0.0
 10
76.497534368
 20
44.196427929
 30
0.0
 10
75.8397118237
 20
43.5810585254
 30
0.0
 10
75.2335590613
 20
42.8535346142
 30
0.0
 10
74.7017729432
 20
42.0413431271
 30
0.0
 10
74.264291077
 20
41.1747035349
 30
0.0
 10
73.9373153606
 20
40.2859921987
 30
0.0
 10
73.7333016692
 20
39.4086088831
 30
0.0
 10
73.6820838489
 20
38.827021754
 30
0.0
 10
73.6820838489
 20
38.5475665936
 30
0.0
  0
SPLINE
  5
296
100
AcDbEntity
  8
0
100
AcDbSpline
 62
7
  6
CONTINUOUS
 70
0
 71
3
 72
11
 73
7
 74
0
 42
0.0000001
 43
0.0000001
 44
0.0000000001
 40
0.0
 40
0.0
 40
0.0
 40
0.0
 40
0.2177651606
 40
0.4508956102
 40
0.7103690052
 40
1.0
 40
1.0
 40
1.0
 40
1.0
 10
51.5363080974
 20
57.3787444873
 30
0.0
 10
51.5923678715
 20
57.346349394
 30
0.0
 10
51.6973428976
 20
57.2582319713
 30
0.0
 10
51.8090258134
 20
57.0755429037
 30
0.0
 10
51.875327092
 20
56.8504665965
 30
0.0
 10
51.8884169559
 20
56.6866529887
 30
0.0
 10
51.8884169559
 20
56.600538834
 30
0.0
  0
SPLINE
  5
297
100
AcDbEntity
  8
0
100
AcDbSpline
 62
7
  6
CONTINUOUS
 70
0
 71
3
 72
17
 73
13
 74
0
 42
0.0000001
 43
0.0000001
 44
0.0000000001
 40
0.0
 40
0.0
 40
0.0
 40
0.0
 40
0.0428577105
 40
0.0874850346
 40
0.1353175376
 40
0.187280999
 40
0.3045421928
 40
0.4382102316
 40
0.5825530817
 40
0.7297120738
 40
0.8713109572
 40
1.0
 40
1.0
 40
1.0
 40
1.0
 10
44.4589462213
 20
89.1771797112
 30
0.0
 10
44.5008653863
 20
89.1530006644
 30
0.0
 10
44.5803013897
 20
89.0921775704
 30
0.0
 10
44.6759173592
 20
88.9712992519
 30
0.0
 10
44.7473515579
 20
88.8234367209
 30
0.0
 10
44.8115344207
 20
88.5857205238
 30
0.0
 10
44.8195828038
 20
88.2391120862
 30
0.0
 10
44.7298670252
 20
87.7992346996
 30
0.0
 10
44.5491003379
 20
87.3518213298
 30
0.0
 10
44.2917504458
 20
86.9332476452
 30
0.0
 10
43.9790966134
 20
86.5775340489
 30
0.0
 10
43.7348169711
 20
86.3895544537
 30
0.0
 10
43.6089758021
 20
86.3169004546
 30
0.0
  0
SPLINE
  5
298
100
AcDbEntity
  8
0
100
AcDbSpline
 62
7
  6
CONTINUOUS
 70
0
 71
3
 72
13
 73
9
 74
0
 42
0.0000001
 43
0.0000001
 44
0.0000000001
 40
0.0
 40
0.0
 40
0.0
 40
0.0
 40
0.2893742652
 40
0.548309931
 40
0.667739479
 40
0.7817645732
 40
0.8919045752
 40
1.0
 40
1.0
 40
1.0
 40
1.0
 10
73.6820838489
 20
38.5475665936
 30
0.0
 10
73.6820838489
 20
38.2941621417
 30
0.0
 10
73.7202809761
 20
37.8125699573
 30
0.0
 10
73.8875765095
 20
37.2460190087
 30
0.0
 10
74.0906935594
 20
36.8641760651
 30
0.0
 10
74.2698362027
 20
36.6209547159
 30
0.0
 10
74.4780290114
 20
36.4159270491
 30
0.0
 10
74.6356796211
 20
36.305984755
 30
0.0
 10
74.7176571316
 20
36.2586560837
 30
0.0
  0
SPLINE
  5
299
100
AcDbEntity
  8
0
100
AcDbSpline
 62
7
  6
CONTINUOUS
 70
0
 71
3
 72
15
 73
11
 74
0
 42
0.0000001
 43
0.0000001
 44
0.0000000001
 40
0.0
 40
0.0
 40
0.0
 40
0.0
 40
0.1080121478
 40
0.2180595446
 40
0.3319974209
 40
0.4513580406
 40
0.577265741
 40
0.7104900407
 40
0.8514457082
 40
1.0
 40
1.0
 40
1.0
 40
1.0
 10
67.1003922155
 20
61.4408008586
 30
0.0
 10
66.8872588417
 20
61.5638513083
 30
0.0
 10
66.4347639628
 20
61.7758072025
 30
0.0
 10
65.7025481948
 20
61.9782230488
 30
0.0
 10
64.9220058748
 20
62.0653025581
 30
0.0
 10
64.1014476843
 20
62.0367329607
 30
0.0
 10
63.2487535907
 20
61.893726535
 30
0.0
 10
62.3717741755
 20
61.6380923134
 30
0.0
 10
61.4789958446
 20
61.2725653164
 30
0.0
 10
60.8936562044
 20
60.9662151786
 30
0.0
 10
60.600524494
 20
60.7969765169
 30
0.0
  0
SPLINE
  5
29A
100
AcDbEntity
  8
0
100
AcDbSpline
 62
7
  6
CONTINUOUS
 70
0
 71
3
 72
25
 73
21
 74
0
 42
0.0000001
 43
0.0000001
 44
0.0000000001
 40
0.0
 40
0.0
 40
0.0
 40
0.0
 40
0.0213324438
 40
0.0428933438
 40
0.0648990193
 40
0.0875439142
 40
0.1353194602
 40
0.1872208236
 40
0.2436586883
 40
0.3046063415
 40
0.3696934981
 40
0.4382901186
 40
0.5095761345
 40
0.5826003638
 40
0.6563322535
 40
0.7297078763
 40
0.8016847416
 40
0.8712741683
 40
0.9376206447
 40
1.0
 40
1.0
 40
1.0
 40
1.0
 10
52.6864373943
 20
39.7405710429
 30
0.0
 10
52.5267189285
 20
39.8327825729
 30
0.0
 10
52.2170716822
 20
40.038977538
 30
0.0
 10
51.7921718009
 20
40.4075147019
 30
0.0
 10
51.4078854957
 20
40.8336700017
 30
0.0
 10
50.9445519182
 20
41.4865825483
 30
0.0
 10
50.4807106866
 20
42.445987982
 30
0.0
 10
50.1271652948
 20
43.7549546373
 30
0.0
 10
49.9696179776
 20
45.2151317452
 30
0.0
 10
50.0098841763
 20
46.796119929
 30
0.0
 10
50.2461646477
 20
48.4654181124
 30
0.0
 10
50.6732022377
 20
50.1881160523
 30
0.0
 10
51.2818444929
 20
51.9278819781
 30
0.0
 10
52.0591402253
 20
53.6477739281
 30
0.0
 10
52.9885235578
 20
55.3111208001
 30
0.0
 10
54.0501373932
 20
56.8824839826
 30
0.0
 10
55.2213722737
 20
58.328259666
 30
0.0
 10
56.477380827
 20
59.6179449687
 30
0.0
 10
57.7913962741
 20
60.7236977416
 30
0.0
 10
58.7192654168
 20
61.3438141811
 30
0.0
 10
59.1863050437
 20
61.6134580259
 30
0.0
  0
SPLINE
  5
29B
100
AcDbEntity
  8
0
100
AcDbSpline
 62
7
  6
CONTINUOUS
 70
0
 71
3
 72
15
 73
11
 74
0
 42
0.0000001
 43
0.0000001
 44
0.0000000001
 40
0.0
 40
0.0
 40
0.0
 40
0.0
 40
0.1134474856
 40
0.2352756539
 40
0.3636608532
 40
0.4961022336
 40
0.6294804141
 40
0.7602587949
 40
0.8848662193
 40
1.0
 40
1.0
 40
1.0
 40
1.0
 10
17.7497926144
 20
58.6329608957
 30
0.0
 10
17.7497926144
 20
58.4604887793
 30
0.0
 10
17.786618567
 20
58.1023476752
 30
0.0
 10
17.9326712521
 20
57.5671083758
 30
0.0
 10
18.1643996859
 20
57.0316092655
 30
0.0
 10
18.4688495808
 20
56.5138285691
 30
0.0
 10
18.8315837959
 20
56.0307200347
 30
0.0
 10
19.2345338153
 20
55.5969366881
 30
0.0
 10
19.6605153662
 20
55.2264293682
 30
0.0
 10
19.9649347551
 20
55.0238627622
 30
0.0
 10
20.1165398212
 20
54.936378929
 30
0.0
  0
SPLINE
  5
29C
100
AcDbEntity
  8
0
100
AcDbSpline
 62
7
  6
CONTINUOUS
 70
0
 71
3
 72
22
 73
18
 74
0
 42
0.0000001
 43
0.0000001
 44
0.0000000001
 40
0.0
 40
0.0
 40
0.0
 40
0.0
 40
0.042819374
 40
0.0874069952
 40
0.135196698
 40
0.1871136235
 40
0.2435668718
 40
0.3045315508
 40
0.3696384427
 40
0.4382549268
 40
0.5095616387
 40
0.5826077622
 40
0.729624663
 40
0.801624375
 40
0.8712307288
 40
0.9376127844
 40
1.0
 40
1.0
 40
1.0
 40
1.0
 10
57.6005858037
 20
44.9862813146
 30
0.0
 10
57.4526546733
 20
45.0716674499
 30
0.0
 10
57.1722851392
 20
45.2863384646
 30
0.0
 10
56.8347950947
 20
45.7129938044
 30
0.0
 10
56.5826411425
 20
46.2348464133
 30
0.0
 10
56.4193989134
 20
46.8390876237
 30
0.0
 10
56.3466875637
 20
47.512971038
 30
0.0
 10
56.3652360038
 20
48.242660832
 30
0.0
 10
56.4743158219
 20
49.0131012543
 30
0.0
 10
56.6714053326
 20
49.8081706936
 30
0.0
 10
56.9523106185
 20
50.6112208056
 30
0.0
 10
57.4314996508
 20
51.6712601691
 30
0.0
 10
58.0451302665
 20
52.6695976116
 30
0.0
 10
58.7704772678
 20
53.5651536094
 30
0.0
 10
59.3502624678
 20
54.1604817226
 30
0.0
 10
59.9567631838
 20
54.670771023
 30
0.0
 10
60.3850044728
 20
54.9570297975
 30
0.0
 10
60.600524494
 20
55.081459597
 30
0.0
  0
SPLINE
  5
29D
100
AcDbEntity
  8
0
100
AcDbSpline
 62
7
  6
CONTINUOUS
 70
0
 71
3
 72
11
 73
7
 74
0
 42
0.0000001
 43
0.0000001
 44
0.0000000001
 40
0.0
 40
0.0
 40
0.0
 40
0.0
 40
0.2853858611
 40
0.5451343073
 40
0.7812469495
 40
1.0
 40
1.0
 40
1.0
 40
1.0
 10
20.1192538132
 20
54.9379362842
 30
0.0
 10
20.2368518443
 20
54.870087022
 30
0.0
 10
20.4709948848
 20
54.755748478
 30
0.0
 10
20.8301664492
 20
54.6518709665
 30
0.0
 10
21.1721590362
 20
54.627635542
 30
0.0
 10
21.3880081704
 20
54.6679513839
 30
0.0
 10
21.4863970562
 20
54.7018599774
 30
0.0
  0
SPLINE
  5
29E
100
AcDbEntity
  8
0
100
AcDbSpline
 62
7
  6
CONTINUOUS
 70
0
 71
3
 72
15
 73
11
 74
0
 42
0.0000001
 43
0.0000001
 44
0.0000000001
 40
0.0
 40
0.0
 40
0.0
 40
0.0
 40
0.1141509975
 40
0.2373453398
 40
0.3669914582
 40
0.5000189889
 40
0.6330438815
 40
0.7626819192
 40
0.8858640193
 40
1.0
 40
1.0
 40
1.0
 40
1.0
 10
17.9265685737
 20
58.7350219342
 30
0.0
 10
17.9265685737
 20
58.5617228668
 30
0.0
 10
17.9583398747
 20
58.2010617849
 30
0.0
 10
18.0848784816
 20
57.656976949
 30
0.0
 10
18.2876793895
 20
57.1058814273
 30
0.0
 10
18.5590089254
 20
56.5684910125
 30
0.0
 10
18.8888184448
 20
56.0648849211
 30
0.0
 10
19.2647416302
 20
55.6138018653
 30
0.0
 10
19.6727028267
 20
55.2322946657
 30
0.0
 10
19.9691692363
 20
55.0245346983
 30
0.0
 10
20.1192538132
 20
54.9379362842
 30
0.0
  0
SPLINE
  5
29F
100
AcDbEntity
  8
0
100
AcDbSpline
 62
7
  6
CONTINUOUS
 70
0
 71
3
 72
17
 73
13
 74
0
 42
0.0000001
 43
0.0000001
 44
0.0000000001
 40
0.0
 40
0.0
 40
0.0
 40
0.0
 40
0.0428577105
 40
0.0874850346
 40
0.1353175376
 40
0.187280999
 40
0.3045421928
 40
0.4382102316
 40
0.5825530817
 40
0.7297120738
 40
0.8713109572
 40
1.0
 40
1.0
 40
1.0
 40
1.0
 10
51.5363108519
 20
37.7486994558
 30
0.0
 10
51.5782300169
 20
37.7245204089
 30
0.0
 10
51.6576660202
 20
37.6636973149
 30
0.0
 10
51.7532819897
 20
37.5428189964
 30
0.0
 10
51.8247161884
 20
37.3949564654
 30
0.0
 10
51.8888990512
 20
37.1572402684
 30
0.0
 10
51.8969474343
 20
36.8106318307
 30
0.0
 10
51.8072316557
 20
36.3707544441
 30
0.0
 10
51.6264649684
 20
35.9233410743
 30
0.0
 10
51.3691150764
 20
35.5047673897
 30
0.0
 10
51.056461244
 20
35.1490537934
 30
0.0
 10
50.8121816016
 20
34.9610741982
 30
0.0
 10
50.6863404327
 20
34.8884201991
 30
0.0
  0
SPLINE
  5
2A0
100
AcDbEntity
  8
0
100
AcDbSpline
 62
7
  6
CONTINUOUS
 70
0
 71
3
 72
13
 73
9
 74
0
 42
0.0000001
 43
0.0000001
 44
0.0000000001
 40
0.0
 40
0.0
 40
0.0
 40
0.0
 40
0.3022001028
 40
0.5655450353
 40
0.6836906231
 40
0.7939164661
 40
0.8984272738
 40
1.0
 40
1.0
 40
1.0
 40
1.0
 10
20.1166124424
 20
54.9363370281
 30
0.0
 10
20.2510532201
 20
54.8587621967
 30
0.0
 10
20.5112809295
 20
54.7270285274
 30
0.0
 10
20.8525380351
 20
54.6308342876
 30
0.0
 10
21.1050742768
 20
54.6111417405
 30
0.0
 10
21.2763663661
 20
54.6230591937
 30
0.0
 10
21.4350087727
 20
54.6617669082
 30
0.0
 10
21.5320302769
 20
54.7059534476
 30
0.0
 10
21.5772108364
 20
54.7320383482
 30
0.0
  0
SPLINE
  5
2A1
100
AcDbEntity
  8
0
100
AcDbSpline
 62
7
  6
CONTINUOUS
 70
0
 71
3
 72
14
 73
10
 74
0
 42
0.0000001
 43
0.0000001
 44
0.0000000001
 40
0.0
 40
0.0
 40
0.0
 40
0.0
 40
0.1080448607
 40
0.2181302243
 40
0.3321101695
 40
0.4514929186
 40
0.5774387248
 40
0.7107395262
 40
1.0
 40
1.0
 40
1.0
 40
1.0
 10
64.3075713729
 20
54.970365458
 30
0.0
 10
64.2091983904
 20
55.0271467651
 30
0.0
 10
64.0003543112
 20
55.1249662322
 30
0.0
 10
63.6624055991
 20
55.2184083152
 30
0.0
 10
63.3021593268
 20
55.2585482669
 30
0.0
 10
62.9234627697
 20
55.2454494552
 30
0.0
 10
62.5298609227
 20
55.1794050422
 30
0.0
 10
61.9753455658
 20
55.017704314
 30
0.0
 10
61.5709846388
 20
54.8252633705
 30
0.0
 10
61.3076342192
 20
54.6732188425
 30
0.0
  0
SPLINE
  5
2A2
100
AcDbEntity
  8
0
100
AcDbSpline
 62
7
  6
CONTINUOUS
 70
0
 71
3
 72
25
 73
21
 74
0
 42
0.0000001
 43
0.0000001
 44
0.0000000001
 40
0.0
 40
0.0
 40
0.0
 40
0.0
 40
0.0623823608
 40
0.1287228898
 40
0.1983147956
 40
0.2702910243
 40
0.3436686405
 40
0.4174013373
 40
0.4904262834
 40
0.5617131378
 40
0.6303104274
 40
0.6953978822
 40
0.7563452964
 40
0.8127824429
 40
0.8646829087
 40
0.9124577084
 40
0.935102184
 40
0.957107574
 40
0.978667894
 40
1.0
 40
1.0
 40
1.0
 40
1.0
 10
17.5023042106
 20
58.7758451598
 30
0.0
 10
17.5023042106
 20
59.6034797038
 30
0.0
 10
17.6144386061
 20
61.3124011647
 30
0.0
 10
18.0757986916
 20
63.9071581171
 30
0.0
 10
18.8259426256
 20
66.5659472655
 30
0.0
 10
19.8487325893
 20
69.2319075157
 30
0.0
 10
21.1224820704
 20
71.8485425055
 30
0.0
 10
22.6199756637
 20
74.3600266538
 30
0.0
 10
24.3092899561
 20
76.7127709869
 30
0.0
 10
26.1544190632
 20
78.8566312123
 30
0.0
 10
28.1162163235
 20
80.7460336641
 30
0.0
 10
30.1534135873
 20
82.3409290506
 30
0.0
 10
32.2236437808
 20
83.6075357962
 30
0.0
 10
34.2850896491
 20
84.5185404724
 30
0.0
 10
36.2959508575
 20
85.0530214178
 30
0.0
 10
37.9268853153
 20
85.1728018293
 30
0.0
 10
39.1500921103
 20
85.0579481076
 30
0.0
 10
40.011331999
 20
84.8743450829
 30
0.0
 10
40.8270726171
 20
84.5922824029
 30
0.0
 10
41.3387520566
 20
84.3391185809
 30
0.0
 10
41.5838521394
 20
84.197612967
 30
0.0
  0
SPLINE
  5
2A3
100
AcDbEntity
  8
0
100
AcDbSpline
 62
7
  6
CONTINUOUS
 70
0
 71
3
 72
22
 73
18
 74
0
 42
0.0000001
 43
0.0000001
 44
0.0000000001
 40
0.0
 40
0.0
 40
0.0
 40
0.0
 40
0.0428182795
 40
0.0874064025
 40
0.135196332
 40
0.1871113546
 40
0.2435660538
 40
0.304531707
 40
0.3696367927
 40
0.4382543318
 40
0.5095614425
 40
0.5826060395
 40
0.7296243747
 40
0.8016221289
 40
0.8712292206
 40
0.9376190379
 40
1.0
 40
1.0
 40
1.0
 40
1.0
 10
58.8076939905
 20
45.4440828898
 30
0.0
 10
58.6844291371
 20
45.5152496357
 30
0.0
 10
58.4507472352
 20
45.6940808047
 30
0.0
 10
58.1695384238
 20
46.049665751
 30
0.0
 10
57.9594415685
 20
46.4845432386
 30
0.0
 10
57.8233362983
 20
46.9880576585
 30
0.0
 10
57.7627722546
 20
47.5496366994
 30
0.0
 10
57.77826736
 20
48.1577081583
 30
0.0
 10
57.8691059434
 20
48.7997497846
 30
0.0
 10
58.0333622358
 20
49.4623055063
 30
0.0
 10
58.2674861668
 20
50.1314975661
 30
0.0
 10
58.6667463514
 20
51.0148936247
 30
0.0
 10
59.1781661305
 20
51.8467963078
 30
0.0
 10
59.78257611
 20
52.5931266818
 30
0.0
 10
60.2657500433
 20
53.0892474685
 30
0.0
 10
60.7711946546
 20
53.5144642708
 30
0.0
 10
61.1280523923
 20
53.7530354281
 30
0.0
 10
61.3076342192
 20
53.8567164253
 30
0.0
  0
SPLINE
  5
2A4
100
AcDbEntity
  8
0
100
AcDbSpline
 62
7
  6
CONTINUOUS
 70
0
 71
3
 72
11
 73
7
 74
0
 42
0.0000001
 43
0.0000001
 44
0.0000000001
 40
0.0
 40
0.0
 40
0.0
 40
0.0
 40
0.2896408744
 40
0.5491100035
 40
0.7822350384
 40
1.0
 40
1.0
 40
1.0
 40
1.0
 10
43.6089758021
 20
86.3169004546
 30
0.0
 10
43.5343989495
 20
86.2738437456
 30
0.0
 10
43.3859914971
 20
86.2032752735
 30
0.0
 10
43.1579267948
 20
86.1481583407
 30
0.0
 10
42.9438845672
 20
86.1535393127
 30
0.0
 10
42.8150888284
 20
86.2003803877
 30
0.0
 10
42.7590053829
 20
86.2327294161
 30
0.0
  0
SPLINE
  5
2A5
100
AcDbEntity
  8
0
100
AcDbSpline
 62
7
  6
CONTINUOUS
 70
0
 71
3
 72
13
 73
9
 74
0
 42
0.0000001
 43
0.0000001
 44
0.0000000001
 40
0.0
 40
0.0
 40
0.0
 40
0.0
 40
0.1080961762
 40
0.2182368155
 40
0.3322623314
 40
0.4516920354
 40
0.7106271874
 40
1.0
 40
1.0
 40
1.0
 40
1.0
 10
79.7175489384
 20
44.9189186423
 30
0.0
 10
79.6355741113
 20
44.9662457644
 30
0.0
 10
79.461540481
 20
45.0477983862
 30
0.0
 10
79.1798937321
 20
45.1255788949
 30
0.0
 10
78.8796972276
 20
45.1591070365
 30
0.0
 10
78.4474702197
 20
45.1440891374
 30
0.0
 10
77.8731994282
 20
45.0057019029
 30
0.0
 10
77.4370482448
 20
44.7979954433
 30
0.0
 10
77.217603035
 20
44.6712994486
 30
0.0
  0
SPLINE
  5
2A6
100
AcDbEntity
  8
0
100
AcDbSpline
 62
7
  6
CONTINUOUS
 70
0
 71
3
 72
11
 73
7
 74
0
 42
0.0000001
 43
0.0000001
 44
0.0000000001
 40
0.0
 40
0.0
 40
0.0
 40
0.0
 40
0.2896408744
 40
0.5491100035
 40
0.7822350384
 40
1.0
 40
1.0
 40
1.0
 40
1.0
 10
19.6090757239
 20
44.7476233862
 30
0.0
 10
19.5344988712
 20
44.7045666773
 30
0.0
 10
19.3860914188
 20
44.6339982052
 30
0.0
 10
19.1580267165
 20
44.5788812724
 30
0.0
 10
18.9439844889
 20
44.5842622444
 30
0.0
 10
18.8151887502
 20
44.6311033194
 30
0.0
 10
18.7591053046
 20
44.6634523478
 30
0.0
  0
SPLINE
  5
2A7
100
AcDbEntity
  8
0
100
AcDbSpline
 62
7
  6
CONTINUOUS
 70
0
 71
3
 72
11
 73
7
 74
0
 42
0.0000001
 43
0.0000001
 44
0.0000000001
 40
0.0
 40
0.0
 40
0.0
 40
0.0
 40
0.2896408744
 40
0.5491100035
 40
0.7822350384
 40
1.0
 40
1.0
 40
1.0
 40
1.0
 10
19.6090757239
 20
72.4606343946
 30
0.0
 10
19.5344988712
 20
72.4175776857
 30
0.0
 10
19.3860914188
 20
72.3470092135
 30
0.0
 10
19.1580267165
 20
72.2918922808
 30
0.0
 10
18.9439844889
 20
72.2972732527
 30
0.0
 10
18.8151887502
 20
72.3441143278
 30
0.0
 10
18.7591053046
 20
72.3764633562
 30
0.0
  0
SPLINE
  5
2A8
100
AcDbEntity
  8
0
100
AcDbSpline
 62
7
  6
CONTINUOUS
 70
0
 71
3
 72
15
 73
11
 74
0
 42
0.0000001
 43
0.0000001
 44
0.0000000001
 40
0.0
 40
0.0
 40
0.0
 40
0.0
 40
0.2014099138
 40
0.2617752549
 40
0.3254893977
 40
0.4606498811
 40
0.6017369174
 40
0.7425777024
 40
0.8770883845
 40
1.0
 40
1.0
 40
1.0
 40
1.0
 10
77.2923903294
 20
42.3172372977
 30
0.0
 10
77.3984915139
 20
42.1531619473
 30
0.0
 10
77.4428413264
 20
41.8821071649
 30
0.0
 10
77.4197654223
 20
41.568724821
 30
0.0
 10
77.377142903
 20
41.3201218693
 30
0.0
 10
77.2781268929
 20
41.0040276406
 30
0.0
 10
77.0993812234
 20
40.6393946635
 30
0.0
 10
76.86960487
 20
40.3052300719
 30
0.0
 10
76.6035608958
 20
40.0229730059
 30
0.0
 10
76.4016248777
 20
39.872715899
 30
0.0
 10
76.2983603923
 20
39.8130964764
 30
0.0
  0
SPLINE
  5
2A9
100
AcDbEntity
  8
0
100
AcDbSpline
 62
7
  6
CONTINUOUS
 70
0
 71
3
 72
22
 73
18
 74
0
 42
0.0000001
 43
0.0000001
 44
0.0000000001
 40
0.0
 40
0.0
 40
0.0
 40
0.0
 40
0.0623868685
 40
0.1287674087
 40
0.1983726448
 40
0.2703714704
 40
0.4173879569
 40
0.4904350535
 40
0.5617431412
 40
0.6303608574
 40
0.6954686218
 40
0.7564337386
 40
0.8128869391
 40
0.8648035182
 40
0.912592935
 40
0.9571804346
 40
1.0
 40
1.0
 40
1.0
 40
1.0
 10
61.3076342192
 20
54.6732188425
 30
0.0
 10
61.0921154
 20
54.5487897369
 30
0.0
 10
60.6638792303
 20
54.2625367464
 30
0.0
 10
60.0573876371
 20
53.7522549717
 30
0.0
 10
59.4776112804
 20
53.1569382029
 30
0.0
 10
58.7522621963
 20
52.2613961784
 30
0.0
 10
58.1386333975
 20
51.2630591388
 30
0.0
 10
57.65943241
 20
50.2030168506
 30
0.0
 10
57.3785210029
 20
49.3999535398
 30
0.0
 10
57.1814279009
 20
48.6048707126
 30
0.0
 10
57.0723456379
 20
47.8344203957
 30
0.0
 10
57.0537964476
 20
47.1047255426
 30
0.0
 10
57.126509543
 20
46.43084194
 30
0.0
 10
57.2897540741
 20
45.8266044621
 30
0.0
 10
57.5419034853
 20
45.3047532119
 30
0.0
 10
57.8793939429
 20
44.8780985917
 30
0.0
 10
58.159765426
 20
44.6634299977
 30
0.0
 10
58.3076970654
 20
44.5780432213
 30
0.0
  0
SPLINE
  5
2AA
100
AcDbEntity
  8
0
100
AcDbSpline
 62
7
  6
CONTINUOUS
 70
0
 71
3
 72
13
 73
9
 74
0
 42
0.0000001
 43
0.0000001
 44
0.0000000001
 40
0.0
 40
0.0
 40
0.0
 40
0.0
 40
0.2893743248
 40
0.5483109335
 40
0.6677410087
 40
0.7817663181
 40
0.8919058705
 40
1.0
 40
1.0
 40
1.0
 40
1.0
 10
61.3076342192
 20
53.8567164253
 30
0.0
 10
61.5270802134
 20
53.9834128729
 30
0.0
 10
61.9632333339
 20
54.1911199306
 30
0.0
 10
62.5375069775
 20
54.3295040782
 30
0.0
 10
62.9697347324
 20
54.3445201261
 30
0.0
 10
63.2699297972
 20
54.3109902955
 30
0.0
 10
63.5515723904
 20
54.233206996
 30
0.0
 10
63.7256016978
 20
54.1516526123
 30
0.0
 10
63.8075744478
 20
54.1043257896
 30
0.0
  0
SPLINE
  5
2AB
100
AcDbEntity
  8
0
100
AcDbSpline
 62
7
  6
CONTINUOUS
 70
0
 71
3
 72
11
 73
7
 74
0
 42
0.0000001
 43
0.0000001
 44
0.0000000001
 40
0.0
 40
0.0
 40
0.0
 40
0.0
 40
0.2853972668
 40
0.5451515731
 40
0.7812614217
 40
1.0
 40
1.0
 40
1.0
 40
1.0
 10
31.8565141668
 20
82.8625293829
 30
0.0
 10
31.7388985686
 20
82.794624391
 30
0.0
 10
31.5226971773
 20
82.6490388495
 30
0.0
 10
31.2529917836
 20
82.3899323475
 30
0.0
 10
31.0608639227
 20
82.1058651364
 30
0.0
 10
30.9877656243
 20
81.8987516433
 30
0.0
 10
30.967899576
 20
81.7965749402
 30
0.0
  0
SPLINE
  5
2AC
100
AcDbEntity
  8
0
100
AcDbSpline
 62
7
  6
CONTINUOUS
 70
0
 71
3
 72
15
 73
11
 74
0
 42
0.0000001
 43
0.0000001
 44
0.0000000001
 40
0.0
 40
0.0
 40
0.0
 40
0.0
 40
0.1141471061
 40
0.237336328
 40
0.3669772291
 40
0.500000819
 40
0.6330242949
 40
0.7626648634
 40
0.885853561
 40
1.0
 40
1.0
 40
1.0
 40
1.0
 10
36.2405657905
 20
82.8625459365
 30
0.0
 10
36.0905136324
 20
82.949175807
 30
0.0
 10
35.7623554092
 20
83.1019610948
 30
0.0
 10
35.228010905
 20
83.2643995282
 30
0.0
 10
34.649472287
 20
83.3643248558
 30
0.0
 10
34.0485341717
 20
83.3980781868
 30
0.0
 10
33.4475968111
 20
83.3643203754
 30
0.0
 10
32.8690604224
 20
83.2643907328
 30
0.0
 10
32.3347195319
 20
83.1019483093
 30
0.0
 10
32.0065644667
 20
82.9491604468
 30
0.0
 10
31.8565141668
 20
82.8625293829
 30
0.0
  0
SPLINE
  5
2AD
100
AcDbEntity
  8
0
100
AcDbSpline
 62
7
  6
CONTINUOUS
 70
0
 71
3
 72
25
 73
21
 74
0
 42
0.0000001
 43
0.0000001
 44
0.0000000001
 40
0.0
 40
0.0
 40
0.0
 40
0.0
 40
0.0623786478
 40
0.1287241174
 40
0.1983134211
 40
0.2702904279
 40
0.3436666866
 40
0.4173996068
 40
0.4904250402
 40
0.5617121412
 40
0.6303095039
 40
0.6953969748
 40
0.7563445348
 40
0.8127819581
 40
0.8646826181
 40
0.9124573819
 40
0.935101911
 40
0.9571072355
 40
0.9786678212
 40
1.0
 40
1.0
 40
1.0
 40
1.0
 10
60.600524494
 20
60.7969765169
 30
0.0
 10
60.1334901529
 20
60.5273357239
 30
0.0
 10
59.2056314933
 20
59.9072303266
 30
0.0
 10
57.8916279198
 20
58.8014880872
 30
0.0
 10
56.6356209358
 20
57.5118132352
 30
0.0
 10
55.464380468
 20
56.0660345953
 30
0.0
 10
54.4027554615
 20
54.4946600504
 30
0.0
 10
53.4733584573
 20
52.8312922105
 30
0.0
 10
52.6960523333
 20
51.1113732496
 30
0.0
 10
52.0874060537
 20
49.3715807955
 30
0.0
 10
51.6603702454
 20
47.6488632159
 30
0.0
 10
51.4240962103
 20
45.9795555795
 30
0.0
 10
51.3838393594
 20
44.3985689415
 30
0.0
 10
51.5413964057
 20
42.9384035079
 30
0.0
 10
51.894949548
 20
41.6294561783
 30
0.0
 10
52.3587910921
 20
40.6700691257
 30
0.0
 10
52.822119697
 20
40.0171690175
 30
0.0
 10
53.206401841
 20
39.5910218964
 30
0.0
 10
53.6312977204
 20
39.2224925185
 30
0.0
 10
53.9409404381
 20
39.016299979
 30
0.0
 10
54.1006567725
 20
38.9240893297
 30
0.0
  0
SPLINE
  5
2AE
100
AcDbEntity
  8
0
100
AcDbSpline
 62
7
  6
CONTINUOUS
 70
0
 71
3
 72
11
 73
7
 74
0
 42
0.0000001
 43
0.0000001
 44
0.0000000001
 40
0.0
 40
0.0
 40
0.0
 40
0.0
 40
0.2781763427
 40
0.5337890503
 40
0.7717380478
 40
1.0
 40
1.0
 40
1.0
 40
1.0
 10
31.8565141668
 20
83.0666549872
 30
0.0
 10
31.7189878913
 20
82.9872546289
 30
0.0
 10
31.4684446402
 20
82.8092029807
 30
0.0
 10
31.1738786803
 20
82.4755854067
 30
0.0
 10
30.99050331
 20
82.1005762889
 30
0.0
 10
30.9485621372
 20
81.8328136456
 30
0.0
 10
30.9485628079
 20
81.7025066486
 30
0.0
  0
SPLINE
  5
2AF
100
AcDbEntity
  8
0
100
AcDbSpline
 62
7
  6
CONTINUOUS
 70
0
 71
3
 72
15
 73
11
 74
0
 42
0.0000001
 43
0.0000001
 44
0.0000000001
 40
0.0
 40
0.0
 40
0.0
 40
0.0
 40
0.1151479537
 40
0.2397683748
 40
0.3705494463
 40
0.5039262081
 40
0.6363620707
 40
0.7647400891
 40
0.886559473
 40
1.0
 40
1.0
 40
1.0
 40
1.0
 10
36.2405657913
 20
82.8656797415
 30
0.0
 10
36.0889860062
 20
82.9531916904
 30
0.0
 10
35.7613203858
 20
83.1154356048
 30
0.0
 10
35.2275030026
 20
83.2990585554
 30
0.0
 10
34.6504096335
 20
83.4310055004
 30
0.0
 10
34.0507616503
 20
83.5035283604
 30
0.0
 10
33.4502471219
 20
83.5082395554
 30
0.0
 10
32.8707613299
 20
83.4411542625
 30
0.0
 10
32.3343374709
 20
83.3000184687
 30
0.0
 10
32.0058453891
 20
83.152870894
 30
0.0
 10
31.8565141668
 20
83.0666549872
 30
0.0
  0
SPLINE
  5
2B0
100
AcDbEntity
  8
0
100
AcDbSpline
 62
7
  6
CONTINUOUS
 70
0
 71
3
 72
14
 73
10
 74
0
 42
0.0000001
 43
0.0000001
 44
0.0000000001
 40
0.0
 40
0.0
 40
0.0
 40
0.0
 40
0.2892613723
 40
0.4225603933
 40
0.5485055496
 40
0.6678885425
 40
0.7818688011
 40
0.8919542424
 40
1.0
 40
1.0
 40
1.0
 40
1.0
 10
60.600524494
 20
55.081459597
 30
0.0
 10
60.863875835
 20
55.233504657
 30
0.0
 10
61.2682355317
 20
55.4259469028
 30
0.0
 10
61.822750005
 20
55.5876452756
 30
0.0
 10
62.2163495609
 20
55.653691185
 30
0.0
 10
62.5950458803
 20
55.6667883412
 30
0.0
 10
62.9552941228
 20
55.6266553865
 30
0.0
 10
63.2932422058
 20
55.533205636
 30
0.0
 10
63.5020892467
 20
55.4353905013
 30
0.0
 10
63.6004631843
 20
55.3786088738
 30
0.0
  0
ENDSEC
  0
SECTION
  2
OBJECTS
  0
DICTIONARY
  5
C
100
AcDbDictionary
280
0
281
1
  3
ACAD_GROUP
350
D
  3
ACAD_MLINESTYLE
350
17
  3
ACAD_LAYOUT
350
1A
  3
ACAD_PLOTSETTINGS
350
19
  3
ACAD_PLOTSTYLENAME
350
E
  0
DICTIONARY
  5
D
102
{ACAD_REACTORS
330
C
102
}
100
AcDbDictionary
280
0
281
1
  0
ACDBDICTIONARYWDFLT
  5
E
102
{ACAD_REACTORS
330
C
102
}
100
AcDbDictionary
281
1
  3
Normal
350
F
100
AcDbDictionaryWithDefault
340
F
  0
DICTIONARY
  5
17
102
{ACAD_REACTORS
330
C
102
}
100
AcDbDictionary
280
0
281
1
  3
Standard
350
18
  0
DICTIONARY
  5
19
102
{ACAD_REACTORS
330
C
102
}
100
AcDbDictionary
281
1
  0
DICTIONARY
  5
1A
102
{ACAD_REACTORS
330
C
102
}
100
AcDbDictionary
281
1
  3
Model
350
2B1
  3
Layout1
350
2B2
  0
ACDBPLACEHOLDER
  5
F
102
{ACAD_REACTORS
330
E
102
}
  0
MLINESTYLE
  5
18
102
{ACAD_REACTORS
330
17
102
}
100
AcDbMlineStyle
  2
STANDARD
 70
0
  3

 62
256
 51
90.0
 52
90.0
 71
2
 49
0.5
 62
256
  6
BYLAYER
 49
-0.5
 62
256
  6
BYLAYER
  0
LAYOUT
  5
2B1
102
{ACAD_REACTORS
330
1A
102
}
100
AcDbPlotSettings
  1

  2
none_device
  4

  6

 40
0.0
 41
0.0
 42
0.0
 43
0.0
 44
210.0
 45
297.0
 46
0.0
 47
0.0
 48
0.0
 49
0.0
140
0.0
141
0.0
142
1.0
143
1.0
 70
1024
 72
1
 73
0
 74
0
  7

 75
0
147
1.0
148
0.0
149
0.0
100
AcDbLayout
  1
Model
 70
0
 71
0
 10
0.0
 20
0.0
 11
210.0
 21
297.0
 12
0.0
 22
0.0
 32
0.0
 14
0.0
 24
0.0
 34
0.0
 15
0.0
 25
0.0
 35
0.0
146
0.0
 13
0.0
 23
0.0
 33
0.0
 16
1.0
 26
0.0
 36
0.0
 17
0.0
 27
1.0
 37
0.0
 76
0
330
210
345
0
346
0
  0
LAYOUT
  5
2B2
102
{ACAD_REACTORS
330
1A
102
}
100
AcDbPlotSettings
  1

  2
none_device
  4

  6

 40
0.0
 41
0.0
 42
0.0
 43
0.0
 44
210.0
 45
297.0
 46
0.0
 47
0.0
 48
0.0
 49
0.0
140
0.0
141
0.0
142
1.0
143
1.0
 70
0
 72
1
 73
0
 74
0
  7

 75
0
147
1.0
148
0.0
149
0.0
100
AcDbLayout
  1
Layout1
 70
0
 71
1
 10
0.0
 20
0.0
 11
210.0
 21
297.0
 12
0.0
 22
0.0
 32
0.0
 14
0.0
 24
0.0
 34
0.0
 15
0.0
 25
0.0
 35
0.0
146
0.0
 13
0.0
 23
0.0
 33
0.0
 16
1.0
 26
0.0
 36
0.0
 17
0.0
 27
1.0
 37
0.0
 76
0
330
211
345
0
346
0
  0
ENDSEC
  0
EOF
