999
DXF file: C:\Users\SESA654545\Desktop\sachin babu tesys\Gen2D (4)\Gen2D\CAD\SB115116_3D-CAD\drw0001_1.dxf
999
Pro/ENGINEER 2019471 by Parametric Technology Corporation
  0
SECTION
  2
HEADER
  9
$ACADVER
  1
AC1024
  9
$DWGCODEPAGE
  3
ANSI_1252
  9
$EXTMAX
 10
87.2469421211
 20
123.392103857
 30
0.0
  9
$EXTMIN
 10
-0.0
 20
0.0
 30
0.0
  9
$LIMMIN
 10
-0.0
 20
0.0
  9
$LIMMAX
 10
87.2469421211
 20
123.392103857
  9
$VIEWCTR
 10
43.6234710606
 20
61.6960519285
  9
$VIEWSIZE
 40
123.392103857
  9
$CLAYER
  8
0
  9
$LTSCALE
 40
8.0433371403
  9
$CELTYPE
  6
BYLAYER
  9
$DIMSCALE
 40
1.0
  9
$DIMASZ
 40
1.0386540729
  9
$DIMEXO
 40
1.0
  9
$DIMDLI
 40
5.5572147515
  9
$DIMEXE
 40
1.0
  9
$DIMCEN
 40
1.3161824411
  9
$DIMLFAC
 40
1.0
  9
$DIMBLK
  1
_FILLED
  9
$DIMALT
 70
0
  9
$DIMALTF
 40
0.0393700787
  9
$DIMTXT
 40
1.454115702
  9
$DIMTOL
 70
1
  9
$DIMLIM
 70
0
  9
$DIMTFAC
 40
1.0
  9
$DIMTP
 40
0.01
  9
$DIMTM
 40
0.01
  9
$DIMGAP
 40
0.625
  9
$DIMDSEP
 70
46
  9
$AUNITS
 70
0
  9
$PDMODE
 70
3
  9
$PDSIZE
 40
0.3125
  9
$HANDSEED
  5
339
  9
$TILEMODE
 70
1
  9
$MEASUREMENT
 70
1
  9
$INSUNITS
 70
4
  0
ENDSEC
  0
SECTION
  2
CLASSES
  0
CLASS
  1
ACDBDICTIONARYWDFLT
  2
AcDbDictionaryWithDefault
  3
AutoCAD 2000
 90
0
 91
1
280
0
281
0
  0
CLASS
  1
ACDBPLACEHOLDER
  2
AcDbPlaceHolder
  3
AutoCAD 2000
 90
0
 91
1
280
0
281
0
  0
CLASS
  1
LAYOUT
  2
AcDbLayout
  3
AutoCAD 2000
 90
0
 91
0
280
0
281
0
  0
ENDSEC
  0
SECTION
  2
TABLES
  0
TABLE
  2
VPORT
  5
8
100
AcDbSymbolTable
 70
2
  0
VPORT
  5
1F4
100
AcDbSymbolTableRecord
100
AcDbViewportTableRecord
  2
*ACTIVE
 70
0
 10
0.0
 20
0.0
 11
1.0
 21
1.0
 12
43.6234710606
 22
61.6960519285
 13
0.0
 23
0.0
 14
1.0
 24
1.0
 15
0.0
 25
0.0
 16
0.0
 26
0.0
 36
1.0
 17
0.0
 27
0.0
 37
0.0
 40
123.392103857
 41
0.7070707071
 42
50.0
 43
0.0
 44
0.0
 50
0.0
 51
0.0
 71
0
 72
100
 73
1
 74
1
 75
0
 76
0
 77
0
 78
0
  0
ENDTAB
  0
TABLE
  2
LTYPE
  5
5
100
AcDbSymbolTable
 70
6
  0
LTYPE
  5
14
100
AcDbSymbolTableRecord
100
AcDbLinetypeTableRecord
  2
BYBLOCK
 70
0
  3

 72
65
 73
0
 40
0.0
  0
LTYPE
  5
15
100
AcDbSymbolTableRecord
100
AcDbLinetypeTableRecord
  2
BYLAYER
 70
0
  3

 72
65
 73
0
 40
0.0
  0
LTYPE
  5
16
100
AcDbSymbolTableRecord
100
AcDbLinetypeTableRecord
  2
CONTINUOUS
 70
64
  3
Solid line
 72
65
 73
0
 40
0.0
  0
LTYPE
  5
1F5
100
AcDbSymbolTableRecord
100
AcDbLinetypeTableRecord
  2
CENTER
 70
64
  3
____ _ ____ _ ____ _ ____ _ ____ _ ____ _ ____
 72
65
 73
4
 40
0.6
 49
0.375
 74
0
 49
-0.075
 74
0
 49
0.075
 74
0
 49
-0.075
 74
0
  0
LTYPE
  5
1F6
100
AcDbSymbolTableRecord
100
AcDbLinetypeTableRecord
  2
HIDDEN
 70
64
  3
- - - - - - - - - - - - - - - - - - - -
 72
65
 73
2
 40
0.2
 49
0.1
 74
0
 49
-0.1
 74
0
  0
LTYPE
  5
1F7
100
AcDbSymbolTableRecord
100
AcDbLinetypeTableRecord
  2
PHANTOM
 70
64
  3
_____ _ _ _____ _ _ _____ _ _ _____
 72
65
 73
6
 40
0.8
 49
0.45
 74
0
 49
-0.05
 74
0
 49
0.1
 74
0
 49
-0.05
 74
0
 49
0.1
 74
0
 49
-0.05
 74
0
  0
LTYPE
  5
1F8
100
AcDbSymbolTableRecord
100
AcDbLinetypeTableRecord
  2
DOT
 70
64
  3
. . . . . . . . . . . . . . . . . . . .
 72
65
 73
2
 40
0.2
 49
0.1
 74
0
 49
-0.1
 74
0
  0
LTYPE
  5
1F9
100
AcDbSymbolTableRecord
100
AcDbLinetypeTableRecord
  2
DASHED
 70
64
  3
- - - - - - - - - - - - - - - - - - - -
 72
65
 73
2
 40
0.2
 49
0.1
 74
0
 49
-0.1
 74
0
  0
ENDTAB
  0
TABLE
  2
LAYER
  5
2
100
AcDbSymbolTable
 70
36
  0
LAYER
  5
10
100
AcDbSymbolTableRecord
100
AcDbLayerTableRecord
  2
0
 70
0
 62
7
  6
CONTINUOUS
370
-3
390
F
  0
LAYER
  5
1FA
100
AcDbSymbolTableRecord
100
AcDbLayerTableRecord
  2
DEFAULT_1
 70
0
 62
7
  6
CENTER
370
-3
390
F
  0
LAYER
  5
1FB
100
AcDbSymbolTableRecord
100
AcDbLayerTableRecord
  2
DEFAULT_2
 70
0
 62
8
  6
HIDDEN
370
-3
390
F
  0
LAYER
  5
1FC
100
AcDbSymbolTableRecord
100
AcDbLayerTableRecord
  2
DEFAULT_3
 70
0
 62
7
  6
PHANTOM
370
-3
390
F
  0
LAYER
  5
1FD
100
AcDbSymbolTableRecord
100
AcDbLayerTableRecord
  2
00_COMPONENTS
 70
0
 62
7
  6
CONTINUOUS
370
-3
390
F
  0
LAYER
  5
1FE
100
AcDbSymbolTableRecord
100
AcDbLayerTableRecord
  2
01_1_DEFAULT_DATUMS
 70
0
 62
7
  6
CONTINUOUS
370
-3
390
F
  0
LAYER
  5
1FF
100
AcDbSymbolTableRecord
100
AcDbLayerTableRecord
  2
01_PLANES
 70
0
 62
7
  6
CONTINUOUS
370
-3
390
F
  0
LAYER
  5
200
100
AcDbSymbolTableRecord
100
AcDbLayerTableRecord
  2
02_COORD_SYS
 70
0
 62
7
  6
CONTINUOUS
370
-3
390
F
  0
LAYER
  5
201
100
AcDbSymbolTableRecord
100
AcDbLayerTableRecord
  2
03_AXES
 70
0
 62
7
  6
CONTINUOUS
370
-3
390
F
  0
LAYER
  5
202
100
AcDbSymbolTableRecord
100
AcDbLayerTableRecord
  2
04_POINTS
 70
0
 62
7
  6
CONTINUOUS
370
-3
390
F
  0
LAYER
  5
203
100
AcDbSymbolTableRecord
100
AcDbLayerTableRecord
  2
05_CURVES
 70
0
 62
7
  6
CONTINUOUS
370
-3
390
F
  0
LAYER
  5
204
100
AcDbSymbolTableRecord
100
AcDbLayerTableRecord
  2
06_SURFS
 70
0
 62
7
  6
CONTINUOUS
370
-3
390
F
  0
LAYER
  5
205
100
AcDbSymbolTableRecord
100
AcDbLayerTableRecord
  2
07_COSMETICS
 70
0
 62
7
  6
CONTINUOUS
370
-3
390
F
  0
LAYER
  5
206
100
AcDbSymbolTableRecord
100
AcDbLayerTableRecord
  2
10_NOTES
 70
0
 62
7
  6
CONTINUOUS
370
-3
390
F
  0
LAYER
  5
207
100
AcDbSymbolTableRecord
100
AcDbLayerTableRecord
  2
11_NOTES_PUB
 70
0
 62
7
  6
CONTINUOUS
370
-3
390
F
  0
LAYER
  5
208
100
AcDbSymbolTableRecord
100
AcDbLayerTableRecord
  2
13_REF_GTOL
 70
0
 62
7
  6
CONTINUOUS
370
-3
390
F
  0
LAYER
  5
209
100
AcDbSymbolTableRecord
100
AcDbLayerTableRecord
  2
16_MISC
 70
0
 62
7
  6
CONTINUOUS
370
-3
390
F
  0
LAYER
  5
20A
100
AcDbSymbolTableRecord
100
AcDbLayerTableRecord
  2
17_NO_PRINT
 70
0
 62
7
  6
CONTINUOUS
370
-3
390
F
  0
LAYER
  5
20B
100
AcDbSymbolTableRecord
100
AcDbLayerTableRecord
  2
18_DATUM_CAMS_JOINTS
 70
0
 62
7
  6
CONTINUOUS
370
-3
390
F
  0
LAYER
  5
20C
100
AcDbSymbolTableRecord
100
AcDbLayerTableRecord
  2
19_DATUM_FUNCTIONAL
 70
0
 62
7
  6
CONTINUOUS
370
-3
390
F
  0
LAYER
  5
20D
100
AcDbSymbolTableRecord
100
AcDbLayerTableRecord
  2
20_DATUM_KINEMATIC_SCHEME
 70
0
 62
7
  6
CONTINUOUS
370
-3
390
F
  0
ENDTAB
  0
TABLE
  2
STYLE
  5
3
100
AcDbSymbolTable
 70
1
  0
STYLE
  5
11
100
AcDbSymbolTableRecord
100
AcDbTextStyleTableRecord
  2
STANDARD
 70
0
 40
0.0
 41
0.8
 50
0.0
 71
0
 42
0.2
  3
txt
  4

  0
STYLE
  5
20E
100
AcDbSymbolTableRecord
100
AcDbTextStyleTableRecord
  2
TEXTSTYLE_1
 70
0
 40
0.0
 41
0.8
 50
0.0
 71
0
 42
0.2
  3
gdt
  4

  0
ENDTAB
  0
TABLE
  2
VIEW
  5
6
100
AcDbSymbolTable
 70
0
  0
ENDTAB
  0
TABLE
  2
UCS
  5
7
100
AcDbSymbolTable
 70
0
  0
ENDTAB
  0
TABLE
  2
APPID
  5
9
100
AcDbSymbolTable
 70
1
  0
APPID
  5
20F
100
AcDbSymbolTableRecord
100
AcDbRegAppTableRecord
  2
ACAD
 70
0
  0
ENDTAB
  0
TABLE
  2
BLOCK_RECORD
  5
1
100
AcDbSymbolTable
 70
0
  0
BLOCK_RECORD
  5
210
100
AcDbSymbolTableRecord
100
AcDbBlockTableRecord
  2
*Model_Space
  0
BLOCK_RECORD
  5
211
100
AcDbSymbolTableRecord
100
AcDbBlockTableRecord
  2
*Paper_Space
  0
BLOCK_RECORD
  5
212
100
AcDbSymbolTableRecord
100
AcDbBlockTableRecord
  2
_FILLED
  0
ENDTAB
  0
TABLE
  2
DIMSTYLE
  5
A
100
AcDbSymbolTable
 70
1
100
AcDbDimStyleTable
 71
0
  0
DIMSTYLE
105
213
100
AcDbSymbolTableRecord
100
AcDbDimStyleTableRecord
  2
STANDARD
 70
0
  3

  4

 40
1.0
 41
1.0386540729
 42
1.0
 43
0.38
 44
1.0
 45
0.0
 46
0.0
 47
0.01
 48
0.01
140
1.454115702
141
0.09
142
0.0
143
25.4
144
1.0
145
0.0
146
1.0
147
0.625
 71
1
 72
0
 73
0
 74
0
 75
0
 76
0
 77
1
 78
8
 79
2
170
0
171
1
172
0
173
0
174
0
175
0
176
0
177
0
178
0
270
2
179
2
271
2
272
2
273
2
274
2
275
0
280
0
281
0
282
0
283
1
284
8
285
0
286
0
287
3
288
0
340
11
278
46
341
212
342
212
343
212
344
212
  0
ENDTAB
  0
ENDSEC
  0
SECTION
  2
BLOCKS
  0
BLOCK
  5
20
100
AcDbEntity
  8
0
100
AcDbBlockBegin
  2
*Model_Space
 70
0
 10
0.0
 20
0.0
 30
0.0
  3
*Model_Space
  1

  0
ENDBLK
  5
21
100
AcDbEntity
  8
0
100
AcDbBlockEnd
  0
BLOCK
  5
1C
100
AcDbEntity
  8
0
100
AcDbBlockBegin
  2
*Paper_Space
 70
0
 10
0.0
 20
0.0
 30
0.0
  3
*Paper_Space
  1

  0
ENDBLK
  5
1D
100
AcDbEntity
  8
0
100
AcDbBlockEnd
  0
BLOCK
  5
214
100
AcDbEntity
  8
0
100
AcDbBlockBegin
  2
_FILLED
 70
64
 10
0.0
 20
0.0
  3
_FILLED
  1

  0
SOLID
  5
215
100
AcDbEntity
  8
0
  6
BYBLOCK
 62
0
100
AcDbTrace
 10
0.0
 20
0.0
 11
-1.0
 21
0.25
 12
-1.0
 22
-0.25
 13
-1.0
 23
-0.25
  0
ENDBLK
  5
216
100
AcDbEntity
  8
0
  6
BYBLOCK
 62
0
100
AcDbBlockEnd
  0
ENDSEC
  0
SECTION
  2
ENTITIES
  0
LINE
  5
217
100
AcDbEntity
  8
0
100
AcDbLine
 62
7
  6
CONTINUOUS
 10
11.0932223262
 20
51.4653153162
 11
11.0932223262
 21
50.0277075882
  0
LINE
  5
218
100
AcDbEntity
  8
0
100
AcDbLine
 62
7
  6
CONTINUOUS
 10
11.6589101064
 20
52.0777004923
 11
11.6589101064
 21
51.1387227126
  0
LINE
  5
219
100
AcDbEntity
  8
0
100
AcDbLine
 62
7
  6
CONTINUOUS
 10
12.0831676983
 20
51.3836664854
 11
12.0831676983
 21
50.5992494036
  0
LINE
  5
21A
100
AcDbEntity
  8
0
100
AcDbLine
 62
7
  6
CONTINUOUS
 10
12.6873039127
 20
55.6220325408
 11
12.6873039127
 21
62.1837104799
  0
LINE
  5
21B
100
AcDbEntity
  8
0
100
AcDbLine
 62
7
  6
CONTINUOUS
 10
12.7549301803
 20
50.5059495431
 11
12.7549301803
 21
51.4449273228
  0
LINE
  5
21C
100
AcDbEntity
  8
0
100
AcDbLine
 62
7
  6
CONTINUOUS
 10
12.8609919288
 20
62.5289351964
 11
12.8609919288
 21
62.2839887041
  0
LINE
  5
21D
100
AcDbEntity
  8
0
100
AcDbLine
 62
7
  6
CONTINUOUS
 10
13.3206179605
 20
48.6489450496
 11
13.3206179605
 21
50.1793569395
  0
LINE
  5
21E
100
AcDbEntity
  8
0
100
AcDbLine
 62
7
  6
CONTINUOUS
 10
16.3298959593
 20
53.2839590003
 11
16.3213677528
 21
54.1045371854
  0
LINE
  5
21F
100
AcDbEntity
  8
0
100
AcDbLine
 62
7
  6
CONTINUOUS
 10
14.4731928089
 20
62.3222717602
 11
14.4731928089
 21
62.4799482831
  0
LINE
  5
220
100
AcDbEntity
  8
0
100
AcDbLine
 62
7
  6
CONTINUOUS
 10
14.9688666385
 20
54.8857912989
 11
14.9690209796
 21
55.5731134919
  0
LINE
  5
221
100
AcDbEntity
  8
0
100
AcDbLine
 62
7
  6
CONTINUOUS
 10
16.2555995965
 20
54.8299386241
 11
16.2621064718
 21
55.3963229474
  0
LINE
  5
222
100
AcDbEntity
  8
0
100
AcDbLine
 62
7
  6
CONTINUOUS
 10
16.75296384
 20
54.6944757572
 11
16.7545513583
 21
54.5417258365
  0
LINE
  5
223
100
AcDbEntity
  8
0
100
AcDbLine
 62
7
  6
CONTINUOUS
 10
17.0344251115
 20
53.9399375839
 11
17.0323748762
 21
54.1372098236
  0
LINE
  5
224
100
AcDbEntity
  8
0
100
AcDbLine
 62
7
  6
CONTINUOUS
 10
18.0627932669
 20
46.4261406301
 11
18.0627932669
 21
47.324293289
  0
LINE
  5
225
100
AcDbEntity
  8
0
100
AcDbLine
 62
7
  6
CONTINUOUS
 10
18.6134497133
 20
46.9890223926
 11
18.6134497133
 21
46.0908697337
  0
LINE
  5
226
100
AcDbEntity
  8
0
100
AcDbLine
 62
7
  6
CONTINUOUS
 10
16.8203195146
 20
53.8163243978
 11
16.8112199426
 21
53.0242614407
  0
LINE
  5
227
100
AcDbEntity
  8
0
100
AcDbLine
 62
7
  6
CONTINUOUS
 10
11.0932223262
 20
50.0277075882
 11
11.0517836031
 21
49.9361785248
  0
LINE
  5
228
100
AcDbEntity
  8
0
100
AcDbLine
 62
7
  6
CONTINUOUS
 10
13.3206179605
 20
50.1793569395
 11
12.7549301803
 21
50.5059495431
  0
LINE
  5
229
100
AcDbEntity
  8
0
100
AcDbLine
 62
7
  6
CONTINUOUS
 10
11.6589101064
 20
51.1387227126
 11
11.0932223262
 21
51.4653153162
  0
LINE
  5
22A
100
AcDbEntity
  8
0
100
AcDbLine
 62
7
  6
CONTINUOUS
 10
22.1281957055
 20
49.9363848132
 11
22.119667499
 21
50.7569629983
  0
LINE
  5
22B
100
AcDbEntity
  8
0
100
AcDbLine
 62
7
  6
CONTINUOUS
 10
21.4686006122
 20
60.721659179
 11
21.4686006122
 21
60.2538280227
  0
LINE
  5
22C
100
AcDbEntity
  8
0
100
AcDbLine
 62
7
  6
CONTINUOUS
 10
22.0342883923
 20
60.3950665754
 11
22.0342883923
 21
60.1501186721
  0
LINE
  5
22D
100
AcDbEntity
  8
0
100
AcDbLine
 62
7
  6
CONTINUOUS
 10
20.7671663847
 20
51.5382171118
 11
20.7673207258
 21
52.2255393048
  0
LINE
  5
22E
100
AcDbEntity
  8
0
100
AcDbLine
 62
7
  6
CONTINUOUS
 10
22.0538993427
 20
51.482364437
 11
22.0584842009
 21
51.8814487352
  0
LINE
  5
22F
100
AcDbEntity
  8
0
100
AcDbLine
 62
7
  6
CONTINUOUS
 10
12.0417288668
 20
50.5077205265
 11
12.0831676983
 21
50.5992494036
  0
LINE
  5
230
100
AcDbEntity
  8
0
100
AcDbLine
 62
7
  6
CONTINUOUS
 10
12.7549301803
 20
51.4449273228
 11
11.6589101064
 21
52.0777004923
  0
LINE
  5
231
100
AcDbEntity
  8
0
100
AcDbLine
 62
7
  6
CONTINUOUS
 10
22.8327248577
 20
50.5923633968
 11
22.8320999388
 21
50.6524926664
  0
LINE
  5
232
100
AcDbEntity
  8
0
100
AcDbLine
 62
7
  6
CONTINUOUS
 10
23.8746904196
 20
43.0864168625
 11
23.8746899018
 21
43.9845692224
  0
LINE
  5
233
100
AcDbEntity
  8
0
100
AcDbLine
 62
7
  6
CONTINUOUS
 10
24.4616063487
 20
42.7720802633
 11
24.4616061529
 21
43.670232809
  0
LINE
  5
234
100
AcDbEntity
  8
0
100
AcDbLine
 62
7
  6
CONTINUOUS
 10
22.6186192609
 20
50.4687502107
 11
22.6095196889
 21
49.6766872536
  0
LINE
  5
235
100
AcDbEntity
  8
0
100
AcDbLine
 62
7
  6
CONTINUOUS
 10
17.1979192978
 20
53.5982089517
 11
16.8203195146
 21
53.8163243978
  0
LINE
  5
236
100
AcDbEntity
  8
0
100
AcDbLine
 62
7
  6
CONTINUOUS
 10
16.3213677528
 20
54.1045371854
 11
14.9688666385
 21
54.8857912989
  0
LINE
  5
237
100
AcDbEntity
  8
0
100
AcDbLine
 62
7
  6
CONTINUOUS
 10
22.9422696287
 20
50.2817979202
 11
22.6186192609
 21
50.4687502107
  0
LINE
  5
238
100
AcDbEntity
  8
0
100
AcDbLine
 62
7
  6
CONTINUOUS
 10
22.119667499
 20
50.7569629983
 11
20.7671663847
 21
51.5382171118
  0
LINE
  5
239
100
AcDbEntity
  8
0
100
AcDbLine
 62
7
  6
CONTINUOUS
 10
29.1627175787
 20
46.6903754899
 11
28.4169190072
 21
47.1211760236
  0
LINE
  5
23A
100
AcDbEntity
  8
0
100
AcDbLine
 62
7
  6
CONTINUOUS
 10
27.9179672453
 20
47.4093888112
 11
26.565466131
 21
48.1906429247
  0
LINE
  5
23B
100
AcDbEntity
  8
0
100
AcDbLine
 62
7
  6
CONTINUOUS
 10
35.5017973704
 20
43.0304269687
 11
34.2152187535
 21
43.7736018365
  0
LINE
  5
23C
100
AcDbEntity
  8
0
100
AcDbLine
 62
7
  6
CONTINUOUS
 10
33.7162669915
 20
44.0618146241
 11
32.3637658773
 21
44.8430687376
  0
LINE
  5
23D
100
AcDbEntity
  8
0
100
AcDbLine
 62
7
  6
CONTINUOUS
 10
14.9690209796
 20
55.5731134919
 11
16.2555995965
 21
54.8299386241
  0
LINE
  5
23E
100
AcDbEntity
  8
0
100
AcDbLine
 62
7
  6
CONTINUOUS
 10
16.7545513583
 20
54.5417258365
 11
16.8601303755
 21
54.4807395344
  0
LINE
  5
23F
100
AcDbEntity
  8
0
100
AcDbLine
 62
7
  6
CONTINUOUS
 10
20.7673207258
 20
52.2255393048
 11
22.0538993427
 21
51.482364437
  0
LINE
  5
240
100
AcDbEntity
  8
0
100
AcDbLine
 62
7
  6
CONTINUOUS
 10
26.5656204721
 20
48.8779651177
 11
27.852199089
 21
48.1347902499
  0
LINE
  5
241
100
AcDbEntity
  8
0
100
AcDbLine
 62
7
  6
CONTINUOUS
 10
28.3511508508
 20
47.8465774623
 11
28.934696094
 21
47.5095003858
  0
LINE
  5
242
100
AcDbEntity
  8
0
100
AcDbLine
 62
7
  6
CONTINUOUS
 10
32.3639202183
 20
45.5303909306
 11
33.6504988352
 21
44.7872160628
  0
LINE
  5
243
100
AcDbEntity
  8
0
100
AcDbLine
 62
7
  6
CONTINUOUS
 10
34.1494505971
 20
44.4990032752
 11
35.5019517114
 21
43.7177491617
  0
LINE
  5
244
100
AcDbEntity
  8
0
100
AcDbLine
 62
7
  6
CONTINUOUS
 10
16.753199627
 20
54.6717884936
 11
16.3675335409
 21
54.8945633313
  0
LINE
  5
245
100
AcDbEntity
  8
0
100
AcDbLine
 62
7
  6
CONTINUOUS
 10
22.427214115
 20
51.3960060176
 11
22.1658332871
 21
51.5469891442
  0
LINE
  5
246
100
AcDbEntity
  8
0
100
AcDbLine
 62
7
  6
CONTINUOUS
 10
28.3497991196
 20
47.9766401194
 11
27.9641330334
 21
48.1994149571
  0
LINE
  5
247
100
AcDbEntity
  8
0
100
AcDbLine
 62
7
  6
CONTINUOUS
 10
34.1480988658
 20
44.6290659323
 11
33.7624327797
 21
44.85184077
  0
LINE
  5
248
100
AcDbEntity
  8
0
100
AcDbLine
 62
7
  6
CONTINUOUS
 10
27.9264954518
 20
46.5888106261
 11
27.9179672453
 21
47.4093888112
  0
LINE
  5
249
100
AcDbEntity
  8
0
100
AcDbLine
 62
7
  6
CONTINUOUS
 10
27.0737849447
 20
69.7548591051
 11
27.0737849447
 21
69.9181577809
  0
LINE
  5
24A
100
AcDbEntity
  8
0
100
AcDbLine
 62
7
  6
CONTINUOUS
 10
27.2152068897
 20
69.6732109542
 11
27.2152068897
 21
69.83650963
  0
LINE
  5
24B
100
AcDbEntity
  8
0
100
AcDbLine
 62
7
  6
CONTINUOUS
 10
27.2669003584
 20
57.3740849919
 11
27.2669003584
 21
56.9062538356
  0
LINE
  5
24C
100
AcDbEntity
  8
0
100
AcDbLine
 62
7
  6
CONTINUOUS
 10
27.8325881385
 20
57.0474923883
 11
27.8325881385
 21
56.802544485
  0
LINE
  5
24D
100
AcDbEntity
  8
0
100
AcDbLine
 62
7
  6
CONTINUOUS
 10
26.565466131
 20
48.1906429247
 11
26.5656204721
 21
48.8779651177
  0
LINE
  5
24E
100
AcDbEntity
  8
0
100
AcDbLine
 62
7
  6
CONTINUOUS
 10
14.3893383976
 20
62.3579963468
 11
14.5245584488
 21
62.2652883024
  0
LINE
  5
24F
100
AcDbEntity
  8
0
100
AcDbLine
 62
7
  6
CONTINUOUS
 10
14.2022223026
 20
62.4868019838
 11
14.3893383976
 21
62.3579963468
  0
LINE
  5
250
100
AcDbEntity
  8
0
100
AcDbLine
 62
7
  6
CONTINUOUS
 10
28.3446645394
 20
48.4706859024
 11
28.3511508508
 21
47.8465774623
  0
LINE
  5
251
100
AcDbEntity
  8
0
100
AcDbLine
 62
7
  6
CONTINUOUS
 10
28.631024604
 20
47.2447892096
 11
28.6264228138
 21
47.687570308
  0
LINE
  5
252
100
AcDbEntity
  8
0
100
AcDbLine
 62
7
  6
CONTINUOUS
 10
30.0590812295
 20
39.9617511244
 11
30.0590812295
 21
40.8599037832
  0
LINE
  5
253
100
AcDbEntity
  8
0
100
AcDbLine
 62
7
  6
CONTINUOUS
 10
27.852199089
 20
48.1347902499
 11
27.861298661
 21
48.926853207
  0
LINE
  5
254
100
AcDbEntity
  8
0
100
AcDbLine
 62
7
  6
CONTINUOUS
 10
28.4169190072
 20
47.1211760236
 11
28.4078194352
 21
46.3291130665
  0
LINE
  5
255
100
AcDbEntity
  8
0
100
AcDbLine
 62
7
  6
CONTINUOUS
 10
12.8609919288
 20
62.5289351964
 11
46.0948722778
 21
81.7164104284
  0
LINE
  5
256
100
AcDbEntity
  8
0
100
AcDbLine
 62
7
  6
CONTINUOUS
 10
12.6873039127
 20
62.1837104799
 11
13.0731248463
 21
62.4064629701
  0
LINE
  5
257
100
AcDbEntity
  8
0
100
AcDbLine
 62
7
  6
CONTINUOUS
 10
14.2022223026
 20
62.4868019838
 11
27.0737849447
 21
69.9181577809
  0
LINE
  5
258
100
AcDbEntity
  8
0
100
AcDbLine
 62
7
  6
CONTINUOUS
 10
27.073783188
 20
69.7548591051
 11
14.4731928089
 21
62.4799482831
  0
LINE
  5
259
100
AcDbEntity
  8
0
100
AcDbLine
 62
7
  6
CONTINUOUS
 10
27.2152068897
 20
69.83650963
 11
45.8827481922
 21
80.6141552922
  0
LINE
  5
25A
100
AcDbEntity
  8
0
100
AcDbLine
 62
7
  6
CONTINUOUS
 10
45.9534568192
 20
80.4916810318
 11
27.215205133
 21
69.6732109542
  0
LINE
  5
25B
100
AcDbEntity
  8
0
100
AcDbLine
 62
7
  6
CONTINUOUS
 10
47.084825893
 20
81.1448733721
 11
52.8830773582
 21
84.4924754338
  0
LINE
  5
25C
100
AcDbEntity
  8
0
100
AcDbLine
 62
7
  6
CONTINUOUS
 10
56.2064665707
 20
86.2479259753
 11
55.6407835009
 21
85.9213306522
  0
LINE
  5
25D
100
AcDbEntity
  8
0
100
AcDbLine
 62
7
  6
CONTINUOUS
 10
46.5898579173
 20
80.2059145376
 11
53.4487651383
 21
84.1658828302
  0
LINE
  5
25E
100
AcDbEntity
  8
0
100
AcDbLine
 62
7
  6
CONTINUOUS
 10
46.6605665444
 20
80.0834402773
 11
54.4387087537
 21
84.5741259698
  0
LINE
  5
25F
100
AcDbEntity
  8
0
100
AcDbLine
 62
7
  6
CONTINUOUS
 10
54.7215544004
 20
84.5741283438
 11
56.347893226
 21
85.5130898977
  0
LINE
  5
260
100
AcDbEntity
  8
0
100
AcDbLine
 62
7
  6
CONTINUOUS
 10
55.4286641256
 20
84.1658875893
 11
56.9135821837
 21
85.0232003124
  0
LINE
  5
261
100
AcDbEntity
  8
0
100
AcDbLine
 62
7
  6
CONTINUOUS
 10
56.9842908108
 20
84.900726052
 11
55.4286623689
 21
84.0025889135
  0
LWPOLYLINE
  5
262
100
AcDbEntity
  8
0
100
AcDbPolyline
 62
7
  6
CONTINUOUS
 90
3
 70
0
 10
37.8626240533
 20
48.7947014526
 10
24.4962824347
 20
55.001168932
 10
12.6873039127
 20
62.1837104799
  0
LINE
  5
263
100
AcDbEntity
  8
0
100
AcDbLine
 62
7
  6
CONTINUOUS
 10
13.0731248463
 20
62.4064629701
 11
12.8609919288
 21
62.5289351964
  0
LINE
  5
264
100
AcDbEntity
  8
0
100
AcDbLine
 62
7
  6
CONTINUOUS
 10
14.2022223026
 20
62.4868019838
 11
14.5481330089
 21
62.2767689192
  0
LINE
  5
265
100
AcDbEntity
  8
0
100
AcDbLine
 62
7
  6
CONTINUOUS
 10
30.6825201045
 20
40.5666535907
 11
30.6825201045
 21
39.6685009319
  0
LINE
  5
266
100
AcDbEntity
  8
0
100
AcDbLine
 62
7
  6
CONTINUOUS
 10
33.0652001046
 20
54.0265108048
 11
33.0652001046
 21
53.5586796486
  0
LINE
  5
267
100
AcDbEntity
  8
0
100
AcDbLine
 62
7
  6
CONTINUOUS
 10
32.3637658773
 20
44.8430687376
 11
32.3639202183
 21
45.5303909306
  0
LINE
  5
268
100
AcDbEntity
  8
0
100
AcDbLine
 62
7
  6
CONTINUOUS
 10
59.6713042239
 20
84.2475462782
 11
58.9642003867
 21
83.8393021243
  0
LINE
  5
269
100
AcDbEntity
  8
0
100
AcDbLine
 62
7
  6
CONTINUOUS
 10
58.8934870687
 20
83.7984760148
 11
58.2570965495
 21
83.4310579704
  0
LINE
  5
26A
100
AcDbEntity
  8
0
100
AcDbLine
 62
7
  6
CONTINUOUS
 10
58.469229467
 20
83.3085857441
 11
59.8834371414
 21
84.1250740518
  0
LINE
  5
26B
100
AcDbEntity
  8
0
100
AcDbLine
 62
7
  6
CONTINUOUS
 10
12.0520303511
 20
56.3368555612
 11
11.062084979
 21
55.7653137458
  0
LINE
  5
26C
100
AcDbEntity
  8
0
100
AcDbLine
 62
7
  6
CONTINUOUS
 10
33.4378625661
 20
53.3435277435
 11
32.5893308959
 21
53.8334166489
  0
LINE
  5
26D
100
AcDbEntity
  8
0
100
AcDbLine
 62
7
  6
CONTINUOUS
 10
27.6395628199
 20
56.6911019306
 11
26.7910311497
 21
57.180990836
  0
LINE
  5
26E
100
AcDbEntity
  8
0
100
AcDbLine
 62
7
  6
CONTINUOUS
 10
21.8412630737
 20
60.0386761176
 11
20.9927314035
 21
60.5285650231
  0
LINE
  5
26F
100
AcDbEntity
  8
0
100
AcDbLine
 62
7
  6
CONTINUOUS
 10
33.6308878847
 20
53.6999182012
 11
33.0652001046
 21
54.0265108048
  0
LINE
  5
270
100
AcDbEntity
  8
0
100
AcDbLine
 62
7
  6
CONTINUOUS
 10
27.8325881385
 20
57.0474923883
 11
27.2669003584
 21
57.3740849919
  0
LINE
  5
271
100
AcDbEntity
  8
0
100
AcDbLine
 62
7
  6
CONTINUOUS
 10
22.0342883923
 20
60.3950665754
 11
21.4686006122
 21
60.721659179
  0
LINE
  5
272
100
AcDbEntity
  8
0
100
AcDbLine
 62
7
  6
CONTINUOUS
 10
33.7247951981
 20
43.241236439
 11
33.7162669915
 21
44.0618146241
  0
LINE
  5
273
100
AcDbEntity
  8
0
100
AcDbLine
 62
7
  6
CONTINUOUS
 10
34.1409223906
 20
45.3195814603
 11
34.1494505971
 21
44.4990032752
  0
LINE
  5
274
100
AcDbEntity
  8
0
100
AcDbLine
 62
7
  6
CONTINUOUS
 10
34.4293243503
 20
43.8972150225
 11
34.42472256
 21
44.3399961209
  0
LINE
  5
275
100
AcDbEntity
  8
0
100
AcDbLine
 62
7
  6
CONTINUOUS
 10
33.6308878847
 20
53.6999182012
 11
33.6308878847
 21
53.454970298
  0
LINE
  5
276
100
AcDbEntity
  8
0
100
AcDbLine
 62
7
  6
CONTINUOUS
 10
34.0034420082
 20
67.8769666314
 11
34.0034420082
 21
68.0402574543
  0
LINE
  5
277
100
AcDbEntity
  8
0
100
AcDbLine
 62
7
  6
CONTINUOUS
 10
34.4984235165
 20
67.5911953894
 11
34.4984235165
 21
67.3462474861
  0
LINE
  5
278
100
AcDbEntity
  8
0
100
AcDbLine
 62
7
  6
CONTINUOUS
 10
35.5019517114
 20
43.7177491617
 11
35.5017973704
 21
43.0304269687
  0
LINE
  5
279
100
AcDbEntity
  8
0
100
AcDbLine
 62
7
  6
CONTINUOUS
 10
33.6504988352
 20
44.7872160628
 11
33.6595984073
 21
45.5792790199
  0
LINE
  5
27A
100
AcDbEntity
  8
0
100
AcDbLine
 62
7
  6
CONTINUOUS
 10
34.2152187535
 20
43.7736018365
 11
34.2061191814
 21
42.9815388794
  0
LINE
  5
27B
100
AcDbEntity
  8
0
100
AcDbLine
 62
7
  6
CONTINUOUS
 10
20.9927314035
 20
60.5285650231
 11
34.0034420082
 21
68.0402574543
  0
LINE
  5
27C
100
AcDbEntity
  8
0
100
AcDbLine
 62
7
  6
CONTINUOUS
 10
21.4686006122
 20
60.721659179
 11
33.9327357364
 21
67.917787993
  0
LINE
  5
27D
100
AcDbEntity
  8
0
100
AcDbLine
 62
7
  6
CONTINUOUS
 10
34.4984235165
 20
67.5911953894
 11
22.0342883923
 21
60.3950665754
  0
LINE
  5
27E
100
AcDbEntity
  8
0
100
AcDbLine
 62
7
  6
CONTINUOUS
 10
34.8519736784
 20
67.5503685489
 11
21.8412630737
 21
60.0386761176
  0
LINE
  5
27F
100
AcDbEntity
  8
0
100
AcDbLine
 62
7
  6
CONTINUOUS
 10
60.8734025325
 20
81.9205671787
 11
62.2876102069
 21
82.7370554865
  0
LINE
  5
280
100
AcDbEntity
  8
0
100
AcDbLine
 62
7
  6
CONTINUOUS
 10
61.08553545
 20
81.7980949524
 11
61.7219259693
 21
82.1655129967
  0
LINE
  5
281
100
AcDbEntity
  8
0
100
AcDbLine
 62
7
  6
CONTINUOUS
 10
61.7926392873
 20
82.2063391062
 11
62.4997431245
 21
82.6145832601
  0
LINE
  5
282
100
AcDbEntity
  8
0
100
AcDbLine
 62
7
  6
CONTINUOUS
 10
15.5640365313
 20
55.2294107456
 11
14.9688666385
 21
54.8857912989
  0
LINE
  5
283
100
AcDbEntity
  8
0
100
AcDbLine
 62
7
  6
CONTINUOUS
 10
37.6734587008
 20
50.0735175605
 11
37.6734587008
 21
49.933748447
  0
LINE
  5
284
100
AcDbEntity
  8
0
100
AcDbLine
 62
7
  6
CONTINUOUS
 10
37.8626240533
 20
48.7947014526
 11
37.8626240533
 21
37.4453178545
  0
LINE
  5
285
100
AcDbEntity
  8
0
100
AcDbLine
 62
7
  6
CONTINUOUS
 10
13.5720047752
 20
48.4011264886
 11
13.5619331562
 21
48.3942763743
  0
LINE
  5
286
100
AcDbEntity
  8
0
100
AcDbLine
 62
7
  6
CONTINUOUS
 10
14.5518783009
 20
48.9658185883
 11
14.5619501473
 21
48.972668304
  0
LINE
  5
287
100
AcDbEntity
  8
0
100
AcDbLine
 62
7
  6
CONTINUOUS
 10
16.5886360404
 20
55.0222161569
 11
16.2555995965
 21
54.8299386241
  0
LINE
  5
288
100
AcDbEntity
  8
0
100
AcDbLine
 62
7
  6
CONTINUOUS
 10
16.9165376456
 20
54.4481566321
 11
16.3213677528
 21
54.1045371854
  0
LINE
  5
289
100
AcDbEntity
  8
0
100
AcDbLine
 62
7
  6
CONTINUOUS
 10
12.4721003424
 20
51.6082155118
 11
11.6589101064
 21
51.1387227126
  0
LINE
  5
28A
100
AcDbEntity
  8
0
100
AcDbLine
 62
7
  6
CONTINUOUS
 10
17.1095417146
 20
53.9833059161
 11
16.8203195146
 21
53.8163243978
  0
LINE
  5
28B
100
AcDbEntity
  8
0
100
AcDbLine
 62
7
  6
CONTINUOUS
 10
16.3298959593
 20
53.2839590003
 11
16.8174372361
 21
53.5654394074
  0
LINE
  5
28C
100
AcDbEntity
  8
0
100
AcDbLine
 62
7
  6
CONTINUOUS
 10
11.0932223262
 20
50.0277075882
 11
12.0831676983
 21
50.5992494036
  0
LINE
  5
28D
100
AcDbEntity
  8
0
100
AcDbLine
 62
7
  6
CONTINUOUS
 10
12.0417453056
 20
50.5076922153
 11
11.0517999335
 21
49.9361503999
  0
LINE
  5
28E
100
AcDbEntity
  8
0
100
AcDbLine
 62
7
  6
CONTINUOUS
 10
39.8017417544
 20
64.5293924444
 11
39.8017417544
 21
64.6926832672
  0
LINE
  5
28F
100
AcDbEntity
  8
0
100
AcDbLine
 62
7
  6
CONTINUOUS
 10
40.2967232627
 20
64.2436212023
 11
40.2967232627
 21
63.9986732991
  0
LINE
  5
290
100
AcDbEntity
  8
0
100
AcDbLine
 62
7
  6
CONTINUOUS
 10
26.7910311497
 20
57.180990836
 11
39.8017417544
 21
64.6926832672
  0
LINE
  5
291
100
AcDbEntity
  8
0
100
AcDbLine
 62
7
  6
CONTINUOUS
 10
27.2669003584
 20
57.3740849919
 11
39.7310354826
 21
64.570213806
  0
LINE
  5
292
100
AcDbEntity
  8
0
100
AcDbLine
 62
7
  6
CONTINUOUS
 10
40.2967232627
 20
64.2436212023
 11
27.8325881385
 21
57.0474923883
  0
LINE
  5
293
100
AcDbEntity
  8
0
100
AcDbLine
 62
7
  6
CONTINUOUS
 10
40.6502734246
 20
64.2027943618
 11
27.6395628199
 21
56.6911019306
  0
LINE
  5
294
100
AcDbEntity
  8
0
100
AcDbLine
 62
7
  6
CONTINUOUS
 10
14.5619501473
 20
48.972668304
 11
13.5720047752
 21
48.4011264886
  0
LINE
  5
295
100
AcDbEntity
  8
0
100
AcDbLine
 62
7
  6
CONTINUOUS
 10
14.5519848299
 20
48.9656333749
 11
13.5620394578
 21
48.3940915595
  0
LINE
  5
296
100
AcDbEntity
  8
0
100
AcDbLine
 62
7
  6
CONTINUOUS
 10
21.3623362775
 20
51.8818365585
 11
20.7671663847
 21
51.5382171118
  0
LINE
  5
297
100
AcDbEntity
  8
0
100
AcDbLine
 62
7
  6
CONTINUOUS
 10
22.3021403599
 20
51.6256855996
 11
22.0538993427
 21
51.482364437
  0
LINE
  5
298
100
AcDbEntity
  8
0
100
AcDbLine
 62
7
  6
CONTINUOUS
 10
22.6338638468
 20
51.0538326261
 11
22.119667499
 21
50.7569629983
  0
LINE
  5
299
100
AcDbEntity
  8
0
100
AcDbLine
 62
7
  6
CONTINUOUS
 10
22.8571610755
 20
50.6064715695
 11
22.6186192609
 21
50.4687502107
  0
LINE
  5
29A
100
AcDbEntity
  8
0
100
AcDbLine
 62
7
  6
CONTINUOUS
 10
22.1281957055
 20
49.9363848132
 11
22.6157369824
 21
50.2178652205
  0
LINE
  5
29B
100
AcDbEntity
  8
0
100
AcDbLine
 62
7
  6
CONTINUOUS
 10
70.277961877
 20
76.4909651436
 11
70.9143523962
 21
76.858383188
  0
LINE
  5
29C
100
AcDbEntity
  8
0
100
AcDbLine
 62
7
  6
CONTINUOUS
 10
70.9850657142
 20
76.8992092975
 11
71.6921695514
 21
77.3074534513
  0
LINE
  5
29D
100
AcDbEntity
  8
0
100
AcDbLine
 62
7
  6
CONTINUOUS
 10
27.215205133
 20
69.6732109542
 11
27.073783188
 21
69.7548591051
  0
LINE
  5
29E
100
AcDbEntity
  8
0
100
AcDbLine
 62
7
  6
CONTINUOUS
 10
49.4184534369
 20
56.8544529563
 11
48.6406327393
 21
57.3035177863
  0
LINE
  5
29F
100
AcDbEntity
  8
0
100
AcDbLine
 62
7
  6
CONTINUOUS
 10
27.0737849447
 20
69.9181577809
 11
27.2152068897
 21
69.83650963
  0
LINE
  5
2A0
100
AcDbEntity
  8
0
100
AcDbLine
 62
7
  6
CONTINUOUS
 10
48.9234754517
 20
57.3035184662
 11
49.7012961494
 21
56.8544536362
  0
LINE
  5
2A1
100
AcDbEntity
  8
0
100
AcDbLine
 62
7
  6
CONTINUOUS
 10
50.6912421103
 20
57.3443469608
 11
51.6811957255
 21
56.7728099045
  0
LINE
  5
2A2
100
AcDbEntity
  8
0
100
AcDbLine
 62
7
  6
CONTINUOUS
 10
33.9327357364
 20
67.917787993
 11
34.4984235165
 21
67.5911953894
  0
LINE
  5
2A3
100
AcDbEntity
  8
0
100
AcDbLine
 62
7
  6
CONTINUOUS
 10
39.7310354826
 20
64.570213806
 11
40.2967232627
 21
64.2436212023
  0
LINE
  5
2A4
100
AcDbEntity
  8
0
100
AcDbLine
 62
7
  6
CONTINUOUS
 10
45.5293352288
 20
61.2226396189
 11
46.0950230089
 21
60.8960470153
  0
LINE
  5
2A5
100
AcDbEntity
  8
0
100
AcDbLine
 62
7
  6
CONTINUOUS
 10
34.0034420082
 20
68.0402574543
 11
34.8519736784
 21
67.5503685489
  0
LINE
  5
2A6
100
AcDbEntity
  8
0
100
AcDbLine
 62
7
  6
CONTINUOUS
 10
39.8017417544
 20
64.6926832672
 11
40.6502734246
 21
64.2027943618
  0
LINE
  5
2A7
100
AcDbEntity
  8
0
100
AcDbLine
 62
7
  6
CONTINUOUS
 10
45.6000415006
 20
61.3451090802
 11
46.4485731708
 21
60.8552201747
  0
LINE
  5
2A8
100
AcDbEntity
  8
0
100
AcDbLine
 62
7
  6
CONTINUOUS
 10
45.6000415006
 20
61.1818182573
 11
45.6000415006
 21
61.3451090802
  0
LINE
  5
2A9
100
AcDbEntity
  8
0
100
AcDbLine
 62
7
  6
CONTINUOUS
 10
45.8827481922
 20
80.4508576306
 11
45.8827481922
 21
80.6141552922
  0
LINE
  5
2AA
100
AcDbEntity
  8
0
100
AcDbLine
 62
7
  6
CONTINUOUS
 10
46.0950230089
 20
60.8960470153
 11
46.0950230089
 21
60.651099112
  0
LINE
  5
2AB
100
AcDbEntity
  8
0
100
AcDbLine
 62
7
  6
CONTINUOUS
 10
46.5898579173
 20
80.1242629986
 11
46.5898579173
 21
80.2059145376
  0
LINE
  5
2AC
100
AcDbEntity
  8
0
100
AcDbLine
 62
7
  6
CONTINUOUS
 10
70.4900947945
 20
76.3684929172
 11
71.9043024689
 21
77.184981225
  0
LINE
  5
2AD
100
AcDbEntity
  8
0
100
AcDbLine
 62
7
  6
CONTINUOUS
 10
18.6134497133
 20
46.0908697337
 11
19.3805469912
 21
46.53375091
  0
LINE
  5
2AE
100
AcDbEntity
  8
0
100
AcDbLine
 62
7
  6
CONTINUOUS
 10
32.5893308959
 20
53.8334166489
 11
45.6000415006
 21
61.3451090802
  0
LINE
  5
2AF
100
AcDbEntity
  8
0
100
AcDbLine
 62
7
  6
CONTINUOUS
 10
33.0652001046
 20
54.0265108048
 11
45.5293352288
 21
61.2226396189
  0
LINE
  5
2B0
100
AcDbEntity
  8
0
100
AcDbLine
 62
7
  6
CONTINUOUS
 10
46.0950230089
 20
60.8960470153
 11
33.6308878847
 21
53.6999182012
  0
LINE
  5
2B1
100
AcDbEntity
  8
0
100
AcDbLine
 62
7
  6
CONTINUOUS
 10
46.4485731708
 20
60.8552201747
 11
33.4378625661
 21
53.3435277435
  0
LINE
  5
2B2
100
AcDbEntity
  8
0
100
AcDbLine
 62
7
  6
CONTINUOUS
 10
72.89426786
 20
74.9804743519
 11
74.3084755344
 21
75.7969626596
  0
LINE
  5
2B3
100
AcDbEntity
  8
0
100
AcDbLine
 62
7
  6
CONTINUOUS
 10
27.1606360237
 20
48.5342623714
 11
26.565466131
 21
48.1906429247
  0
LINE
  5
2B4
100
AcDbEntity
  8
0
100
AcDbLine
 62
7
  6
CONTINUOUS
 10
73.1064007775
 20
74.8580021255
 11
73.7427912968
 21
75.2254201699
  0
LINE
  5
2B5
100
AcDbEntity
  8
0
100
AcDbLine
 62
7
  6
CONTINUOUS
 10
73.8135046148
 20
75.2662462794
 11
74.520608452
 21
75.6744904333
  0
LINE
  5
2B6
100
AcDbEntity
  8
0
100
AcDbLine
 62
7
  6
CONTINUOUS
 10
48.9234754517
 20
57.1402221644
 11
48.9234754517
 21
57.3035184662
  0
LINE
  5
2B7
100
AcDbEntity
  8
0
100
AcDbLine
 62
7
  6
CONTINUOUS
 10
49.4184534369
 20
56.6911552948
 11
49.4184534369
 21
56.8544529563
  0
LINE
  5
2B8
100
AcDbEntity
  8
0
100
AcDbLine
 62
7
  6
CONTINUOUS
 10
28.3451973294
 20
48.4194212177
 11
27.852199089
 21
48.1347902499
  0
LINE
  5
2B9
100
AcDbEntity
  8
0
100
AcDbLine
 62
7
  6
CONTINUOUS
 10
28.513137138
 20
47.7530082579
 11
27.9179672453
 21
47.4093888112
  0
LINE
  5
2BA
100
AcDbEntity
  8
0
100
AcDbLine
 62
7
  6
CONTINUOUS
 10
28.9722253795
 20
47.4417803934
 11
28.4169190072
 21
47.1211760236
  0
LINE
  5
2BB
100
AcDbEntity
  8
0
100
AcDbLine
 62
7
  6
CONTINUOUS
 10
27.9264954518
 20
46.5888106261
 11
28.4140367287
 21
46.8702910333
  0
LINE
  5
2BC
100
AcDbEntity
  8
0
100
AcDbLine
 62
7
  6
CONTINUOUS
 10
62.4998725703
 20
57.4258772983
 11
62.6412969592
 21
57.3442277365
  0
LINE
  5
2BD
100
AcDbEntity
  8
0
100
AcDbLine
 62
7
  6
CONTINUOUS
 10
51.6811957255
 20
45.4234263064
 11
51.6811957255
 21
56.7728099045
  0
LINE
  5
2BE
100
AcDbEntity
  8
0
100
AcDbLine
 62
7
  6
CONTINUOUS
 10
48.6406327393
 20
57.3035177863
 11
76.7126521424
 21
73.5108090009
  0
LINE
  5
2BF
100
AcDbEntity
  8
0
100
AcDbLine
 62
7
  6
CONTINUOUS
 10
76.9247874054
 20
73.4699869595
 11
48.9234754517
 21
57.3035184662
  0
LINE
  5
2C0
100
AcDbEntity
  8
0
100
AcDbLine
 62
7
  6
CONTINUOUS
 10
24.4616063487
 20
42.7720802633
 11
25.2785946625
 21
43.2437658706
  0
LINE
  5
2C1
100
AcDbEntity
  8
0
100
AcDbLine
 62
7
  6
CONTINUOUS
 10
37.6734587008
 20
50.0735175605
 11
49.4184534369
 21
56.8544529563
  0
LINE
  5
2C2
100
AcDbEntity
  8
0
100
AcDbLine
 62
7
  6
CONTINUOUS
 10
49.7012961494
 20
56.8544536362
 11
37.6959151657
 21
49.9231850677
  0
LINE
  5
2C3
100
AcDbEntity
  8
0
100
AcDbLine
 62
7
  6
CONTINUOUS
 10
78.4804229128
 20
73.3883422079
 11
50.6912421103
 21
57.3443469608
  0
LINE
  5
2C4
100
AcDbEntity
  8
0
100
AcDbLine
 62
7
  6
CONTINUOUS
 10
51.6811957255
 20
56.7728099045
 11
37.8626240533
 21
48.7947014526
  0
LINE
  5
2C5
100
AcDbEntity
  8
0
100
AcDbLine
 62
7
  6
CONTINUOUS
 10
32.95893577
 20
45.1866881843
 11
32.3637658773
 21
44.8430687376
  0
LINE
  5
2C6
100
AcDbEntity
  8
0
100
AcDbLine
 62
7
  6
CONTINUOUS
 10
53.4487651383
 20
84.0025851686
 11
53.4487651383
 21
84.1658828302
  0
LINE
  5
2C7
100
AcDbEntity
  8
0
100
AcDbLine
 62
7
  6
CONTINUOUS
 10
54.7215544004
 20
84.4108286538
 11
54.7215544004
 21
84.5741283438
  0
LINE
  5
2C8
100
AcDbEntity
  8
0
100
AcDbLine
 62
7
  6
CONTINUOUS
 10
55.4286641256
 20
84.0025889135
 11
55.4286641256
 21
84.1658875893
  0
LINE
  5
2C9
100
AcDbEntity
  8
0
100
AcDbLine
 62
7
  6
CONTINUOUS
 10
55.6407835009
 20
85.9213306522
 11
55.6407835009
 21
85.1048423445
  0
LINE
  5
2CA
100
AcDbEntity
  8
0
100
AcDbLine
 62
7
  6
CONTINUOUS
 10
34.1434970756
 20
45.0718470306
 11
33.6504988352
 21
44.7872160628
  0
LINE
  5
2CB
100
AcDbEntity
  8
0
100
AcDbLine
 62
7
  6
CONTINUOUS
 10
34.3114368843
 20
44.4054340708
 11
33.7162669915
 21
44.0618146241
  0
LINE
  5
2CC
100
AcDbEntity
  8
0
100
AcDbLine
 62
7
  6
CONTINUOUS
 10
34.8103886462
 20
44.1172212831
 11
34.2152187535
 21
43.7736018365
  0
LINE
  5
2CD
100
AcDbEntity
  8
0
100
AcDbLine
 62
7
  6
CONTINUOUS
 10
33.7247951981
 20
43.241236439
 11
34.212336475
 21
43.5227168462
  0
LINE
  5
2CE
100
AcDbEntity
  8
0
100
AcDbLine
 62
7
  6
CONTINUOUS
 10
56.9135821837
 20
84.8599026509
 11
56.9135821837
 21
85.0232003124
  0
LINE
  5
2CF
100
AcDbEntity
  8
0
100
AcDbLine
 62
7
  6
CONTINUOUS
 10
76.8540840872
 20
66.774688855
 11
78.1268709942
 21
67.509528332
  0
LINE
  5
2D0
100
AcDbEntity
  8
0
100
AcDbLine
 62
7
  6
CONTINUOUS
 10
30.6825201045
 20
39.6685009319
 11
31.551450474
 21
40.1701751201
  0
LINE
  5
2D1
100
AcDbEntity
  8
0
100
AcDbLine
 62
7
  6
CONTINUOUS
 10
51.6811957255
 20
51.179748594
 11
62.6412969592
 21
57.5075282199
  0
LINE
  5
2D2
100
AcDbEntity
  8
0
100
AcDbLine
 62
7
  6
CONTINUOUS
 10
76.8540840872
 20
65.5499352293
 11
62.6412969592
 21
57.3442277365
  0
LINE
  5
2D3
100
AcDbEntity
  8
0
100
AcDbLine
 62
7
  6
CONTINUOUS
 10
61.3684994539
 20
56.2419306561
 11
75.5812865819
 21
64.4476381489
  0
LINE
  5
2D4
100
AcDbEntity
  8
0
100
AcDbLine
 62
7
  6
CONTINUOUS
 10
51.6811957255
 20
49.9549949683
 11
61.3685100522
 21
55.5479351172
  0
LINE
  5
2D5
100
AcDbEntity
  8
0
100
AcDbLine
 62
7
  6
CONTINUOUS
 10
58.8934870687
 20
83.5535295225
 11
58.8934870687
 21
83.7984760148
  0
LINE
  5
2D6
100
AcDbEntity
  8
0
100
AcDbLine
 62
7
  6
CONTINUOUS
 10
58.9642003867
 20
83.594355632
 11
58.9642003867
 21
83.8393021243
  0
LINE
  5
2D7
100
AcDbEntity
  8
0
100
AcDbLine
 62
7
  6
CONTINUOUS
 10
59.6713042239
 20
84.0025997859
 11
59.6713042239
 21
84.2475462782
  0
LINE
  5
2D8
100
AcDbEntity
  8
0
100
AcDbLine
 62
7
  6
CONTINUOUS
 10
61.3685012202
 20
56.7726836438
 11
61.3685100522
 21
54.772257821
  0
LINE
  5
2D9
100
AcDbEntity
  8
0
100
AcDbLine
 62
7
  6
CONTINUOUS
 10
51.6811957255
 20
49.1793176721
 11
61.3685100522
 21
54.772257821
  0
LINE
  5
2DA
100
AcDbEntity
  8
0
100
AcDbLine
 62
7
  6
CONTINUOUS
 10
46.6605665444
 20
80.0834402773
 11
45.9534568192
 21
80.4916810318
  0
LINE
  5
2DB
100
AcDbEntity
  8
0
100
AcDbLine
 62
7
  6
CONTINUOUS
 10
45.8827481922
 20
80.6141552922
 11
46.5898579173
 21
80.2059145376
  0
LINE
  5
2DC
100
AcDbEntity
  8
0
100
AcDbLine
 62
7
  6
CONTINUOUS
 10
61.7926392873
 20
82.1246875672
 11
61.7926392873
 21
82.2063391062
  0
LINE
  5
2DD
100
AcDbEntity
  8
0
100
AcDbLine
 62
7
  6
CONTINUOUS
 10
62.2876102069
 20
82.4921089941
 11
62.2876102069
 21
82.7370554865
  0
LINE
  5
2DE
100
AcDbEntity
  8
0
100
AcDbLine
 62
7
  6
CONTINUOUS
 10
62.6412969592
 20
57.5075282199
 11
62.6412969592
 21
57.3442277365
  0
LINE
  5
2DF
100
AcDbEntity
  8
0
100
AcDbLine
 62
7
  6
CONTINUOUS
 10
51.6811957255
 20
45.4234263064
 11
37.8626240533
 21
37.4453178545
  0
LINE
  5
2E0
100
AcDbEntity
  8
0
100
AcDbLine
 62
7
  6
CONTINUOUS
 10
47.084825893
 20
81.1448733721
 11
46.0948722778
 21
81.7164104284
  0
LINE
  5
2E1
100
AcDbEntity
  8
0
100
AcDbLine
 62
7
  6
CONTINUOUS
 10
52.8830773582
 20
84.4924754338
 11
53.4487651383
 21
84.1658828302
  0
LINE
  5
2E2
100
AcDbEntity
  8
0
100
AcDbLine
 62
7
  6
CONTINUOUS
 10
54.4387087537
 20
84.5741259698
 11
55.4286623689
 21
84.0025889135
  0
LINE
  5
2E3
100
AcDbEntity
  8
0
100
AcDbLine
 62
7
  6
CONTINUOUS
 10
54.7215544004
 20
84.5741283438
 11
55.4286641256
 21
84.1658875893
  0
LINE
  5
2E4
100
AcDbEntity
  8
0
100
AcDbLine
 62
7
  6
CONTINUOUS
 10
70.9143523962
 20
76.6134366957
 11
70.9143523962
 21
76.858383188
  0
LINE
  5
2E5
100
AcDbEntity
  8
0
100
AcDbLine
 62
7
  6
CONTINUOUS
 10
70.9850657142
 20
76.6542628051
 11
70.9850657142
 21
76.8992092975
  0
LINE
  5
2E6
100
AcDbEntity
  8
0
100
AcDbLine
 62
7
  6
CONTINUOUS
 10
71.6921695514
 20
77.062506959
 11
71.6921695514
 21
77.3074534513
  0
LINE
  5
2E7
100
AcDbEntity
  8
0
100
AcDbLine
 62
7
  6
CONTINUOUS
 10
78.4804229128
 20
68.1219016175
 11
78.1268709942
 21
67.509528332
  0
LINE
  5
2E8
100
AcDbEntity
  8
0
100
AcDbLine
 62
7
  6
CONTINUOUS
 10
58.2570965495
 20
83.4310579704
 11
58.469229467
 21
83.3085857441
  0
LINE
  5
2E9
100
AcDbEntity
  8
0
100
AcDbLine
 62
7
  6
CONTINUOUS
 10
60.8734025325
 20
81.9205671787
 11
61.08553545
 21
81.7980949524
  0
LINE
  5
2EA
100
AcDbEntity
  8
0
100
AcDbLine
 62
7
  6
CONTINUOUS
 10
70.277961877
 20
76.4909651436
 11
70.4900947945
 21
76.3684929172
  0
LINE
  5
2EB
100
AcDbEntity
  8
0
100
AcDbLine
 62
7
  6
CONTINUOUS
 10
72.89426786
 20
74.9804743519
 11
73.1064007775
 21
74.8580021255
  0
LINE
  5
2EC
100
AcDbEntity
  8
0
100
AcDbLine
 62
7
  6
CONTINUOUS
 10
76.7126521424
 20
73.5108090009
 11
73.7427912968
 21
75.2254201699
  0
LINE
  5
2ED
100
AcDbEntity
  8
0
100
AcDbLine
 62
7
  6
CONTINUOUS
 10
70.9143523962
 20
76.858383188
 11
61.7219259693
 21
82.1655129967
  0
LINE
  5
2EE
100
AcDbEntity
  8
0
100
AcDbLine
 62
7
  6
CONTINUOUS
 10
58.8934870687
 20
83.7984760148
 11
56.9842908108
 21
84.900726052
  0
LINE
  5
2EF
100
AcDbEntity
  8
0
100
AcDbLine
 62
7
  6
CONTINUOUS
 10
56.9135821837
 20
85.0232003124
 11
58.9642003867
 21
83.8393021243
  0
LINE
  5
2F0
100
AcDbEntity
  8
0
100
AcDbLine
 62
7
  6
CONTINUOUS
 10
61.7926392873
 20
82.2063391062
 11
70.9850657142
 21
76.8992092975
  0
LINE
  5
2F1
100
AcDbEntity
  8
0
100
AcDbLine
 62
7
  6
CONTINUOUS
 10
73.8135046148
 20
75.2662462794
 11
76.9247874054
 21
73.4699869595
  0
LINE
  5
2F2
100
AcDbEntity
  8
0
100
AcDbLine
 62
7
  6
CONTINUOUS
 10
55.6407835009
 20
85.9213306522
 11
56.347893226
 21
85.5130898977
  0
LINE
  5
2F3
100
AcDbEntity
  8
0
100
AcDbLine
 62
7
  6
CONTINUOUS
 10
56.2064665707
 20
86.2479259753
 11
59.6713042239
 21
84.2475462782
  0
LINE
  5
2F4
100
AcDbEntity
  8
0
100
AcDbLine
 62
7
  6
CONTINUOUS
 10
59.8834371414
 20
84.1250740518
 11
62.2876102069
 21
82.7370554865
  0
LINE
  5
2F5
100
AcDbEntity
  8
0
100
AcDbLine
 62
7
  6
CONTINUOUS
 10
62.4997431245
 20
82.6145832601
 11
71.6921695514
 21
77.3074534513
  0
LINE
  5
2F6
100
AcDbEntity
  8
0
100
AcDbLine
 62
7
  6
CONTINUOUS
 10
71.9043024689
 20
77.184981225
 11
74.3084755344
 21
75.7969626596
  0
LINE
  5
2F7
100
AcDbEntity
  8
0
100
AcDbLine
 62
7
  6
CONTINUOUS
 10
74.520608452
 20
75.6744904333
 11
78.4804229128
 21
73.3883422079
  0
LINE
  5
2F8
100
AcDbEntity
  8
0
100
AcDbLine
 62
7
  6
CONTINUOUS
 10
73.8135046148
 20
75.1845947403
 11
73.8135046148
 21
75.2662462794
  0
LINE
  5
2F9
100
AcDbEntity
  8
0
100
AcDbLine
 62
7
  6
CONTINUOUS
 10
74.3084755344
 20
75.5520161673
 11
74.3084755344
 21
75.7969626596
  0
LINE
  5
2FA
100
AcDbEntity
  8
0
100
AcDbLine
 62
7
  6
CONTINUOUS
 10
75.5812865819
 20
64.4476381489
 11
75.5812865819
 21
64.8150896334
  0
LINE
  5
2FB
100
AcDbEntity
  8
0
100
AcDbLine
 62
7
  6
CONTINUOUS
 10
76.7126521424
 20
73.3475113394
 11
76.7126521424
 21
73.5108090009
  0
LINE
  5
2FC
100
AcDbEntity
  8
0
100
AcDbLine
 62
7
  6
CONTINUOUS
 10
76.8540840872
 20
66.774688855
 11
76.8540840872
 21
65.5499352293
  0
LINE
  5
2FD
100
AcDbEntity
  8
0
100
AcDbLine
 62
7
  6
CONTINUOUS
 10
78.4804229128
 20
73.3883422079
 11
78.4804229128
 21
68.1219016175
  0
ARC
  5
2FE
100
AcDbEntity
  8
0
100
AcDbCircle
 62
7
  6
CONTINUOUS
 10
89.6740495032
 20
165.8916016122
 40
139.3279285934
100
AcDbArc
 50
244.6672082665
 51
244.9505310939
  0
ARC
  5
2FF
100
AcDbEntity
  8
0
100
AcDbCircle
 62
7
  6
CONTINUOUS
 10
78.56611023
 20
145.1783058781
 40
115.8129591398
100
AcDbArc
 50
238.5050988949
 51
238.8240462507
  0
ARC
  5
300
100
AcDbEntity
  8
0
100
AcDbCircle
 62
7
  6
CONTINUOUS
 10
13.9284833539
 20
24.708334221
 40
21.6910184721
100
AcDbArc
 50
60.9483106701
 51
62.7070481529
  0
ARC
  5
301
100
AcDbEntity
  8
0
100
AcDbCircle
 62
7
  6
CONTINUOUS
 10
13.9284958164
 20
23.8102047844
 40
21.6909921203
100
AcDbArc
 50
60.9483162306
 51
62.7070425365
  0
ARC
  5
302
100
AcDbEntity
  8
0
100
AcDbCircle
 62
7
  6
CONTINUOUS
 10
27.6317272757
 20
48.0392719518
 40
0.9167897826
100
AcDbArc
 50
72.503483365
 51
75.4983503068
  0
SPLINE
  5
303
100
AcDbEntity
  8
0
100
AcDbSpline
 62
7
  6
CONTINUOUS
 70
0
 71
3
 72
13
 73
9
 74
0
 42
0.0000001
 43
0.0000001
 44
0.0000000001
 40
0.0
 40
0.0
 40
0.0
 40
0.0
 40
0.1127279081
 40
0.2264430863
 40
0.3427049816
 40
0.4628820441
 40
0.7188095343
 40
1.0
 40
1.0
 40
1.0
 40
1.0
 10
28.6494289673
 20
45.0284666877
 30
0.0
 10
28.696353001
 20
45.0554959659
 30
0.0
 10
28.7864739176
 20
45.1173782385
 30
0.0
 10
28.9062049716
 20
45.2312889613
 30
0.0
 10
29.0094967571
 20
45.3648457011
 30
0.0
 10
29.1261758406
 20
45.5714061731
 30
0.0
 10
29.2235899272
 20
45.8753992023
 30
0.0
 10
29.2462610965
 20
46.1343493778
 30
0.0
 10
29.2462610965
 20
46.2694272515
 30
0.0
  0
SPLINE
  5
304
100
AcDbEntity
  8
0
100
AcDbSpline
 62
7
  6
CONTINUOUS
 70
0
 71
3
 72
11
 73
7
 74
0
 42
0.0000001
 43
0.0000001
 44
0.0000000001
 40
0.0
 40
0.0
 40
0.0
 40
0.0
 40
0.228533848
 40
0.474640565
 40
0.733628861
 40
1.0
 40
1.0
 40
1.0
 40
1.0
 10
23.1097371845
 20
49.4217287925
 30
0.0
 10
23.1097371845
 20
49.5651115924
 30
0.0
 10
23.0835782448
 20
49.8631868342
 30
0.0
 10
22.9789280032
 20
50.3126686142
 30
0.0
 10
22.8113746654
 20
50.7679419499
 30
0.0
 10
22.6627579922
 20
51.0630546434
 30
0.0
 10
22.5794366346
 20
51.2079246645
 30
0.0
  0
SPLINE
  5
305
100
AcDbEntity
  8
0
100
AcDbSpline
 62
7
  6
CONTINUOUS
 70
0
 71
3
 72
16
 73
12
 74
0
 42
0.0000001
 43
0.0000001
 44
0.0000000001
 40
0.0
 40
0.0
 40
0.0
 40
0.0
 40
0.1548059426
 40
0.3062494564
 40
0.4504997823
 40
0.5842957471
 40
0.7054826387
 40
0.8134793337
 40
0.9100087126
 40
0.9554717879
 40
1.0
 40
1.0
 40
1.0
 40
1.0
 10
22.5794366346
 20
51.2079246645
 30
0.0
 10
22.4919547952
 20
51.3600284741
 30
0.0
 10
22.301340085
 20
51.6512127565
 30
0.0
 10
21.9737994109
 20
52.044412861
 30
0.0
 10
21.6177522
 20
52.3784163603
 30
0.0
 10
21.2467515575
 20
52.640440509
 30
0.0
 10
20.8743537891
 20
52.8205961655
 30
0.0
 10
20.5133705197
 20
52.9118001865
 30
0.0
 10
20.2254497336
 20
52.9065647048
 30
0.0
 10
20.02051183
 20
52.8512347349
 30
0.0
 10
19.9274161718
 20
52.8080689266
 30
0.0
 10
19.8836745274
 20
52.7828895324
 30
0.0
  0
SPLINE
  5
306
100
AcDbEntity
  8
0
100
AcDbSpline
 62
7
  6
CONTINUOUS
 70
0
 71
3
 72
11
 73
7
 74
0
 42
0.0000001
 43
0.0000001
 44
0.0000000001
 40
0.0
 40
0.0
 40
0.0
 40
0.0
 40
0.2283300628
 40
0.4747517805
 40
0.733964089
 40
1.0
 40
1.0
 40
1.0
 40
1.0
 10
17.3454295949
 20
52.7889282367
 30
0.0
 10
17.3454295949
 20
52.9323686509
 30
0.0
 10
17.3209196927
 20
53.2308494169
 30
0.0
 10
17.2233999913
 20
53.682578737
 30
0.0
 10
17.0670291305
 20
54.1424556598
 30
0.0
 10
16.9281558929
 20
54.442542116
 30
0.0
 10
16.8502874146
 20
54.5904211271
 30
0.0
  0
SPLINE
  5
307
100
AcDbEntity
  8
0
100
AcDbSpline
 62
7
  6
CONTINUOUS
 70
0
 71
3
 72
9
 73
5
 74
0
 42
0.0000001
 43
0.0000001
 44
0.0000000001
 40
0.0
 40
0.0
 40
0.0
 40
0.0
 40
0.5093152953
 40
1.0
 40
1.0
 40
1.0
 40
1.0
 10
16.8502874146
 20
54.5904211271
 30
0.0
 10
16.7558926906
 20
54.7696849158
 30
0.0
 10
16.5486318268
 20
55.1105345722
 30
0.0
 10
16.2998560467
 20
55.4226672209
 30
0.0
 10
16.1674430526
 20
55.5660712015
 30
0.0
  0
SPLINE
  5
308
100
AcDbEntity
  8
0
100
AcDbSpline
 62
7
  6
CONTINUOUS
 70
0
 71
3
 72
15
 73
11
 74
0
 42
0.0000001
 43
0.0000001
 44
0.0000000001
 40
0.0
 40
0.0
 40
0.0
 40
0.0
 40
0.160977978
 40
0.3124102203
 40
0.4529009121
 40
0.5816859773
 40
0.6988897607
 40
0.8057252998
 40
0.9047896874
 40
1.0
 40
1.0
 40
1.0
 40
1.0
 10
16.1674430526
 20
55.5660712015
 30
0.0
 10
16.0904918961
 20
55.6494097153
 30
0.0
 10
15.9341609079
 20
55.8049073633
 30
0.0
 10
15.6868550973
 20
56.0074653159
 30
0.0
 10
15.4376603864
 20
56.1693348197
 30
0.0
 10
15.1911942109
 20
56.2872792224
 30
0.0
 10
14.9518531436
 20
56.3589005532
 30
0.0
 10
14.7236642398
 20
56.3818968746
 30
0.0
 10
14.5111767742
 20
56.3547090078
 30
0.0
 10
14.3827423664
 20
56.3020473681
 30
0.0
 10
14.3246366157
 20
56.2685110853
 30
0.0
  0
SPLINE
  5
309
100
AcDbEntity
  8
0
100
AcDbSpline
 62
7
  6
CONTINUOUS
 70
0
 71
3
 72
14
 73
10
 74
0
 42
0.0000001
 43
0.0000001
 44
0.0000000001
 40
0.0
 40
0.0
 40
0.0
 40
0.0
 40
0.1005484174
 40
0.2051809835
 40
0.3164713697
 40
0.4360445713
 40
0.5646006541
 40
0.7020536272
 40
1.0
 40
1.0
 40
1.0
 40
1.0
 10
25.8146744602
 20
49.5118327438
 30
0.0
 10
25.8806891166
 20
49.5499441855
 30
0.0
 10
26.0250337182
 20
49.6120731311
 30
0.0
 10
26.2625331869
 20
49.6563781888
 30
0.0
 10
26.5183081354
 20
49.6530865008
 30
0.0
 10
26.7873049915
 20
49.6031035562
 30
0.0
 10
27.0646397381
 20
49.50780203
 30
0.0
 10
27.4488300455
 20
49.3183581967
 30
0.0
 10
27.7182309985
 20
49.1223009592
 30
0.0
 10
27.8884907647
 20
48.9738734067
 30
0.0
  0
SPLINE
  5
30A
100
AcDbEntity
  8
0
100
AcDbSpline
 62
7
  6
CONTINUOUS
 70
0
 71
3
 72
9
 73
5
 74
0
 42
0.0000001
 43
0.0000001
 44
0.0000000001
 40
0.0
 40
0.0
 40
0.0
 40
0.0
 40
0.2462323305
 40
1.0
 40
1.0
 40
1.0
 40
1.0
 10
27.8884907647
 20
48.9738734067
 30
0.0
 10
27.9214927891
 20
48.9451031938
 30
0.0
 10
28.0534853447
 20
48.8259411923
 30
0.0
 10
28.1773185857
 20
48.6977877799
 30
0.0
 10
28.2657673264
 20
48.5970919054
 30
0.0
  0
SPLINE
  5
30B
100
AcDbEntity
  8
0
100
AcDbSpline
 62
7
  6
CONTINUOUS
 70
0
 71
3
 72
11
 73
7
 74
0
 42
0.0000001
 43
0.0000001
 44
0.0000000001
 40
0.0
 40
0.0
 40
0.0
 40
0.0
 40
0.2632986691
 40
0.524150919
 40
0.7724134943
 40
1.0
 40
1.0
 40
1.0
 40
1.0
 10
28.2657673264
 20
48.5970919054
 30
0.0
 10
28.4148463657
 20
48.427370504
 30
0.0
 10
28.6850961723
 20
48.065243856
 30
0.0
 10
28.9955165896
 20
47.4766139399
 30
0.0
 10
29.1946024124
 20
46.8735422696
 30
0.0
 10
29.2462610965
 20
46.4646858913
 30
0.0
 10
29.2462610965
 20
46.2694272504
 30
0.0
  0
SPLINE
  5
30C
100
AcDbEntity
  8
0
100
AcDbSpline
 62
7
  6
CONTINUOUS
 70
0
 71
3
 72
12
 73
8
 74
0
 42
0.0000001
 43
0.0000001
 44
0.0000000001
 40
0.0
 40
0.0
 40
0.0
 40
0.0
 40
0.1054370288
 40
0.2137009857
 40
0.4453467563
 40
0.7063175527
 40
1.0
 40
1.0
 40
1.0
 40
1.0
 10
16.8190307437
 20
51.5888321258
 30
0.0
 10
16.8607119685
 20
51.6128429063
 30
0.0
 10
16.9409621743
 20
51.6692727032
 30
0.0
 10
17.0850781683
 20
51.8137116506
 30
0.0
 10
17.2273478472
 20
52.0532290368
 30
0.0
 10
17.3258452309
 20
52.4010660325
 30
0.0
 10
17.3454295949
 20
52.6549446222
 30
0.0
 10
17.3454295949
 20
52.7889282367
 30
0.0
  0
SPLINE
  5
30D
100
AcDbEntity
  8
0
100
AcDbSpline
 62
7
  6
CONTINUOUS
 70
0
 71
3
 72
12
 73
8
 74
0
 42
0.0000001
 43
0.0000001
 44
0.0000000001
 40
0.0
 40
0.0
 40
0.0
 40
0.0
 40
0.1092643794
 40
0.220400411
 40
0.4542849684
 40
0.7126826893
 40
1.0
 40
1.0
 40
1.0
 40
1.0
 10
22.5482140679
 20
48.2012166407
 30
0.0
 10
22.5925392487
 20
48.22673413
 30
0.0
 10
22.677756444
 20
48.2859155585
 30
0.0
 10
22.8305312898
 20
48.435006014
 30
0.0
 10
22.9823779765
 20
48.6784646067
 30
0.0
 10
23.0886374613
 20
49.0308490477
 30
0.0
 10
23.1097371845
 20
49.2872385542
 30
0.0
 10
23.1097371845
 20
49.4217287925
 30
0.0
  0
SPLINE
  5
30E
100
AcDbEntity
  8
0
100
AcDbSpline
 62
7
  6
CONTINUOUS
 70
0
 71
3
 72
9
 73
5
 74
0
 42
0.0000001
 43
0.0000001
 44
0.0000000001
 40
0.0
 40
0.0
 40
0.0
 40
0.0
 40
0.2478387406
 40
1.0
 40
1.0
 40
1.0
 40
1.0
 10
14.2885619747
 20
49.7411662469
 30
0.0
 10
14.5962481116
 20
49.5351925479
 30
0.0
 10
15.8420072812
 20
48.7105239502
 30
0.0
 10
17.1046225106
 20
47.9113467442
 30
0.0
 10
18.0627932669
 20
47.324293289
 30
0.0
  0
SPLINE
  5
30F
100
AcDbEntity
  8
0
100
AcDbSpline
 62
7
  6
CONTINUOUS
 70
0
 71
3
 72
13
 73
9
 74
0
 42
0.0000001
 43
0.0000001
 44
0.0000000001
 40
0.0
 40
0.0
 40
0.0
 40
0.0
 40
0.1159743639
 40
0.2321510001
 40
0.3499230343
 40
0.4705782157
 40
0.7243905139
 40
1.0
 40
1.0
 40
1.0
 40
1.0
 10
35.1264516871
 20
42.0727511629
 30
0.0
 10
35.1759588395
 20
42.1012719537
 30
0.0
 10
35.2709791798
 20
42.1658364848
 30
0.0
 10
35.3977816396
 20
42.2835280332
 30
0.0
 10
35.5073501264
 20
42.4204042418
 30
0.0
 10
35.6307986898
 20
42.6299741711
 30
0.0
 10
35.7347122529
 20
42.9368087668
 30
0.0
 10
35.7592246136
 20
43.198682664
 30
0.0
 10
35.7592246136
 20
43.3344619197
 30
0.0
  0
SPLINE
  5
310
100
AcDbEntity
  8
0
100
AcDbSpline
 62
7
  6
CONTINUOUS
 70
0
 71
3
 72
9
 73
5
 74
0
 42
0.0000001
 43
0.0000001
 44
0.0000000001
 40
0.0
 40
0.0
 40
0.0
 40
0.0
 40
0.2472149024
 40
1.0
 40
1.0
 40
1.0
 40
1.0
 10
30.6825201045
 20
40.5666535907
 30
0.0
 10
31.2670417434
 20
40.2934683314
 30
0.0
 10
33.6390867209
 20
39.2047716771
 30
0.0
 10
36.0408112195
 20
38.1808881414
 30
0.0
 10
37.8626240533
 20
37.4453178545
 30
0.0
  0
SPLINE
  5
311
100
AcDbEntity
  8
0
100
AcDbSpline
 62
7
  6
CONTINUOUS
 70
0
 71
3
 72
11
 73
7
 74
0
 42
0.0000001
 43
0.0000001
 44
0.0000000001
 40
0.0
 40
0.0
 40
0.0
 40
0.0
 40
0.2386721907
 40
0.4850774845
 40
0.7389680922
 40
1.0
 40
1.0
 40
1.0
 40
1.0
 10
14.5245584488
 20
62.2652883024
 30
0.0
 10
16.2510658994
 20
61.0835721865
 30
0.0
 10
19.832757556
 20
58.7866334385
 30
0.0
 10
25.4729096462
 20
55.5947191257
 30
0.0
 10
31.4463079792
 20
52.6123108599
 30
0.0
 10
35.5805094921
 20
50.7954913639
 30
0.0
 10
37.6959151657
 20
49.9231850677
 30
0.0
  0
SPLINE
  5
312
100
AcDbEntity
  8
0
100
AcDbSpline
 62
7
  6
CONTINUOUS
 70
0
 71
3
 72
17
 73
13
 74
0
 42
0.0000001
 43
0.0000001
 44
0.0000000001
 40
0.0
 40
0.0
 40
0.0
 40
0.0
 40
0.0464100984
 40
0.0946284643
 40
0.1455343361
 40
0.1996714804
 40
0.3180152572
 40
0.4487939754
 40
0.5880355504
 40
0.7302151234
 40
0.8693583221
 40
1.0
 40
1.0
 40
1.0
 40
1.0
 10
32.1191582149
 20
46.456502773
 30
0.0
 10
32.1872258969
 20
46.4958001198
 30
0.0
 10
32.3350118615
 20
46.5612112304
 30
0.0
 10
32.5771341097
 20
46.6143201551
 30
0.0
 10
32.8377897708
 20
46.6237021118
 30
0.0
 10
33.2145509526
 20
46.5771364783
 30
0.0
 10
33.7049445627
 20
46.4056442253
 30
0.0
 10
34.2679717539
 20
46.0581108937
 30
0.0
 10
34.7873943806
 20
45.5862016495
 30
0.0
 10
35.2267769774
 20
45.0210709415
 30
0.0
 10
35.5539857827
 20
44.4008569513
 30
0.0
 10
35.6862286646
 20
43.9591174137
 30
0.0
 10
35.7234535599
 20
43.7410255202
 30
0.0
  0
SPLINE
  5
313
100
AcDbEntity
  8
0
100
AcDbSpline
 62
7
  6
CONTINUOUS
 70
0
 71
3
 72
9
 73
5
 74
0
 42
0.0000001
 43
0.0000001
 44
0.0000000001
 40
0.0
 40
0.0
 40
0.0
 40
0.0
 40
0.257063109
 40
1.0
 40
1.0
 40
1.0
 40
1.0
 10
35.7234535599
 20
43.7410255202
 30
0.0
 10
35.7293415036
 20
43.7065294448
 30
0.0
 10
35.7496248618
 20
43.571913343
 30
0.0
 10
35.7592246136
 20
43.4356006859
 30
0.0
 10
35.7592246136
 20
43.3344619208
 30
0.0
  0
SPLINE
  5
314
100
AcDbEntity
  8
0
100
AcDbSpline
 62
7
  6
CONTINUOUS
 70
0
 71
3
 72
11
 73
7
 74
0
 42
0.0000001
 43
0.0000001
 44
0.0000000001
 40
0.0
 40
0.0
 40
0.0
 40
0.0
 40
0.2672028415
 40
0.5194785343
 40
0.7622408444
 40
1.0
 40
1.0
 40
1.0
 40
1.0
 10
12.6830583045
 20
56.4658719133
 30
0.0
 10
12.6251264293
 20
56.4726279699
 30
0.0
 10
12.5112123917
 20
56.4770184477
 30
0.0
 10
12.3454839472
 20
56.4553884467
 30
0.0
 10
12.1917760108
 20
56.4087492464
 30
0.0
 10
12.0969750858
 20
56.3628042585
 30
0.0
 10
12.0520303906
 20
56.336855584
 30
0.0
  0
SPLINE
  5
315
100
AcDbEntity
  8
0
100
AcDbSpline
 62
7
  6
CONTINUOUS
 70
0
 71
3
 72
17
 73
13
 74
0
 42
0.0000001
 43
0.0000001
 44
0.0000000001
 40
0.0
 40
0.0
 40
0.0
 40
0.0
 40
0.1550340433
 40
0.3024679053
 40
0.4415270976
 40
0.571842559
 40
0.692966495
 40
0.804365675
 40
0.8564016345
 40
0.906047989
 40
0.9536390997
 40
1.0
 40
1.0
 40
1.0
 40
1.0
 10
10.8391839943
 20
50.0755957767
 30
0.0
 10
10.7041124889
 20
50.3589056034
 30
0.0
 10
10.4798171762
 20
50.9309549602
 30
0.0
 10
10.2536546672
 20
51.7974819368
 30
0.0
 10
10.1308134732
 20
52.6340155856
 30
0.0
 10
10.103811885
 20
53.4259581759
 30
0.0
 10
10.1707286982
 20
54.1594674199
 30
0.0
 10
10.3111433895
 20
54.7219477146
 30
0.0
 10
10.4825993498
 20
55.1188229745
 30
0.0
 10
10.6386537442
 20
55.3789292036
 30
0.0
 10
10.8281706343
 20
55.6013702851
 30
0.0
 10
10.9808030768
 20
55.71838589
 30
0.0
 10
11.0620849111
 20
55.7653137066
 30
0.0
  0
SPLINE
  5
316
100
AcDbEntity
  8
0
100
AcDbSpline
 62
7
  6
CONTINUOUS
 70
0
 71
3
 72
9
 73
5
 74
0
 42
0.0000001
 43
0.0000001
 44
0.0000000001
 40
0.0
 40
0.0
 40
0.0
 40
0.0
 40
0.2450203467
 40
1.0
 40
1.0
 40
1.0
 40
1.0
 10
14.5619501473
 20
48.972668304
 30
0.0
 10
14.5931147784
 20
48.9982851187
 30
0.0
 10
14.7153003683
 20
49.1089333623
 30
0.0
 10
14.8171110853
 20
49.2408675642
 30
0.0
 10
14.883495437
 20
49.3459617285
 30
0.0
  0
SPLINE
  5
317
100
AcDbEntity
  8
0
100
AcDbSpline
 62
7
  6
CONTINUOUS
 70
0
 71
3
 72
15
 73
11
 74
0
 42
0.0000001
 43
0.0000001
 44
0.0000000001
 40
0.0
 40
0.0
 40
0.0
 40
0.0
 40
0.0870497453
 40
0.1865601526
 40
0.3039245031
 40
0.4377107031
 40
0.5821935295
 40
0.7294156331
 40
0.871289611
 40
1.0
 40
1.0
 40
1.0
 40
1.0
 10
13.5620302454
 20
48.3941079356
 30
0.0
 10
13.5520148244
 20
48.3883537907
 30
0.0
 10
13.5269151743
 20
48.3818554195
 30
0.0
 10
13.4864913962
 20
48.3899934437
 30
0.0
 10
13.4452454883
 20
48.4125615159
 30
0.0
 10
13.4056668853
 20
48.447588716
 30
0.0
 10
13.370757265
 20
48.492312454
 30
0.0
 10
13.3432303003
 20
48.5431484795
 30
0.0
 10
13.325428897
 20
48.5959265685
 30
0.0
 10
13.3206179605
 20
48.6318663546
 30
0.0
 10
13.3206179605
 20
48.6489450496
 30
0.0
  0
SPLINE
  5
318
100
AcDbEntity
  8
0
100
AcDbSpline
 62
7
  6
CONTINUOUS
 70
0
 71
3
 72
13
 73
9
 74
0
 42
0.0000001
 43
0.0000001
 44
0.0000000001
 40
0.0
 40
0.0
 40
0.0
 40
0.0
 40
0.0892668348
 40
0.1858813477
 40
0.294639293
 40
0.4170180672
 40
0.6964489368
 40
1.0
 40
1.0
 40
1.0
 40
1.0
 10
11.0517979566
 20
49.9361536647
 30
0.0
 10
11.0446226219
 20
49.9320105502
 30
0.0
 10
11.0278737147
 20
49.9262716406
 30
0.0
 10
11.0001141922
 20
49.9266505248
 30
0.0
 10
10.9706679342
 20
49.9354090989
 30
0.0
 10
10.9288429004
 20
49.9582440996
 30
0.0
 10
10.8806104157
 20
50.0040199472
 30
0.0
 10
10.8513091957
 20
50.0501632732
 30
0.0
 10
10.8391839943
 20
50.0755957767
 30
0.0
  0
SPLINE
  5
319
100
AcDbEntity
  8
0
100
AcDbSpline
 62
7
  6
CONTINUOUS
 70
0
 71
3
 72
9
 73
5
 74
0
 42
0.0000001
 43
0.0000001
 44
0.0000000001
 40
0.0
 40
0.0
 40
0.0
 40
0.0
 40
0.5303668936
 40
1.0
 40
1.0
 40
1.0
 40
1.0
 10
34.1409223906
 20
45.3195814603
 30
0.0
 10
34.0656069095
 20
45.3810869107
 30
0.0
 10
33.9139866093
 20
45.4860388876
 30
0.0
 10
33.7429709408
 20
45.5577653653
 30
0.0
 10
33.6595984073
 20
45.5792790199
 30
0.0
  0
SPLINE
  5
31A
100
AcDbEntity
  8
0
100
AcDbSpline
 62
7
  6
CONTINUOUS
 70
0
 71
3
 72
9
 73
5
 74
0
 42
0.0000001
 43
0.0000001
 44
0.0000000001
 40
0.0
 40
0.0
 40
0.0
 40
0.0
 40
0.2473074443
 40
1.0
 40
1.0
 40
1.0
 40
1.0
 10
18.6134497133
 20
46.9890223926
 30
0.0
 10
19.0407935095
 20
46.7304549578
 30
0.0
 10
20.7754920616
 20
45.6960494914
 30
0.0
 10
22.5364697003
 20
44.7057927092
 30
0.0
 10
23.8746851271
 20
43.9845714092
 30
0.0
  0
SPLINE
  5
31B
100
AcDbEntity
  8
0
100
AcDbSpline
 62
7
  6
CONTINUOUS
 70
0
 71
3
 72
9
 73
5
 74
0
 42
0.0000001
 43
0.0000001
 44
0.0000000001
 40
0.0
 40
0.0
 40
0.0
 40
0.0
 40
0.2474834256
 40
1.0
 40
1.0
 40
1.0
 40
1.0
 10
24.4616100969
 20
43.6702301531
 30
0.0
 10
24.9177486296
 20
43.4274623132
 30
0.0
 10
26.766778244
 20
42.4576753599
 30
0.0
 10
28.6389954369
 20
41.5321728915
 30
0.0
 10
30.0590812295
 20
40.8599037832
 30
0.0
  0
SPLINE
  5
31C
100
AcDbEntity
  8
0
100
AcDbSpline
 62
7
  6
CONTINUOUS
 70
0
 71
3
 72
9
 73
5
 74
0
 42
0.0000001
 43
0.0000001
 44
0.0000000001
 40
0.0
 40
0.0
 40
0.0
 40
0.0
 40
0.5303668936
 40
1.0
 40
1.0
 40
1.0
 40
1.0
 10
22.1281957055
 20
49.9363848132
 30
0.0
 10
22.2035111866
 20
49.8748793628
 30
0.0
 10
22.3551314869
 20
49.7699273859
 30
0.0
 10
22.5261471554
 20
49.6982009082
 30
0.0
 10
22.6095196889
 20
49.6766872536
 30
0.0
  0
SPLINE
  5
31D
100
AcDbEntity
  8
0
100
AcDbSpline
 62
7
  6
CONTINUOUS
 70
0
 71
3
 72
22
 73
18
 74
0
 42
0.0000001
 43
0.0000001
 44
0.0000000001
 40
0.0
 40
0.0
 40
0.0
 40
0.0
 40
0.0621944496
 40
0.1284369793
 40
0.197889518
 40
0.2697015212
 40
0.4162378713
 40
0.4890149581
 40
0.5600588969
 40
0.6284236154
 40
0.6933492448
 40
0.7542557845
 40
0.8108130663
 40
0.863011098
 40
0.9112525248
 40
0.9564688589
 40
1.0
 40
1.0
 40
1.0
 40
1.0
 10
19.3415559779
 20
51.5735693734
 30
0.0
 10
19.3415559779
 20
51.4636273151
 30
0.0
 10
19.3563096922
 20
51.2364452258
 30
0.0
 10
19.4166379003
 20
50.8913106006
 30
0.0
 10
19.5149240782
 20
50.5373096389
 30
0.0
 10
19.6947375003
 20
50.0608701722
 30
0.0
 10
19.9386607607
 20
49.6042621382
 30
0.0
 10
20.2365161513
 20
49.1856826534
 30
0.0
 10
20.4804987407
 20
48.9000523342
 30
0.0
 10
20.7409389275
 20
48.6489034298
 30
0.0
 10
21.0122216939
 20
48.4374064635
 30
0.0
 10
21.2886902654
 20
48.2698910478
 30
0.0
 10
21.5647715168
 20
48.1500437026
 30
0.0
 10
21.8349120228
 20
48.0807009671
 30
0.0
 10
22.0936629953
 20
48.0643980446
 30
0.0
 10
22.3349768451
 20
48.1016883852
 30
0.0
 10
22.4815249108
 20
48.1628244713
 30
0.0
 10
22.5482140679
 20
48.2012166407
 30
0.0
  0
SPLINE
  5
31E
100
AcDbEntity
  8
0
100
AcDbSpline
 62
7
  6
CONTINUOUS
 70
0
 71
3
 72
9
 73
5
 74
0
 42
0.0000001
 43
0.0000001
 44
0.0000000001
 40
0.0
 40
0.0
 40
0.0
 40
0.0
 40
0.5303668936
 40
1.0
 40
1.0
 40
1.0
 40
1.0
 10
33.7247951981
 20
43.241236439
 30
0.0
 10
33.8001106792
 20
43.1797309886
 30
0.0
 10
33.9517309794
 20
43.0747790117
 30
0.0
 10
34.1227466479
 20
43.003052534
 30
0.0
 10
34.2061191814
 20
42.9815388794
 30
0.0
  0
SPLINE
  5
31F
100
AcDbEntity
  8
0
100
AcDbSpline
 62
7
  6
CONTINUOUS
 70
0
 71
3
 72
9
 73
5
 74
0
 42
0.0000001
 43
0.0000001
 44
0.0000000001
 40
0.0
 40
0.0
 40
0.0
 40
0.0
 40
0.2771387843
 40
1.0
 40
1.0
 40
1.0
 40
1.0
 10
32.0590180225
 20
45.5255474332
 30
0.0
 10
32.0590180225
 20
45.6100125921
 30
0.0
 10
32.0741919347
 20
45.9136605945
 30
0.0
 10
32.1584270191
 20
46.2206106209
 30
0.0
 10
32.2742029178
 20
46.4080477115
 30
0.0
  0
SPLINE
  5
320
100
AcDbEntity
  8
0
100
AcDbSpline
 62
7
  6
CONTINUOUS
 70
0
 71
3
 72
9
 73
5
 74
0
 42
0.0000001
 43
0.0000001
 44
0.0000000001
 40
0.0
 40
0.0
 40
0.0
 40
0.0
 40
0.2551269062
 40
1.0
 40
1.0
 40
1.0
 40
1.0
 10
32.2742029178
 20
46.4080477115
 30
0.0
 10
32.2832129856
 20
46.422634693
 30
0.0
 10
32.3198288825
 20
46.4789920925
 30
0.0
 10
32.361761985
 20
46.5319327776
 30
0.0
 10
32.3957918711
 20
46.568644398
 30
0.0
  0
SPLINE
  5
321
100
AcDbEntity
  8
0
100
AcDbSpline
 62
7
  6
CONTINUOUS
 70
0
 71
3
 72
12
 73
8
 74
0
 42
0.0000001
 43
0.0000001
 44
0.0000000001
 40
0.0
 40
0.0
 40
0.0
 40
0.0
 40
0.1114635112
 40
0.2305883856
 40
0.4844476841
 40
0.7464275147
 40
1.0
 40
1.0
 40
1.0
 40
1.0
 10
13.8177623311
 20
55.0796287998
 30
0.0
 10
13.8177623311
 20
54.9666368322
 30
0.0
 10
13.8322994785
 20
54.7327474348
 30
0.0
 10
13.9128931371
 20
54.2476832421
 30
0.0
 10
14.1067870312
 20
53.6301423169
 30
0.0
 10
14.456971378
 20
52.930033718
 30
0.0
 10
14.7652928538
 20
52.5040103917
 30
0.0
 10
14.935553807
 20
52.3114338644
 30
0.0
  0
SPLINE
  5
322
100
AcDbEntity
  8
0
100
AcDbSpline
 62
7
  6
CONTINUOUS
 70
0
 71
3
 72
15
 73
11
 74
0
 42
0.0000001
 43
0.0000001
 44
0.0000000001
 40
0.0
 40
0.0
 40
0.0
 40
0.0
 40
0.1591963485
 40
0.3093832071
 40
0.4489504096
 40
0.5773333543
 40
0.6947610604
 40
0.8024596794
 40
0.9029813252
 40
1.0
 40
1.0
 40
1.0
 40
1.0
 10
14.935553807
 20
52.3114338644
 30
0.0
 10
15.0118287089
 20
52.2251618481
 30
0.0
 10
15.1676890621
 20
52.06401031
 30
0.0
 10
15.4162217908
 20
51.8540488472
 30
0.0
 10
15.6688995699
 20
51.6863727418
 30
0.0
 10
15.9207811583
 20
51.5646159079
 30
0.0
 10
16.1671492929
 20
51.4913199247
 30
0.0
 10
16.4034277657
 20
51.4689453071
 30
0.0
 10
16.6243264339
 20
51.4986229027
 30
0.0
 10
16.7582201242
 20
51.5538017149
 30
0.0
 10
16.8190307437
 20
51.5888321258
 30
0.0
  0
SPLINE
  5
323
100
AcDbEntity
  8
0
100
AcDbSpline
 62
7
  6
CONTINUOUS
 70
0
 71
3
 72
13
 73
9
 74
0
 42
0.0000001
 43
0.0000001
 44
0.0000000001
 40
0.0
 40
0.0
 40
0.0
 40
0.0
 40
0.2785750595
 40
0.5332229799
 40
0.6534626956
 40
0.7703575072
 40
0.885344177
 40
1.0
 40
1.0
 40
1.0
 40
1.0
 10
31.5062396897
 20
45.2064026184
 30
0.0
 10
31.5062396897
 20
45.3417674603
 30
0.0
 10
31.5295117823
 20
45.601842242
 30
0.0
 10
31.6293304358
 20
45.907049944
 30
0.0
 10
31.7489002074
 20
46.1147926427
 30
0.0
 10
31.8550729717
 20
46.2497829506
 30
0.0
 10
31.9783207971
 20
46.3654402134
 30
0.0
 10
32.0709085088
 20
46.4286468893
 30
0.0
 10
32.1191582149
 20
46.456502773
 30
0.0
  0
SPLINE
  5
324
100
AcDbEntity
  8
0
100
AcDbSpline
 62
7
  6
CONTINUOUS
 70
0
 71
3
 72
21
 73
17
 74
0
 42
0.0000001
 43
0.0000001
 44
0.0000000001
 40
0.0
 40
0.0
 40
0.0
 40
0.0
 40
0.0610354784
 40
0.1258931773
 40
0.193856056
 40
0.2641773663
 40
0.4081088447
 40
0.4799438627
 40
0.5503856431
 40
0.6185756126
 40
0.6837780032
 40
0.8029277825
 40
0.8567899945
 40
0.9070457351
 40
0.9544198689
 40
1.0
 40
1.0
 40
1.0
 40
1.0
 10
25.2373120073
 20
48.2822612617
 30
0.0
 10
25.2373120073
 20
48.1723876998
 30
0.0
 10
25.253006328
 20
47.945592167
 30
0.0
 10
25.3174686703
 20
47.6019704198
 30
0.0
 10
25.422480394
 20
47.2509888824
 30
0.0
 10
25.61473481
 20
46.7801173999
 30
0.0
 10
25.8753674239
 20
46.3319249789
 30
0.0
 10
26.1925176359
 20
45.9252045354
 30
0.0
 10
26.4526918246
 20
45.6489847724
 30
0.0
 10
26.7300813887
 20
45.4076180464
 30
0.0
 10
27.1032910816
 20
45.147358795
 30
0.0
 10
27.4975000649
 20
44.9630157551
 30
0.0
 10
27.8928657002
 20
44.8819382794
 30
0.0
 10
28.1671858654
 20
44.8753233799
 30
0.0
 10
28.4227584516
 20
44.9211941188
 30
0.0
 10
28.5783294445
 20
44.9875117946
 30
0.0
 10
28.6494289673
 20
45.0284666877
 30
0.0
  0
SPLINE
  5
325
100
AcDbEntity
  8
0
100
AcDbSpline
 62
7
  6
CONTINUOUS
 70
0
 71
3
 72
17
 73
13
 74
0
 42
0.0000001
 43
0.0000001
 44
0.0000000001
 40
0.0
 40
0.0
 40
0.0
 40
0.0
 40
0.0623476749
 40
0.1287205856
 40
0.1972621516
 40
0.2665692935
 40
0.4039970478
 40
0.5369839174
 40
0.6638528672
 40
0.7837588711
 40
0.8960452316
 40
1.0
 40
1.0
 40
1.0
 40
1.0
 10
12.6873039127
 20
55.6220325408
 30
0.0
 10
12.7825608609
 20
55.5324553321
 30
0.0
 10
12.9655957484
 20
55.3328212005
 30
0.0
 10
13.2101755511
 20
54.998429292
 30
0.0
 10
13.4318099194
 20
54.6313573803
 30
0.0
 10
13.693174378
 20
54.1161426285
 30
0.0
 10
13.955201482
 20
53.4517615696
 30
0.0
 10
14.1808456774
 20
52.6484487069
 30
0.0
 10
14.3245333933
 20
51.863930586
 30
0.0
 10
14.3919453731
 20
51.1127694251
 30
0.0
 10
14.3860348309
 20
50.4066852791
 30
0.0
 10
14.3309636714
 20
49.9550232458
 30
0.0
 10
14.2885619747
 20
49.7411662469
 30
0.0
  0
SPLINE
  5
326
100
AcDbEntity
  8
0
100
AcDbSpline
 62
7
  6
CONTINUOUS
 70
0
 71
3
 72
9
 73
5
 74
0
 42
0.0000001
 43
0.0000001
 44
0.0000000001
 40
0.0
 40
0.0
 40
0.0
 40
0.0
 40
0.5227927116
 40
1.0
 40
1.0
 40
1.0
 40
1.0
 10
20.4624185303
 20
52.2206958054
 30
0.0
 10
20.4624185303
 20
52.3340076487
 30
0.0
 10
20.4770898529
 20
52.5511401338
 30
0.0
 10
20.5279051198
 20
52.7633565862
 30
0.0
 10
20.5625764287
 20
52.8608038887
 30
0.0
  0
SPLINE
  5
327
100
AcDbEntity
  8
0
100
AcDbSpline
 62
7
  6
CONTINUOUS
 70
0
 71
3
 72
11
 73
7
 74
0
 42
0.0000001
 43
0.0000001
 44
0.0000000001
 40
0.0
 40
0.0
 40
0.0
 40
0.0
 40
0.2611091546
 40
0.5150258277
 40
0.761406648
 40
1.0
 40
1.0
 40
1.0
 40
1.0
 10
37.6734587008
 20
50.0735175605
 30
0.0
 10
35.5537862068
 20
50.9501442971
 30
0.0
 10
31.4119739544
 20
52.7760599931
 30
0.0
 10
25.4294827408
 20
55.7739710003
 30
0.0
 10
19.7835648859
 20
58.982636383
 30
0.0
 10
16.1999645031
 20
61.2919000181
 30
0.0
 10
14.4731928089
 20
62.4799482831
 30
0.0
  0
SPLINE
  5
328
100
AcDbEntity
  8
0
100
AcDbSpline
 62
7
  6
CONTINUOUS
 70
0
 71
3
 72
19
 73
15
 74
0
 42
0.0000001
 43
0.0000001
 44
0.0000000001
 40
0.0
 40
0.0
 40
0.0
 40
0.0
 40
0.0431895177
 40
0.0889475338
 40
0.1383051105
 40
0.1918316992
 40
0.2496897012
 40
0.3116890845
 40
0.4459860054
 40
0.5892459652
 40
0.7341869459
 40
0.8732250816
 40
0.9385331439
 40
1.0
 40
1.0
 40
1.0
 40
1.0
 10
35.1227255932
 20
42.0852490734
 30
0.0
 10
35.0534439667
 20
42.0594808694
 30
0.0
 10
34.9037252816
 20
42.023983776
 30
0.0
 10
34.6654430308
 20
42.0213873715
 30
0.0
 10
34.413866146
 20
42.0673691223
 30
0.0
 10
34.1538461526
 20
42.1602776048
 30
0.0
 10
33.8901177933
 20
42.2980984965
 30
0.0
 10
33.5305865833
 20
42.5444096057
 30
0.0
 10
33.1066526754
 20
42.9476460721
 30
0.0
 10
32.6737462195
 20
43.53067743
 30
0.0
 10
32.335478698
 20
44.1823479196
 30
0.0
 10
32.1493957798
 20
44.7541533346
 30
0.0
 10
32.0727148593
 20
45.2032304287
 30
0.0
 10
32.0590180225
 20
45.4203474258
 30
0.0
 10
32.0590180225
 20
45.5255474332
 30
0.0
  0
SPLINE
  5
329
100
AcDbEntity
  8
0
100
AcDbSpline
 62
7
  6
CONTINUOUS
 70
0
 71
3
 72
11
 73
7
 74
0
 42
0.0000001
 43
0.0000001
 44
0.0000000001
 40
0.0
 40
0.0
 40
0.0
 40
0.0
 40
0.2158646494
 40
0.4552782433
 40
0.7178309224
 40
1.0
 40
1.0
 40
1.0
 40
1.0
 10
17.2138172853
 20
52.0781527099
 30
0.0
 10
17.1013879252
 20
52.0928567392
 30
0.0
 10
16.8678251391
 20
52.1537625678
 30
0.0
 10
16.5262869692
 20
52.3174670837
 30
0.0
 10
16.1860909699
 20
52.5521721043
 30
0.0
 10
15.9735730524
 20
52.7450289009
 30
0.0
 10
15.8697140845
 20
52.8507683327
 30
0.0
  0
SPLINE
  5
32A
100
AcDbEntity
  8
0
100
AcDbSpline
 62
7
  6
CONTINUOUS
 70
0
 71
3
 72
12
 73
8
 74
0
 42
0.0000001
 43
0.0000001
 44
0.0000000001
 40
0.0
 40
0.0
 40
0.0
 40
0.0
 40
0.1036697304
 40
0.2104400927
 40
0.440607349
 40
0.7026851797
 40
1.0
 40
1.0
 40
1.0
 40
1.0
 10
14.3246366157
 20
56.2685110853
 30
0.0
 10
14.2842541231
 20
56.2452039482
 30
0.0
 10
14.2065294613
 20
56.1901060005
 30
0.0
 10
14.0671316524
 20
56.0480176102
 30
0.0
 10
13.9302183706
 20
55.8108799038
 30
0.0
 10
13.836174024
 20
55.4657259588
 30
0.0
 10
13.8177623311
 20
55.2133472077
 30
0.0
 10
13.8177623311
 20
55.0796287998
 30
0.0
  0
SPLINE
  5
32B
100
AcDbEntity
  8
0
100
AcDbSpline
 62
7
  6
CONTINUOUS
 70
0
 71
3
 72
25
 73
21
 74
0
 42
0.0000001
 43
0.0000001
 44
0.0000000001
 40
0.0
 40
0.0
 40
0.0
 40
0.0
 40
0.0213872576
 40
0.0432911352
 40
0.0661909128
 40
0.0906573213
 40
0.117150073
 40
0.145998594
 40
0.1771889596
 40
0.2104759231
 40
0.2813400983
 40
0.3548932131
 40
0.4285033557
 40
0.5008247495
 40
0.5712767498
 40
0.6396045782
 40
0.7693815813
 40
0.8896620921
 40
0.9461229389
 40
1.0
 40
1.0
 40
1.0
 40
1.0
 10
11.0620849111
 20
55.7653137066
 30
0.0
 10
11.1105038475
 20
55.7932682304
 30
0.0
 10
11.2131456588
 20
55.8422976004
 30
0.0
 10
11.3804490706
 20
55.8896708061
 30
0.0
 10
11.5616751519
 20
55.9073265333
 30
0.0
 10
11.7550694192
 20
55.8911286225
 30
0.0
 10
11.9579739544
 20
55.8387490855
 30
0.0
 10
12.166275636
 20
55.7485221837
 30
0.0
 10
12.3757547773
 20
55.6222221474
 30
0.0
 10
12.6557560112
 20
55.4048788047
 30
0.0
 10
12.9781193223
 20
55.0668775588
 30
0.0
 10
13.3097951421
 20
54.6017784869
 30
0.0
 10
13.5901026629
 20
54.1000388876
 30
0.0
 10
13.820724393
 20
53.582840282
 30
0.0
 10
14.0058761941
 20
53.0624325555
 30
0.0
 10
14.1941994299
 20
52.3856442352
 30
0.0
 10
14.3387381938
 20
51.563549883
 30
0.0
 10
14.3737236944
 20
50.7601876543
 30
0.0
 10
14.331080552
 20
50.1582959123
 30
0.0
 10
14.286372708
 20
49.8728456859
 30
0.0
 10
14.2575953564
 20
49.734974777
 30
0.0
  0
SPLINE
  5
32C
100
AcDbEntity
  8
0
100
AcDbSpline
 62
7
  6
CONTINUOUS
 70
0
 71
3
 72
10
 73
6
 74
0
 42
0.0000001
 43
0.0000001
 44
0.0000000001
 40
0.0
 40
0.0
 40
0.0
 40
0.0
 40
0.2719168276
 40
0.529001017
 40
1.0
 40
1.0
 40
1.0
 40
1.0
 10
14.2575953564
 20
49.734974777
 30
0.0
 10
14.2294177124
 20
49.5999770384
 30
0.0
 10
14.1613599126
 20
49.3394001237
 30
0.0
 10
13.9746335673
 20
48.8685561739
 30
0.0
 10
13.7565394393
 20
48.5528109507
 30
0.0
 10
13.5720047752
 20
48.4011264886
 30
0.0
  0
SPLINE
  5
32D
100
AcDbEntity
  8
0
100
AcDbSpline
 62
7
  6
CONTINUOUS
 70
0
 71
3
 72
9
 73
5
 74
0
 42
0.0000001
 43
0.0000001
 44
0.0000000001
 40
0.0
 40
0.0
 40
0.0
 40
0.0
 40
0.5303668936
 40
1.0
 40
1.0
 40
1.0
 40
1.0
 10
27.9264954518
 20
46.5888106261
 30
0.0
 10
28.0018109329
 20
46.5273051757
 30
0.0
 10
28.1534312332
 20
46.4223531988
 30
0.0
 10
28.3244469016
 20
46.3506267211
 30
0.0
 10
28.4078194352
 20
46.3291130665
 30
0.0
  0
SPLINE
  5
32E
100
AcDbEntity
  8
0
100
AcDbSpline
 62
7
  6
CONTINUOUS
 70
0
 71
3
 72
16
 73
12
 74
0
 42
0.0000001
 43
0.0000001
 44
0.0000000001
 40
0.0
 40
0.0
 40
0.0
 40
0.0
 40
0.2007540163
 40
0.2610204362
 40
0.3246697881
 40
0.3911837718
 40
0.4599372409
 40
0.6011390479
 40
0.7421932837
 40
0.8768980089
 40
1.0
 40
1.0
 40
1.0
 40
1.0
 10
29.0434232417
 20
45.3744123429
 30
0.0
 10
28.7205465087
 20
45.3540612358
 30
0.0
 10
28.2929815419
 20
45.5118742359
 30
0.0
 10
27.861136722
 20
45.8025680675
 30
0.0
 10
27.623506437
 20
45.9983365715
 30
0.0
 10
27.3950629401
 20
46.2235603384
 30
0.0
 10
27.1042325927
 20
46.5616845837
 30
0.0
 10
26.7866008998
 20
47.0325290055
 30
0.0
 10
26.4954957092
 20
47.6409102397
 30
0.0
 10
26.3093984473
 20
48.2588150401
 30
0.0
 10
26.2607182764
 20
48.6747413066
 30
0.0
 10
26.2607182764
 20
48.8731216191
 30
0.0
  0
SPLINE
  5
32F
100
AcDbEntity
  8
0
100
AcDbSpline
 62
7
  6
CONTINUOUS
 70
0
 71
3
 72
16
 73
12
 74
0
 42
0.0000001
 43
0.0000001
 44
0.0000000001
 40
0.0
 40
0.0
 40
0.0
 40
0.0
 40
0.0999073914
 40
0.1551992923
 40
0.2138562421
 40
0.3398907398
 40
0.4745110042
 40
0.6129260481
 40
0.7498952538
 40
0.8803417695
 40
1.0
 40
1.0
 40
1.0
 40
1.0
 10
22.9748126034
 20
48.7359840602
 30
0.0
 10
22.8243127513
 20
48.7598949644
 30
0.0
 10
22.5959660571
 20
48.8349978114
 30
0.0
 10
22.3071862383
 20
48.9870548461
 30
0.0
 10
22.0017428869
 20
49.189955459
 30
0.0
 10
21.635544217
 20
49.5148064914
 30
0.0
 10
21.2453146759
 20
49.9845691253
 30
0.0
 10
20.9151625617
 20
50.5180070572
 30
0.0
 10
20.6633230784
 20
51.0857333615
 30
0.0
 10
20.5036474101
 20
51.6562853699
 30
0.0
 10
20.4624185303
 20
52.0381826488
 30
0.0
 10
20.4624185303
 20
52.2206958054
 30
0.0
  0
SPLINE
  5
330
100
AcDbEntity
  8
0
100
AcDbSpline
 62
7
  6
CONTINUOUS
 70
0
 71
3
 72
9
 73
5
 74
0
 42
0.0000001
 43
0.0000001
 44
0.0000000001
 40
0.0
 40
0.0
 40
0.0
 40
0.0
 40
0.2716376437
 40
1.0
 40
1.0
 40
1.0
 40
1.0
 10
26.2607182764
 20
48.8731216191
 30
0.0
 10
26.2607182764
 20
48.9427907512
 30
0.0
 10
26.2714239276
 20
49.1987576349
 30
0.0
 10
26.3284436098
 20
49.4557236716
 30
0.0
 10
26.4064082716
 20
49.6254856722
 30
0.0
  0
SPLINE
  5
331
100
AcDbEntity
  8
0
100
AcDbSpline
 62
7
  6
CONTINUOUS
 70
0
 71
3
 72
13
 73
9
 74
0
 42
0.0000001
 43
0.0000001
 44
0.0000000001
 40
0.0
 40
0.0
 40
0.0
 40
0.0
 40
0.2843366016
 40
0.5411906316
 40
0.6609482114
 40
0.7762849948
 40
0.8887185494
 40
1.0
 40
1.0
 40
1.0
 40
1.0
 10
25.2373120073
 20
48.2822612617
 30
0.0
 10
25.2373120073
 20
48.4169839088
 30
0.0
 10
25.2588220531
 20
48.6742592122
 30
0.0
 10
25.352288282
 20
48.9766727476
 30
0.0
 10
25.4651687854
 20
49.1814269943
 30
0.0
 10
25.5651183665
 20
49.3130867871
 30
0.0
 10
25.6813179362
 20
49.4249501095
 30
0.0
 10
25.7690111554
 20
49.4854705014
 30
0.0
 10
25.8146744602
 20
49.5118327438
 30
0.0
  0
SPLINE
  5
332
100
AcDbEntity
  8
0
100
AcDbSpline
 62
7
  6
CONTINUOUS
 70
0
 71
3
 72
12
 73
8
 74
0
 42
0.0000001
 43
0.0000001
 44
0.0000000001
 40
0.0
 40
0.0
 40
0.0
 40
0.0
 40
0.1076560793
 40
0.2174181582
 40
0.4499416131
 40
0.7093698804
 40
1.0
 40
1.0
 40
1.0
 40
1.0
 10
19.8836745274
 20
52.7828895324
 30
0.0
 10
19.8406046216
 20
52.7580968171
 30
0.0
 10
19.757824961
 20
52.7002899015
 30
0.0
 10
19.6096381936
 20
52.5535424346
 30
0.0
 10
19.4631861523
 20
52.3122811146
 30
0.0
 10
19.3615663547
 20
51.9625329814
 30
0.0
 10
19.3415559779
 20
51.7077295952
 30
0.0
 10
19.3415559779
 20
51.5735693734
 30
0.0
  0
SPLINE
  5
333
100
AcDbEntity
  8
0
100
AcDbSpline
 62
7
  6
CONTINUOUS
 70
0
 71
3
 72
9
 73
5
 74
0
 42
0.0000001
 43
0.0000001
 44
0.0000000001
 40
0.0
 40
0.0
 40
0.0
 40
0.0
 40
0.5303668936
 40
1.0
 40
1.0
 40
1.0
 40
1.0
 10
16.3298959593
 20
53.2839590003
 30
0.0
 10
16.4052114404
 20
53.2224535499
 30
0.0
 10
16.5568317406
 20
53.117501573
 30
0.0
 10
16.7278474091
 20
53.0457750953
 30
0.0
 10
16.8112199426
 20
53.0242614407
 30
0.0
  0
SPLINE
  5
334
100
AcDbEntity
  8
0
100
AcDbSpline
 62
7
  6
CONTINUOUS
 70
0
 71
3
 72
9
 73
5
 74
0
 42
0.0000001
 43
0.0000001
 44
0.0000000001
 40
0.0
 40
0.0
 40
0.0
 40
0.0
 40
0.2722317443
 40
1.0
 40
1.0
 40
1.0
 40
1.0
 10
14.6641187839
 20
55.5682699939
 30
0.0
 10
14.6641187839
 20
55.6395589611
 30
0.0
 10
14.6752880951
 20
55.9008661565
 30
0.0
 10
14.7349999596
 20
56.1633416578
 30
0.0
 10
14.8167501286
 20
56.3354972165
 30
0.0
  0
SPLINE
  5
335
100
AcDbEntity
  8
0
100
AcDbSpline
 62
7
  6
CONTINUOUS
 70
0
 71
3
 72
12
 73
8
 74
0
 42
0.0000001
 43
0.0000001
 44
0.0000000001
 40
0.0
 40
0.0
 40
0.0
 40
0.0
 40
0.2557978544
 40
0.5177554182
 40
0.7702946349
 40
0.8887987854
 40
1.0
 40
1.0
 40
1.0
 40
1.0
 10
15.8697140845
 20
52.8507683327
 30
0.0
 10
15.6882223736
 20
53.0355461211
 30
0.0
 10
15.357500604
 20
53.4468180615
 30
0.0
 10
14.978070938
 20
54.1319944883
 30
0.0
 10
14.7672256575
 20
54.7417593421
 30
0.0
 10
14.6798118663
 20
55.222923729
 30
0.0
 10
14.6641187839
 20
55.455675833
 30
0.0
 10
14.6641187839
 20
55.5682699939
 30
0.0
  0
SPLINE
  5
336
100
AcDbEntity
  8
0
100
AcDbSpline
 62
7
  6
CONTINUOUS
 70
0
 71
3
 72
19
 73
15
 74
0
 42
0.0000001
 43
0.0000001
 44
0.0000000001
 40
0.0
 40
0.0
 40
0.0
 40
0.0
 40
0.1233310561
 40
0.1899279788
 40
0.2588752949
 40
0.4003608782
 40
0.5409907734
 40
0.6089783062
 40
0.6744129887
 40
0.7954400696
 40
0.8508928526
 40
0.9030524017
 40
0.9524681695
 40
1.0
 40
1.0
 40
1.0
 40
1.0
 10
31.5062396897
 20
45.2064026184
 30
0.0
 10
31.5062396897
 20
44.9800421952
 30
0.0
 10
31.5584338901
 20
44.6304605189
 30
0.0
 10
31.7042506717
 20
44.1778793938
 30
0.0
 10
31.9099308848
 20
43.7118778726
 30
0.0
 10
32.2569211932
 20
43.1640191379
 30
0.0
 10
32.6991960552
 20
42.6919522106
 30
0.0
 10
33.0958128477
 20
42.3810451649
 30
0.0
 10
33.4928839103
 20
42.1342797981
 30
0.0
 10
33.9104557438
 20
41.9657387493
 30
0.0
 10
34.3264621495
 20
41.8996947593
 30
0.0
 10
34.6162380839
 20
41.902962316
 30
0.0
 10
34.8861267281
 20
41.9576517369
 30
0.0
 10
35.0508590891
 20
42.0292026943
 30
0.0
 10
35.1264516871
 20
42.0727511629
 30
0.0
  0
ENDSEC
  0
SECTION
  2
OBJECTS
  0
DICTIONARY
  5
C
100
AcDbDictionary
280
0
281
1
  3
ACAD_GROUP
350
D
  3
ACAD_MLINESTYLE
350
17
  3
ACAD_LAYOUT
350
1A
  3
ACAD_PLOTSETTINGS
350
19
  3
ACAD_PLOTSTYLENAME
350
E
  0
DICTIONARY
  5
D
102
{ACAD_REACTORS
330
C
102
}
100
AcDbDictionary
280
0
281
1
  0
ACDBDICTIONARYWDFLT
  5
E
102
{ACAD_REACTORS
330
C
102
}
100
AcDbDictionary
281
1
  3
Normal
350
F
100
AcDbDictionaryWithDefault
340
F
  0
DICTIONARY
  5
17
102
{ACAD_REACTORS
330
C
102
}
100
AcDbDictionary
280
0
281
1
  3
Standard
350
18
  0
DICTIONARY
  5
19
102
{ACAD_REACTORS
330
C
102
}
100
AcDbDictionary
281
1
  0
DICTIONARY
  5
1A
102
{ACAD_REACTORS
330
C
102
}
100
AcDbDictionary
281
1
  3
Model
350
337
  3
Layout1
350
338
  0
ACDBPLACEHOLDER
  5
F
102
{ACAD_REACTORS
330
E
102
}
  0
MLINESTYLE
  5
18
102
{ACAD_REACTORS
330
17
102
}
100
AcDbMlineStyle
  2
STANDARD
 70
0
  3

 62
256
 51
90.0
 52
90.0
 71
2
 49
0.5
 62
256
  6
BYLAYER
 49
-0.5
 62
256
  6
BYLAYER
  0
LAYOUT
  5
337
102
{ACAD_REACTORS
330
1A
102
}
100
AcDbPlotSettings
  1

  2
none_device
  4

  6

 40
0.0
 41
0.0
 42
0.0
 43
0.0
 44
210.0
 45
297.0
 46
0.0
 47
0.0
 48
0.0
 49
0.0
140
0.0
141
0.0
142
1.0
143
1.0
 70
1024
 72
1
 73
0
 74
0
  7

 75
0
147
1.0
148
0.0
149
0.0
100
AcDbLayout
  1
Model
 70
0
 71
0
 10
0.0
 20
0.0
 11
210.0
 21
297.0
 12
0.0
 22
0.0
 32
0.0
 14
0.0
 24
0.0
 34
0.0
 15
0.0
 25
0.0
 35
0.0
146
0.0
 13
0.0
 23
0.0
 33
0.0
 16
1.0
 26
0.0
 36
0.0
 17
0.0
 27
1.0
 37
0.0
 76
0
330
210
345
0
346
0
  0
LAYOUT
  5
338
102
{ACAD_REACTORS
330
1A
102
}
100
AcDbPlotSettings
  1

  2
none_device
  4

  6

 40
0.0
 41
0.0
 42
0.0
 43
0.0
 44
210.0
 45
297.0
 46
0.0
 47
0.0
 48
0.0
 49
0.0
140
0.0
141
0.0
142
1.0
143
1.0
 70
0
 72
1
 73
0
 74
0
  7

 75
0
147
1.0
148
0.0
149
0.0
100
AcDbLayout
  1
Layout1
 70
0
 71
1
 10
0.0
 20
0.0
 11
210.0
 21
297.0
 12
0.0
 22
0.0
 32
0.0
 14
0.0
 24
0.0
 34
0.0
 15
0.0
 25
0.0
 35
0.0
146
0.0
 13
0.0
 23
0.0
 33
0.0
 16
1.0
 26
0.0
 36
0.0
 17
0.0
 27
1.0
 37
0.0
 76
0
330
211
345
0
346
0
  0
ENDSEC
  0
EOF
