999
DXF file: C:\Users\sesa63760\Dev\_Creo\CAD\MCADID0005242_3D-CAD\drw0001_4.dxf
999
Pro/ENGINEER 2019471 by Parametric Technology Corporation
  0
SECTION
  2
HEADER
  9
$ACADVER
  1
AC1024
  9
$DWGCODEPAGE
  3
ANSI_1252
  9
$EXTMAX
 10
65.0818127166
 20
92.0442779849
 30
0.0
  9
$EXTMIN
 10
0.0
 20
0.0
 30
0.0
  9
$LIMMIN
 10
0.0
 20
0.0
  9
$LIMMAX
 10
65.0818127166
 20
92.0442779849
  9
$VIEWCTR
 10
32.5409063583
 20
46.0221389925
  9
$VIEWSIZE
 40
92.0442779849
  9
$CLAYER
  8
0
  9
$LTSCALE
 40
5.9999233057
  9
$CELTYPE
  6
BYLAYER
  9
$DIMSCALE
 40
1.0
  9
$DIMASZ
 40
0.7747834847
  9
$DIMEXO
 40
1.0
  9
$DIMDLI
 40
4.1454015567
  9
$DIMEXE
 40
1.0
  9
$DIMCEN
 40
0.9818056318
  9
$DIMLFAC
 40
1.0
  9
$DIMBLK
  1
_FILLED
  9
$DIMALT
 70
0
  9
$DIMALTF
 40
0.0393700787
  9
$DIMTXT
 40
1.0846968786
  9
$DIMTOL
 70
1
  9
$DIMLIM
 70
0
  9
$DIMTFAC
 40
1.0
  9
$DIMTP
 40
0.01
  9
$DIMTM
 40
0.01
  9
$DIMGAP
 40
0.625
  9
$DIMDSEP
 70
46
  9
$AUNITS
 70
0
  9
$PDMODE
 70
3
  9
$PDSIZE
 40
0.3125
  9
$HANDSEED
  5
2D8
  9
$TILEMODE
 70
1
  9
$MEASUREMENT
 70
1
  9
$INSUNITS
 70
4
  0
ENDSEC
  0
SECTION
  2
CLASSES
  0
CLASS
  1
ACDBDICTIONARYWDFLT
  2
AcDbDictionaryWithDefault
  3
AutoCAD 2000
 90
0
 91
1
280
0
281
0
  0
CLASS
  1
ACDBPLACEHOLDER
  2
AcDbPlaceHolder
  3
AutoCAD 2000
 90
0
 91
1
280
0
281
0
  0
CLASS
  1
LAYOUT
  2
AcDbLayout
  3
AutoCAD 2000
 90
0
 91
0
280
0
281
0
  0
ENDSEC
  0
SECTION
  2
TABLES
  0
TABLE
  2
VPORT
  5
8
100
AcDbSymbolTable
 70
2
  0
VPORT
  5
1F4
100
AcDbSymbolTableRecord
100
AcDbViewportTableRecord
  2
*ACTIVE
 70
0
 10
0.0
 20
0.0
 11
1.0
 21
1.0
 12
32.5409063583
 22
46.0221389925
 13
0.0
 23
0.0
 14
1.0
 24
1.0
 15
0.0
 25
0.0
 16
0.0
 26
0.0
 36
1.0
 17
0.0
 27
0.0
 37
0.0
 40
92.0442779849
 41
0.7070707071
 42
50.0
 43
0.0
 44
0.0
 50
0.0
 51
0.0
 71
0
 72
100
 73
1
 74
1
 75
0
 76
0
 77
0
 78
0
  0
ENDTAB
  0
TABLE
  2
LTYPE
  5
5
100
AcDbSymbolTable
 70
6
  0
LTYPE
  5
14
100
AcDbSymbolTableRecord
100
AcDbLinetypeTableRecord
  2
BYBLOCK
 70
0
  3

 72
65
 73
0
 40
0.0
  0
LTYPE
  5
15
100
AcDbSymbolTableRecord
100
AcDbLinetypeTableRecord
  2
BYLAYER
 70
0
  3

 72
65
 73
0
 40
0.0
  0
LTYPE
  5
16
100
AcDbSymbolTableRecord
100
AcDbLinetypeTableRecord
  2
CONTINUOUS
 70
64
  3
Solid line
 72
65
 73
0
 40
0.0
  0
LTYPE
  5
1F5
100
AcDbSymbolTableRecord
100
AcDbLinetypeTableRecord
  2
CENTER
 70
64
  3
____ _ ____ _ ____ _ ____ _ ____ _ ____ _ ____
 72
65
 73
4
 40
0.6
 49
0.375
 74
0
 49
-0.075
 74
0
 49
0.075
 74
0
 49
-0.075
 74
0
  0
LTYPE
  5
1F6
100
AcDbSymbolTableRecord
100
AcDbLinetypeTableRecord
  2
HIDDEN
 70
64
  3
- - - - - - - - - - - - - - - - - - - -
 72
65
 73
2
 40
0.2
 49
0.1
 74
0
 49
-0.1
 74
0
  0
LTYPE
  5
1F7
100
AcDbSymbolTableRecord
100
AcDbLinetypeTableRecord
  2
PHANTOM
 70
64
  3
_____ _ _ _____ _ _ _____ _ _ _____
 72
65
 73
6
 40
0.8
 49
0.45
 74
0
 49
-0.05
 74
0
 49
0.1
 74
0
 49
-0.05
 74
0
 49
0.1
 74
0
 49
-0.05
 74
0
  0
LTYPE
  5
1F8
100
AcDbSymbolTableRecord
100
AcDbLinetypeTableRecord
  2
DOT
 70
64
  3
. . . . . . . . . . . . . . . . . . . .
 72
65
 73
2
 40
0.2
 49
0.1
 74
0
 49
-0.1
 74
0
  0
LTYPE
  5
1F9
100
AcDbSymbolTableRecord
100
AcDbLinetypeTableRecord
  2
DASHED
 70
64
  3
- - - - - - - - - - - - - - - - - - - -
 72
65
 73
2
 40
0.2
 49
0.1
 74
0
 49
-0.1
 74
0
  0
ENDTAB
  0
TABLE
  2
LAYER
  5
2
100
AcDbSymbolTable
 70
36
  0
LAYER
  5
10
100
AcDbSymbolTableRecord
100
AcDbLayerTableRecord
  2
0
 70
0
 62
7
  6
CONTINUOUS
370
-3
390
F
  0
LAYER
  5
1FA
100
AcDbSymbolTableRecord
100
AcDbLayerTableRecord
  2
DEFAULT_1
 70
0
 62
7
  6
CENTER
370
-3
390
F
  0
LAYER
  5
1FB
100
AcDbSymbolTableRecord
100
AcDbLayerTableRecord
  2
DEFAULT_2
 70
0
 62
7
  6
HIDDEN
370
-3
390
F
  0
LAYER
  5
1FC
100
AcDbSymbolTableRecord
100
AcDbLayerTableRecord
  2
DEFAULT_3
 70
0
 62
7
  6
PHANTOM
370
-3
390
F
  0
LAYER
  5
1FD
100
AcDbSymbolTableRecord
100
AcDbLayerTableRecord
  2
00_COMPONENTS
 70
0
 62
7
  6
CONTINUOUS
370
-3
390
F
  0
LAYER
  5
1FE
100
AcDbSymbolTableRecord
100
AcDbLayerTableRecord
  2
00_COMPONENTS_1
 70
0
 62
7
  6
CONTINUOUS
370
-3
390
F
  0
LAYER
  5
1FF
100
AcDbSymbolTableRecord
100
AcDbLayerTableRecord
  2
00_COMPONENTS_2
 70
0
 62
7
  6
CONTINUOUS
370
-3
390
F
  0
LAYER
  5
200
100
AcDbSymbolTableRecord
100
AcDbLayerTableRecord
  2
00_COMPONENTS_3
 70
0
 62
7
  6
CONTINUOUS
370
-3
390
F
  0
LAYER
  5
201
100
AcDbSymbolTableRecord
100
AcDbLayerTableRecord
  2
01_1_DEFAULT_DATUMS
 70
0
 62
7
  6
CONTINUOUS
370
-3
390
F
  0
LAYER
  5
202
100
AcDbSymbolTableRecord
100
AcDbLayerTableRecord
  2
01_PLANES
 70
0
 62
7
  6
CONTINUOUS
370
-3
390
F
  0
LAYER
  5
203
100
AcDbSymbolTableRecord
100
AcDbLayerTableRecord
  2
02_COORD_SYS
 70
0
 62
7
  6
CONTINUOUS
370
-3
390
F
  0
LAYER
  5
204
100
AcDbSymbolTableRecord
100
AcDbLayerTableRecord
  2
03_AXES
 70
0
 62
7
  6
CONTINUOUS
370
-3
390
F
  0
LAYER
  5
205
100
AcDbSymbolTableRecord
100
AcDbLayerTableRecord
  2
04_POINTS
 70
0
 62
7
  6
CONTINUOUS
370
-3
390
F
  0
LAYER
  5
206
100
AcDbSymbolTableRecord
100
AcDbLayerTableRecord
  2
05_CURVES
 70
0
 62
7
  6
CONTINUOUS
370
-3
390
F
  0
LAYER
  5
207
100
AcDbSymbolTableRecord
100
AcDbLayerTableRecord
  2
06_SURFS
 70
0
 62
7
  6
CONTINUOUS
370
-3
390
F
  0
LAYER
  5
208
100
AcDbSymbolTableRecord
100
AcDbLayerTableRecord
  2
07_COSMETICS
 70
0
 62
7
  6
CONTINUOUS
370
-3
390
F
  0
LAYER
  5
209
100
AcDbSymbolTableRecord
100
AcDbLayerTableRecord
  2
10_NOTES
 70
0
 62
7
  6
CONTINUOUS
370
-3
390
F
  0
LAYER
  5
20A
100
AcDbSymbolTableRecord
100
AcDbLayerTableRecord
  2
11_NOTES_PUB
 70
0
 62
7
  6
CONTINUOUS
370
-3
390
F
  0
LAYER
  5
20B
100
AcDbSymbolTableRecord
100
AcDbLayerTableRecord
  2
13_REF_GTOL
 70
0
 62
7
  6
CONTINUOUS
370
-3
390
F
  0
LAYER
  5
20C
100
AcDbSymbolTableRecord
100
AcDbLayerTableRecord
  2
16_MISC
 70
0
 62
7
  6
CONTINUOUS
370
-3
390
F
  0
LAYER
  5
20D
100
AcDbSymbolTableRecord
100
AcDbLayerTableRecord
  2
17_NO_PRINT
 70
0
 62
7
  6
CONTINUOUS
370
-3
390
F
  0
LAYER
  5
20E
100
AcDbSymbolTableRecord
100
AcDbLayerTableRecord
  2
18_DATUM_CAMS_JOINTS
 70
0
 62
7
  6
CONTINUOUS
370
-3
390
F
  0
LAYER
  5
20F
100
AcDbSymbolTableRecord
100
AcDbLayerTableRecord
  2
19_DATUM_FUNCTIONAL
 70
0
 62
7
  6
CONTINUOUS
370
-3
390
F
  0
LAYER
  5
210
100
AcDbSymbolTableRecord
100
AcDbLayerTableRecord
  2
20_DATUM_KINEMATIC_SCHEME
 70
0
 62
7
  6
CONTINUOUS
370
-3
390
F
  0
LAYER
  5
211
100
AcDbSymbolTableRecord
100
AcDbLayerTableRecord
  2
INTFCLR_28848
 70
0
 62
7
  6
CONTINUOUS
370
-3
390
F
  0
LAYER
  5
212
100
AcDbSymbolTableRecord
100
AcDbLayerTableRecord
  2
INTF_BLANK
 70
0
 62
7
  6
CONTINUOUS
370
-3
390
F
  0
LAYER
  5
213
100
AcDbSymbolTableRecord
100
AcDbLayerTableRecord
  2
SHELL35
 70
0
 62
7
  6
CONTINUOUS
370
-3
390
F
  0
LAYER
  5
214
100
AcDbSymbolTableRecord
100
AcDbLayerTableRecord
  2
SHELL36
 70
0
 62
7
  6
CONTINUOUS
370
-3
390
F
  0
LAYER
  5
215
100
AcDbSymbolTableRecord
100
AcDbLayerTableRecord
  2
SHELL980
 70
0
 62
7
  6
CONTINUOUS
370
-3
390
F
  0
LAYER
  5
216
100
AcDbSymbolTableRecord
100
AcDbLayerTableRecord
  2
_BLACK_HOLE
 70
0
 62
7
  6
CONTINUOUS
370
-3
390
F
  0
LAYER
  5
217
100
AcDbSymbolTableRecord
100
AcDbLayerTableRecord
  2
black
 70
0
 62
7
  6
CONTINUOUS
370
-3
390
F
  0
ENDTAB
  0
TABLE
  2
STYLE
  5
3
100
AcDbSymbolTable
 70
1
  0
STYLE
  5
11
100
AcDbSymbolTableRecord
100
AcDbTextStyleTableRecord
  2
STANDARD
 70
0
 40
0.0
 41
1.0
 50
0.0
 71
0
 42
0.2
  3
ARIAL.TTF
  4

  0
STYLE
  5
218
100
AcDbSymbolTableRecord
100
AcDbTextStyleTableRecord
  2
TEXTSTYLE_1
 70
0
 40
0.0
 41
0.8
 50
0.0
 71
0
 42
0.2
  3
gdt
  4

  0
ENDTAB
  0
TABLE
  2
VIEW
  5
6
100
AcDbSymbolTable
 70
0
  0
ENDTAB
  0
TABLE
  2
UCS
  5
7
100
AcDbSymbolTable
 70
0
  0
ENDTAB
  0
TABLE
  2
APPID
  5
9
100
AcDbSymbolTable
 70
1
  0
APPID
  5
219
100
AcDbSymbolTableRecord
100
AcDbRegAppTableRecord
  2
ACAD
 70
0
  0
ENDTAB
  0
TABLE
  2
BLOCK_RECORD
  5
1
100
AcDbSymbolTable
 70
0
  0
BLOCK_RECORD
  5
21A
100
AcDbSymbolTableRecord
100
AcDbBlockTableRecord
  2
*Model_Space
  0
BLOCK_RECORD
  5
21B
100
AcDbSymbolTableRecord
100
AcDbBlockTableRecord
  2
*Paper_Space
  0
BLOCK_RECORD
  5
21C
100
AcDbSymbolTableRecord
100
AcDbBlockTableRecord
  2
_FILLED
  0
ENDTAB
  0
TABLE
  2
DIMSTYLE
  5
A
100
AcDbSymbolTable
 70
1
100
AcDbDimStyleTable
 71
0
  0
DIMSTYLE
105
21D
100
AcDbSymbolTableRecord
100
AcDbDimStyleTableRecord
  2
STANDARD
 70
0
  3

  4

 40
1.0
 41
0.7747834847
 42
1.0
 43
0.38
 44
1.0
 45
0.0
 46
0.0
 47
0.01
 48
0.01
140
1.0846968786
141
0.09
142
0.0
143
25.4
144
1.0
145
0.0
146
1.0
147
0.625
 71
1
 72
0
 73
0
 74
0
 75
0
 76
0
 77
1
 78
8
 79
2
170
0
171
1
172
0
173
0
174
0
175
0
176
0
177
0
178
0
270
2
179
2
271
2
272
2
273
2
274
2
275
0
280
0
281
0
282
0
283
1
284
8
285
0
286
0
287
3
288
0
340
11
278
46
341
21C
342
21C
343
21C
344
21C
  0
ENDTAB
  0
ENDSEC
  0
SECTION
  2
BLOCKS
  0
BLOCK
  5
20
100
AcDbEntity
  8
0
100
AcDbBlockBegin
  2
*Model_Space
 70
0
 10
0.0
 20
0.0
 30
0.0
  3
*Model_Space
  1

  0
ENDBLK
  5
21
100
AcDbEntity
  8
0
100
AcDbBlockEnd
  0
BLOCK
  5
1C
100
AcDbEntity
  8
0
100
AcDbBlockBegin
  2
*Paper_Space
 70
0
 10
0.0
 20
0.0
 30
0.0
  3
*Paper_Space
  1

  0
ENDBLK
  5
1D
100
AcDbEntity
  8
0
100
AcDbBlockEnd
  0
BLOCK
  5
21E
100
AcDbEntity
  8
0
100
AcDbBlockBegin
  2
_FILLED
 70
64
 10
0.0
 20
0.0
  3
_FILLED
  1

  0
SOLID
  5
21F
100
AcDbEntity
  8
0
  6
BYBLOCK
 62
0
100
AcDbTrace
 10
0.0
 20
0.0
 11
-1.0
 21
0.25
 12
-1.0
 22
-0.25
 13
-1.0
 23
-0.25
  0
ENDBLK
  5
220
100
AcDbEntity
  8
0
  6
BYBLOCK
 62
0
100
AcDbBlockEnd
  0
ENDSEC
  0
SECTION
  2
ENTITIES
  0
LINE
  5
221
100
AcDbEntity
  8
00_COMPONENTS
100
AcDbLine
 62
7
  6
BYLAYER
 10
37.720216175
 20
6.5930894584
 11
32.801515966
 21
6.5930894584
  0
LINE
  5
222
100
AcDbEntity
  8
00_COMPONENTS
100
AcDbLine
 62
7
  6
BYLAYER
 10
38.4406952697
 20
6.5997219299
 11
32.0810368714
 21
6.5997219299
  0
LINE
  5
223
100
AcDbEntity
  8
00_COMPONENTS
100
AcDbLine
 62
7
  6
BYLAYER
 10
39.1575110443
 20
6.6105268502
 11
31.3642210967
 21
6.6105268502
  0
LINE
  5
224
100
AcDbEntity
  8
00_COMPONENTS
100
AcDbLine
 62
7
  6
BYLAYER
 10
39.8776714947
 20
6.6256081697
 11
30.6440606464
 21
6.6256081697
  0
LINE
  5
225
100
AcDbEntity
  8
00_COMPONENTS
100
AcDbLine
 62
7
  6
BYLAYER
 10
40.6274364314
 20
6.6458117322
 11
29.8942957097
 21
6.6458117322
  0
LINE
  5
226
100
AcDbEntity
  8
00_COMPONENTS
100
AcDbLine
 62
7
  6
BYLAYER
 10
41.2803507649
 20
6.6671485798
 11
29.2413813762
 21
6.6671485798
  0
LINE
  5
227
100
AcDbEntity
  8
00_COMPONENTS
100
AcDbLine
 62
7
  6
BYLAYER
 10
42.0028023448
 20
6.694821235
 11
28.5189297963
 21
6.694821235
  0
LINE
  5
228
100
AcDbEntity
  8
00_COMPONENTS
100
AcDbLine
 62
7
  6
BYLAYER
 10
42.8977012779
 20
6.7350223991
 11
27.6240308632
 21
6.7350223991
  0
LINE
  5
229
100
AcDbEntity
  8
00_COMPONENTS
100
AcDbLine
 62
7
  6
BYLAYER
 10
43.5765044886
 20
6.7698912474
 11
26.9452276525
 21
6.7698912474
  0
LINE
  5
22A
100
AcDbEntity
  8
00_COMPONENTS
100
AcDbLine
 62
7
  6
BYLAYER
 10
44.409464458
 20
6.817841614
 11
26.1122676831
 21
6.817841614
  0
LINE
  5
22B
100
AcDbEntity
  8
00_COMPONENTS
100
AcDbLine
 62
7
  6
BYLAYER
 10
44.9837415611
 20
6.8542171508
 11
25.53799058
 21
6.8542171508
  0
LINE
  5
22C
100
AcDbEntity
  8
00_COMPONENTS
100
AcDbLine
 62
7
  6
BYLAYER
 10
45.685893545
 20
6.9023746087
 11
24.835838596
 21
6.9023746087
  0
LINE
  5
22D
100
AcDbEntity
  8
00_COMPONENTS
100
AcDbLine
 62
7
  6
BYLAYER
 10
46.2986375222
 20
6.9477136035
 11
24.2230946189
 21
6.9477136035
  0
LINE
  5
22E
100
AcDbEntity
  8
00_COMPONENTS
100
AcDbLine
 62
7
  6
BYLAYER
 10
46.8553793317
 20
6.9915896609
 11
23.6663528094
 21
6.9915896609
  0
LINE
  5
22F
100
AcDbEntity
  8
00_COMPONENTS
100
AcDbLine
 62
7
  6
BYLAYER
 10
47.5726612525
 20
7.0518848908
 11
22.9490708885
 21
7.0518848908
  0
LINE
  5
230
100
AcDbEntity
  8
00_COMPONENTS
100
AcDbLine
 62
7
  6
BYLAYER
 10
48.3578958973
 20
7.122762987
 11
22.1638362438
 21
7.122762987
  0
LINE
  5
231
100
AcDbEntity
  8
00_COMPONENTS
100
AcDbLine
 62
7
  6
BYLAYER
 10
49.0856632223
 20
7.1930071382
 11
21.4360689188
 21
7.1930071382
  0
LINE
  5
232
100
AcDbEntity
  8
00_COMPONENTS
100
AcDbLine
 62
7
  6
BYLAYER
 10
18.6833304226
 20
7.4984599366
 11
51.8383304437
 21
7.498451211
  0
LINE
  5
233
100
AcDbEntity
  8
00_COMPONENTS
100
AcDbLine
 62
7
  6
BYLAYER
 10
51.7108660717
 20
9.5906857536
 11
18.8108660694
 21
9.5906857536
  0
LINE
  5
234
100
AcDbEntity
  8
00_COMPONENTS
100
AcDbLine
 62
7
  6
BYLAYER
 10
23.5834885304
 20
7.0518848908
 11
23.6663528094
 21
6.9915896609
  0
LINE
  5
235
100
AcDbEntity
  8
00_COMPONENTS
100
AcDbLine
 62
7
  6
BYLAYER
 10
22.0929512083
 20
7.1930071382
 11
22.1638362438
 21
7.122762987
  0
LINE
  5
236
100
AcDbEntity
  8
00_COMPONENTS
100
AcDbLine
 62
7
  6
BYLAYER
 10
22.8775461241
 20
7.122762987
 11
22.9490708885
 21
7.0518848908
  0
LINE
  5
237
100
AcDbEntity
  8
00_COMPONENTS
100
AcDbLine
 62
7
  6
BYLAYER
 10
29.8727641918
 20
6.6671485798
 11
29.8942957097
 21
6.6458117322
  0
LINE
  5
238
100
AcDbEntity
  8
00_COMPONENTS
100
AcDbLine
 62
7
  6
BYLAYER
 10
24.7961166667
 20
6.9477136035
 11
24.835838596
 21
6.9023746087
  0
LINE
  5
239
100
AcDbEntity
  8
00_COMPONENTS
100
AcDbLine
 62
7
  6
BYLAYER
 10
25.495799368
 20
6.9023746087
 11
25.53799058
 21
6.8542171508
  0
LINE
  5
23A
100
AcDbEntity
  8
00_COMPONENTS
100
AcDbLine
 62
7
  6
BYLAYER
 10
26.9032178751
 20
6.817841614
 11
26.9452276525
 21
6.7698912474
  0
LINE
  5
23B
100
AcDbEntity
  8
00_COMPONENTS
100
AcDbLine
 62
7
  6
BYLAYER
 10
30.6236727533
 20
6.6458117322
 11
30.6440606464
 21
6.6256081697
  0
LINE
  5
23C
100
AcDbEntity
  8
00_COMPONENTS
100
AcDbLine
 62
7
  6
BYLAYER
 10
31.3490021803
 20
6.6256081697
 11
31.3642210967
 21
6.6105268502
  0
LINE
  5
23D
100
AcDbEntity
  8
00_COMPONENTS
100
AcDbLine
 62
7
  6
BYLAYER
 10
32.0701333705
 20
6.6105268502
 11
32.0810368714
 21
6.5997219299
  0
LINE
  5
23E
100
AcDbEntity
  8
00_COMPONENTS
100
AcDbLine
 62
7
  6
BYLAYER
 10
29.2171370969
 20
6.694821235
 11
29.2413813762
 21
6.6671485798
  0
LINE
  5
23F
100
AcDbEntity
  8
00_COMPONENTS
100
AcDbLine
 62
7
  6
BYLAYER
 10
28.4868916287
 20
6.7350223991
 11
28.5189297963
 21
6.694821235
  0
LINE
  5
240
100
AcDbEntity
  8
00_COMPONENTS
100
AcDbLine
 62
7
  6
BYLAYER
 10
26.085525399
 20
6.8542171508
 11
26.1122676831
 21
6.817841614
  0
LINE
  5
241
100
AcDbEntity
  8
00_COMPONENTS
100
AcDbLine
 62
7
  6
BYLAYER
 10
24.192971041
 20
6.9915896609
 11
24.2230946189
 21
6.9477136035
  0
LINE
  5
242
100
AcDbEntity
  8
0
100
AcDbLine
 62
7
  6
BYLAYER
 10
17.8456660705
 20
67.7486083
 11
15.1316304701
 21
66.3516083
  0
LINE
  5
243
100
AcDbEntity
  8
00_COMPONENTS
100
AcDbLine
 62
7
  6
BYLAYER
 10
19.2608660665
 20
24.8446857548
 11
19.5148660665
 21
24.5906857548
  0
LINE
  5
244
100
AcDbEntity
  8
00_COMPONENTS
100
AcDbLine
 62
7
  6
BYLAYER
 10
27.603246032
 20
6.7698912474
 11
27.6240308632
 21
6.7350223991
  0
LINE
  5
245
100
AcDbEntity
  8
0
100
AcDbLine
 62
7
  6
BYLAYER
 10
10.0732660705
 20
58.5747064991
 11
10.0732660705
 21
83.0868857548
  0
LINE
  5
246
100
AcDbEntity
  8
0
100
AcDbLine
 62
7
  6
BYLAYER
 10
11.3432660705
 20
67.7903417059
 11
11.3432660705
 21
69.158508511
  0
LINE
  5
247
100
AcDbEntity
  8
0
100
AcDbLine
 62
7
  6
BYLAYER
 10
11.3432660705
 20
76.6448742413
 11
11.3432660705
 21
78.0130410464
  0
LINE
  5
248
100
AcDbEntity
  8
0
100
AcDbLine
 62
7
  6
BYLAYER
 10
11.5972660705
 20
83.0868857548
 11
11.5972660705
 21
84.8902857548
  0
LINE
  5
249
100
AcDbEntity
  8
00_COMPONENTS
100
AcDbLine
 62
7
  6
BYLAYER
 10
19.5148660665
 20
24.5906857548
 11
51.0068660745
 21
24.5906857548
  0
LINE
  5
24A
100
AcDbEntity
  8
00_COMPONENTS
100
AcDbLine
 62
7
  6
BYLAYER
 10
19.2608660665
 20
24.8446857548
 11
51.2608660745
 21
24.8446857548
  0
LINE
  5
24B
100
AcDbEntity
  8
0
100
AcDbLine
 62
7
  6
BYLAYER
 10
13.6330046015
 20
67.8978655975
 11
13.6330046015
 21
68.5444440382
  0
LINE
  5
24C
100
AcDbEntity
  8
0
100
AcDbLine
 62
7
  6
BYLAYER
 10
13.6330046015
 20
76.7523981329
 11
13.6330046015
 21
77.3989765736
  0
LINE
  5
24D
100
AcDbEntity
  8
0
100
AcDbLine
 62
7
  6
BYLAYER
 10
13.8232660705
 20
51.0066857548
 11
13.8232660705
 21
58.4488857548
  0
LINE
  5
24E
100
AcDbEntity
  8
0
100
AcDbLine
 62
7
  6
BYLAYER
 10
14.9662660705
 20
51.0066857548
 11
14.9662660705
 21
48.6063857548
  0
LINE
  5
24F
100
AcDbEntity
  8
0
100
AcDbLine
 62
7
  6
BYLAYER
 10
15.0516660705
 20
83.0868857548
 11
15.0516660705
 21
84.8902857548
  0
LINE
  5
250
100
AcDbEntity
  8
0
100
AcDbLine
 62
7
  6
BYLAYER
 10
15.4171160705
 20
48.6063857548
 11
15.4171160705
 21
47.0188857548
  0
LINE
  5
251
100
AcDbEntity
  8
00_COMPONENTS
100
AcDbLine
 62
7
  6
BYLAYER
 10
17.7983660705
 20
31.5818605211
 11
18.8671660665
 21
30.9647885557
  0
LINE
  5
252
100
AcDbEntity
  8
00_COMPONENTS
100
AcDbLine
 62
7
  6
BYLAYER
 10
16.2108660705
 20
39.1448857548
 11
16.2108660705
 21
40.6688857548
  0
LINE
  5
253
100
AcDbEntity
  8
00_COMPONENTS
100
AcDbLine
 62
7
  6
BYLAYER
 10
16.8458660705
 20
37.8748857548
 11
16.8458660705
 21
39.1448857548
  0
LINE
  5
254
100
AcDbEntity
  8
00_COMPONENTS
100
AcDbLine
 62
7
  6
BYLAYER
 10
17.7983660705
 20
31.5818605211
 11
17.7983660705
 21
37.8748857548
  0
LINE
  5
255
100
AcDbEntity
  8
0
100
AcDbLine
 62
7
  6
BYLAYER
 10
17.8456660705
 20
83.0868857548
 11
17.8456660705
 21
80.0305243772
  0
LINE
  5
256
100
AcDbEntity
  8
0
100
AcDbLine
 62
7
  6
BYLAYER
 10
17.8456660705
 20
79.1386473579
 11
17.8456660705
 21
77.0162326169
  0
LINE
  5
257
100
AcDbEntity
  8
0
100
AcDbLine
 62
7
  6
BYLAYER
 10
17.8456660705
 20
74.5376819275
 11
17.8456660705
 21
71.1759918418
  0
LINE
  5
258
100
AcDbEntity
  8
0
100
AcDbLine
 62
7
  6
BYLAYER
 10
17.8456660705
 20
70.2841148225
 11
17.8456660705
 21
67.7486083
  0
LINE
  5
259
100
AcDbEntity
  8
00_COMPONENTS
100
AcDbLine
 62
7
  6
BYLAYER
 10
51.2608660745
 20
30.2828801528
 11
19.2608660665
 21
30.2828801528
  0
LINE
  5
25A
100
AcDbEntity
  8
00_COMPONENTS
100
AcDbLine
 62
7
  6
BYLAYER
 10
19.2608660665
 20
30.2828801528
 11
19.2608660665
 21
24.8446857548
  0
LINE
  5
25B
100
AcDbEntity
  8
0
100
AcDbLine
 62
7
  6
BYLAYER
 10
20.2748660705
 20
47.0188857548
 11
20.2748660705
 21
40.6688857548
  0
LINE
  5
25C
100
AcDbEntity
  8
00_COMPONENTS
100
AcDbLine
 62
7
  6
BYLAYER
 10
18.8671660665
 20
30.9647885557
 11
51.6545660745
 21
30.9647885557
  0
LINE
  5
25D
100
AcDbEntity
  8
00_COMPONENTS
100
AcDbLine
 62
7
  6
BYLAYER
 10
22.7608660706
 20
24.5906857548
 11
22.7608660706
 21
9.5906857536
  0
LINE
  5
25E
100
AcDbEntity
  8
0
100
AcDbLine
 62
7
  6
BYLAYER
 10
22.7732660705
 20
58.4488857548
 11
22.7732660705
 21
65.997782295
  0
LINE
  5
25F
100
AcDbEntity
  8
0
100
AcDbLine
 62
7
  6
BYLAYER
 10
22.7732660705
 20
68.102434305
 11
22.7732660705
 21
83.0868857548
  0
LINE
  5
260
100
AcDbEntity
  8
0
100
AcDbLine
 62
7
  6
BYLAYER
 10
25.3132660705
 20
58.4488857548
 11
25.3132660705
 21
83.0868857548
  0
LINE
  5
261
100
AcDbEntity
  8
0
100
AcDbLine
 62
7
  6
BYLAYER
 10
25.3386660705
 20
83.0868857548
 11
25.3386660705
 21
58.4488857548
  0
LINE
  5
262
100
AcDbEntity
  8
00_COMPONENTS
100
AcDbLine
 62
7
  6
BYLAYER
 10
16.8458660705
 20
37.8748857548
 11
53.6758660705
 21
37.8748857548
  0
LINE
  5
263
100
AcDbEntity
  8
00_COMPONENTS
100
AcDbLine
 62
7
  6
BYLAYER
 10
16.2108660705
 20
39.1448857548
 11
54.3108660705
 21
39.1448857548
  0
LINE
  5
264
100
AcDbEntity
  8
0
100
AcDbLine
 62
7
  6
BYLAYER
 10
12.3781134663
 20
70.5891082815
 11
13.1144884346
 21
69.158508511
  0
LINE
  5
265
100
AcDbEntity
  8
00_COMPONENTS
100
AcDbLine
 62
7
  6
BYLAYER
 10
28.0276617376
 20
37.8748857548
 11
28.0276617376
 21
32.4125369605
  0
LINE
  5
266
100
AcDbEntity
  8
0
100
AcDbLine
 62
7
  6
BYLAYER
 10
28.7500680583
 20
55.9681524214
 11
28.7500680583
 21
51.0066857548
  0
LINE
  5
267
100
AcDbEntity
  8
0
100
AcDbLine
 62
7
  6
BYLAYER
 10
29.3625386689
 20
58.4488857548
 11
29.3625386689
 21
55.9681524214
  0
LINE
  5
268
100
AcDbEntity
  8
00_COMPONENTS
100
AcDbLine
 62
7
  6
BYLAYER
 10
54.3108660705
 20
40.6688857548
 11
16.2108660705
 21
40.6688857548
  0
LINE
  5
269
100
AcDbEntity
  8
0
100
AcDbLine
 62
7
  6
BYLAYER
 10
12.3781134663
 20
79.4436408169
 11
13.1144884346
 21
78.0130410464
  0
LINE
  5
26A
100
AcDbEntity
  8
0
100
AcDbLine
 62
7
  6
BYLAYER
 10
17.8456660705
 20
71.1759918418
 11
17.7418079158
 21
71.4385507761
  0
LINE
  5
26B
100
AcDbEntity
  8
0
100
AcDbLine
 62
7
  6
BYLAYER
 10
31.9553660705
 20
58.4488857548
 11
31.9553660705
 21
83.0868857548
  0
LINE
  5
26C
100
AcDbEntity
  8
00_COMPONENTS
100
AcDbLine
 62
7
  6
BYLAYER
 10
32.1917723932
 20
39.1448857548
 11
32.1917723932
 21
37.8748857548
  0
LINE
  5
26D
100
AcDbEntity
  8
0
100
AcDbLine
 62
7
  6
BYLAYER
 10
33.6733660705
 20
58.4488857548
 11
33.6733660705
 21
51.0066857548
  0
LINE
  5
26E
100
AcDbEntity
  8
0
100
AcDbLine
 62
7
  6
BYLAYER
 10
17.9034738738
 20
70.8858950734
 11
17.7941712481
 21
71.0982438331
  0
LINE
  5
26F
100
AcDbEntity
  8
0
100
AcDbLine
 62
7
  6
BYLAYER
 10
17.8456660705
 20
80.0305243772
 11
17.7418079158
 21
80.2930833115
  0
LINE
  5
270
100
AcDbEntity
  8
00_COMPONENTS
100
AcDbLine
 62
7
  6
BYLAYER
 10
35.2608660705
 20
6.5906857553
 11
35.2608660705
 21
6.171877369
  0
LINE
  5
271
100
AcDbEntity
  8
0
100
AcDbLine
 62
7
  6
BYLAYER
 10
35.2700660705
 20
83.0868857548
 11
35.2700660705
 21
58.4488857548
  0
LINE
  5
272
100
AcDbEntity
  8
0
100
AcDbLine
 62
7
  6
BYLAYER
 10
36.5908660705
 20
62.9192857548
 11
36.5908660705
 21
58.4488857548
  0
LINE
  5
273
100
AcDbEntity
  8
0
100
AcDbLine
 62
7
  6
BYLAYER
 10
15.4171160705
 20
47.0188857548
 11
55.1046160705
 21
47.0188857548
  0
LINE
  5
274
100
AcDbEntity
  8
0
100
AcDbLine
 62
7
  6
BYLAYER
 10
14.9662660705
 20
48.6063857548
 11
55.5554660705
 21
48.6063857548
  0
LINE
  5
275
100
AcDbEntity
  8
0
100
AcDbLine
 62
7
  6
BYLAYER
 10
17.9034738738
 20
79.7404276088
 11
17.7941712481
 21
79.9527763685
  0
LINE
  5
276
100
AcDbEntity
  8
0
100
AcDbLine
 62
7
  6
BYLAYER
 10
36.8483660705
 20
58.4488857548
 11
36.8483660705
 21
51.0066857548
  0
LINE
  5
277
100
AcDbEntity
  8
00_COMPONENTS
100
AcDbLine
 62
7
  6
BYLAYER
 10
38.3299597478
 20
37.8748857548
 11
38.3299597478
 21
39.1448857548
  0
LINE
  5
278
100
AcDbEntity
  8
0
100
AcDbLine
 62
7
  6
BYLAYER
 10
38.5720660705
 20
83.0868857548
 11
38.5720660705
 21
58.4488857548
  0
LINE
  5
279
100
AcDbEntity
  8
0
100
AcDbLine
 62
7
  6
BYLAYER
 10
13.8232660705
 20
51.0066857548
 11
56.6984660705
 21
51.0066857548
  0
LINE
  5
27A
100
AcDbEntity
  8
0
100
AcDbLine
 62
7
  6
BYLAYER
 10
41.1591934722
 20
55.9681524214
 11
41.1591934722
 21
58.4488857548
  0
LINE
  5
27B
100
AcDbEntity
  8
0
100
AcDbLine
 62
7
  6
BYLAYER
 10
41.7716640827
 20
51.0066857548
 11
41.7716640827
 21
55.9681524214
  0
LINE
  5
27C
100
AcDbEntity
  8
00_COMPONENTS
100
AcDbLine
 62
7
  6
BYLAYER
 10
42.4940704035
 20
37.8748857548
 11
42.4940704035
 21
32.4125369605
  0
LINE
  5
27D
100
AcDbEntity
  8
0
100
AcDbLine
 62
7
  6
BYLAYER
 10
13.8232660705
 20
55.9681524214
 11
29.3625386688
 21
55.9681524214
  0
LINE
  5
27E
100
AcDbEntity
  8
0
100
AcDbLine
 62
7
  6
BYLAYER
 10
41.1591934722
 20
55.9681524214
 11
56.6984660705
 21
55.9681524214
  0
LINE
  5
27F
100
AcDbEntity
  8
00_COMPONENTS
100
AcDbLine
 62
7
  6
BYLAYER
 10
47.7608660705
 20
9.5906857536
 11
47.7608660705
 21
24.5906857548
  0
LINE
  5
280
100
AcDbEntity
  8
0
100
AcDbLine
 62
7
  6
BYLAYER
 10
56.6984660705
 20
58.4488857548
 11
13.8232660705
 21
58.4488857548
  0
LINE
  5
281
100
AcDbEntity
  8
0
100
AcDbLine
 62
7
  6
BYLAYER
 10
25.3132660705
 20
58.4742857548
 11
25.3386660705
 21
58.4742857548
  0
LINE
  5
282
100
AcDbEntity
  8
0
100
AcDbLine
 62
7
  6
BYLAYER
 10
22.7732660705
 20
58.5747064991
 11
10.0732660705
 21
58.5747064991
  0
LINE
  5
283
100
AcDbEntity
  8
0
100
AcDbLine
 62
7
  6
BYLAYER
 10
13.9313650101
 20
67.5930783852
 11
13.1250046015
 21
67.9222736436
  0
LINE
  5
284
100
AcDbEntity
  8
0
100
AcDbLine
 62
7
  6
BYLAYER
 10
13.6330046015
 20
67.8978655975
 11
14.2858010771
 21
67.6313625523
  0
LINE
  5
285
100
AcDbEntity
  8
0
100
AcDbLine
 62
7
  6
BYLAYER
 10
13.6330046015
 20
68.5444440382
 11
15.3407773702
 21
67.8472487249
  0
LINE
  5
286
100
AcDbEntity
  8
0
100
AcDbLine
 62
7
  6
BYLAYER
 10
50.2468660705
 20
40.6688857548
 11
50.2468660705
 21
47.0188857548
  0
LINE
  5
287
100
AcDbEntity
  8
00_COMPONENTS
100
AcDbLine
 62
7
  6
BYLAYER
 10
51.2608660745
 20
24.8446857548
 11
51.2608660745
 21
30.2828801528
  0
LINE
  5
288
100
AcDbEntity
  8
0
100
AcDbLine
 62
7
  6
BYLAYER
 10
35.2700660705
 20
62.9192857548
 11
38.5720660705
 21
62.9192857548
  0
LINE
  5
289
100
AcDbEntity
  8
0
100
AcDbLine
 62
7
  6
BYLAYER
 10
38.5720660705
 20
64.1892857548
 11
35.2700660705
 21
64.1892857548
  0
LINE
  5
28A
100
AcDbEntity
  8
00_COMPONENTS
100
AcDbLine
 62
7
  6
BYLAYER
 10
52.7233660705
 20
37.8748857548
 11
52.7233660705
 21
31.5818605211
  0
LINE
  5
28B
100
AcDbEntity
  8
00_COMPONENTS
100
AcDbLine
 62
7
  6
BYLAYER
 10
53.6758660705
 20
39.1448857548
 11
53.6758660705
 21
37.8748857548
  0
LINE
  5
28C
100
AcDbEntity
  8
00_COMPONENTS
100
AcDbLine
 62
7
  6
BYLAYER
 10
54.3108660705
 20
40.6688857548
 11
54.3108660705
 21
39.1448857548
  0
LINE
  5
28D
100
AcDbEntity
  8
0
100
AcDbLine
 62
7
  6
BYLAYER
 10
25.3132660705
 20
65.997782295
 11
22.7732660705
 21
65.997782295
  0
LINE
  5
28E
100
AcDbEntity
  8
0
100
AcDbLine
 62
7
  6
BYLAYER
 10
25.3132660705
 20
66.3516083
 11
15.13163047
 21
66.3516083
  0
LINE
  5
28F
100
AcDbEntity
  8
0
100
AcDbLine
 62
7
  6
BYLAYER
 10
13.9313650101
 20
76.4476109206
 11
13.1250046015
 21
76.7768061789
  0
LINE
  5
290
100
AcDbEntity
  8
0
100
AcDbLine
 62
7
  6
BYLAYER
 10
13.6330046015
 20
76.7523981329
 11
14.2858010771
 21
76.4858950877
  0
LINE
  5
291
100
AcDbEntity
  8
0
100
AcDbLine
 62
7
  6
BYLAYER
 10
55.1046160705
 20
47.0188857548
 11
55.1046160705
 21
48.6063857548
  0
LINE
  5
292
100
AcDbEntity
  8
0
100
AcDbLine
 62
7
  6
BYLAYER
 10
55.5554660705
 20
48.6063857548
 11
55.5554660705
 21
51.0066857548
  0
LINE
  5
293
100
AcDbEntity
  8
0
100
AcDbLine
 62
7
  6
BYLAYER
 10
56.6984660705
 20
58.4488857548
 11
56.6984660705
 21
51.0066857548
  0
LINE
  5
294
100
AcDbEntity
  8
00_COMPONENTS
100
AcDbLine
 62
7
  6
BYLAYER
 10
51.6545660745
 20
30.9647885557
 11
52.7233660705
 21
31.5818605211
  0
LINE
  5
295
100
AcDbEntity
  8
0
100
AcDbLine
 62
7
  6
BYLAYER
 10
15.1316304701
 20
66.3516083
 11
10.0732660705
 21
65.0497581944
  0
LINE
  5
296
100
AcDbEntity
  8
0
100
AcDbLine
 62
7
  6
BYLAYER
 10
25.3132660705
 20
67.7486083
 11
17.8456660705
 21
67.7486083
  0
LINE
  5
297
100
AcDbEntity
  8
0
100
AcDbLine
 62
7
  6
BYLAYER
 10
22.7732660705
 20
68.102434305
 11
25.3132660705
 21
68.102434305
  0
LINE
  5
298
100
AcDbEntity
  8
0
100
AcDbLine
 62
7
  6
BYLAYER
 10
11.3432660705
 20
69.158508511
 11
13.1144884346
 21
69.158508511
  0
LINE
  5
299
100
AcDbEntity
  8
0
100
AcDbLine
 62
7
  6
BYLAYER
 10
13.6330046015
 20
77.3989765736
 11
15.3407773702
 21
76.7017812603
  0
LINE
  5
29A
100
AcDbEntity
  8
00_COMPONENTS
100
AcDbLine
 62
7
  6
BYLAYER
 10
51.0068660745
 20
24.5906857548
 11
51.2608660745
 21
24.8446857548
  0
LINE
  5
29B
100
AcDbEntity
  8
0
100
AcDbLine
 62
7
  6
BYLAYER
 10
12.3781134663
 20
68.0566760553
 11
10.0732660705
 21
67.4634871135
  0
LINE
  5
29C
100
AcDbEntity
  8
00_COMPONENTS
100
AcDbLine
 62
7
  6
BYLAYER
 10
42.9184861091
 20
6.7698912474
 11
42.8977012779
 21
6.7350223991
  0
LINE
  5
29D
100
AcDbEntity
  8
0
100
AcDbLine
 62
7
  6
BYLAYER
 10
10.0732660705
 20
69.9959193397
 11
12.3781134663
 21
70.5891082815
  0
LINE
  5
29E
100
AcDbEntity
  8
0
100
AcDbLine
 62
7
  6
BYLAYER
 10
22.7732660705
 20
74.5376819275
 11
17.8456660705
 21
74.5376819275
  0
LINE
  5
29F
100
AcDbEntity
  8
00_COMPONENTS
100
AcDbLine
 62
7
  6
BYLAYER
 10
46.3287611001
 20
6.9915896609
 11
46.2986375222
 21
6.9477136035
  0
LINE
  5
2A0
100
AcDbEntity
  8
00_COMPONENTS
100
AcDbLine
 62
7
  6
BYLAYER
 10
44.436206742
 20
6.8542171508
 11
44.409464458
 21
6.817841614
  0
LINE
  5
2A1
100
AcDbEntity
  8
00_COMPONENTS
100
AcDbLine
 62
7
  6
BYLAYER
 10
42.0348405123
 20
6.7350223991
 11
42.0028023448
 21
6.694821235
  0
LINE
  5
2A2
100
AcDbEntity
  8
00_COMPONENTS
100
AcDbLine
 62
7
  6
BYLAYER
 10
41.3045950442
 20
6.694821235
 11
41.2803507649
 21
6.6671485798
  0
LINE
  5
2A3
100
AcDbEntity
  8
00_COMPONENTS
100
AcDbLine
 62
7
  6
BYLAYER
 10
43.618514266
 20
6.817841614
 11
43.5765044886
 21
6.7698912474
  0
LINE
  5
2A4
100
AcDbEntity
  8
00_COMPONENTS
100
AcDbLine
 62
7
  6
BYLAYER
 10
38.4515987705
 20
6.6105268502
 11
38.4406952697
 21
6.5997219299
  0
LINE
  5
2A5
100
AcDbEntity
  8
00_COMPONENTS
100
AcDbLine
 62
7
  6
BYLAYER
 10
39.1727299608
 20
6.6256081697
 11
39.1575110443
 21
6.6105268502
  0
LINE
  5
2A6
100
AcDbEntity
  8
00_COMPONENTS
100
AcDbLine
 62
7
  6
BYLAYER
 10
39.8980593877
 20
6.6458117322
 11
39.8776714947
 21
6.6256081697
  0
LINE
  5
2A7
100
AcDbEntity
  8
00_COMPONENTS
100
AcDbLine
 62
7
  6
BYLAYER
 10
40.6489679493
 20
6.6671485798
 11
40.6274364314
 21
6.6458117322
  0
LINE
  5
2A8
100
AcDbEntity
  8
0
100
AcDbLine
 62
7
  6
BYLAYER
 10
10.0732660705
 20
72.5373318219
 11
17.8456660705
 21
74.5376819275
  0
LINE
  5
2A9
100
AcDbEntity
  8
0
100
AcDbLine
 62
7
  6
BYLAYER
 10
22.7732660705
 20
77.0162326169
 11
17.8456660705
 21
77.0162326169
  0
LINE
  5
2AA
100
AcDbEntity
  8
0
100
AcDbLine
 62
7
  6
BYLAYER
 10
11.3432660705
 20
78.0130410464
 11
13.1144884346
 21
78.0130410464
  0
LINE
  5
2AB
100
AcDbEntity
  8
00_COMPONENTS
100
AcDbLine
 62
7
  6
BYLAYER
 10
45.0259327731
 20
6.9023746087
 11
44.9837415611
 21
6.8542171508
  0
LINE
  5
2AC
100
AcDbEntity
  8
00_COMPONENTS
100
AcDbLine
 62
7
  6
BYLAYER
 10
45.7256154744
 20
6.9477136035
 11
45.685893545
 21
6.9023746087
  0
LINE
  5
2AD
100
AcDbEntity
  8
0
100
AcDbLine
 62
7
  6
BYLAYER
 10
17.8456660705
 20
77.0162326169
 11
10.0732660705
 21
75.0158825113
  0
LINE
  5
2AE
100
AcDbEntity
  8
0
100
AcDbLine
 62
7
  6
BYLAYER
 10
12.3781134663
 20
76.9112085907
 11
10.0732660705
 21
76.3180196489
  0
LINE
  5
2AF
100
AcDbEntity
  8
0
100
AcDbLine
 62
7
  6
BYLAYER
 10
35.2700660705
 20
81.8168857548
 11
38.5720660705
 21
81.8168857548
  0
LINE
  5
2B0
100
AcDbEntity
  8
00_COMPONENTS
100
AcDbLine
 62
7
  6
BYLAYER
 10
47.6441860169
 20
7.122762987
 11
47.5726612525
 21
7.0518848908
  0
LINE
  5
2B1
100
AcDbEntity
  8
00_COMPONENTS
100
AcDbLine
 62
7
  6
BYLAYER
 10
48.4287809328
 20
7.1930071382
 11
48.3578958973
 21
7.122762987
  0
LINE
  5
2B2
100
AcDbEntity
  8
00_COMPONENTS
100
AcDbLine
 62
7
  6
BYLAYER
 10
46.9382436107
 20
7.0518848908
 11
46.8553793317
 21
6.9915896609
  0
LINE
  5
2B3
100
AcDbEntity
  8
0
100
AcDbLine
 62
7
  6
BYLAYER
 10
10.0732660705
 20
78.850451875
 11
12.3781134663
 21
79.4436408169
  0
LINE
  5
2B4
100
AcDbEntity
  8
0
100
AcDbLine
 62
7
  6
BYLAYER
 10
25.3386660705
 20
83.0614857548
 11
25.3132660705
 21
83.0614857548
  0
LINE
  5
2B5
100
AcDbEntity
  8
0
100
AcDbLine
 62
7
  6
BYLAYER
 10
10.0732660705
 20
83.0868857548
 11
38.5720660705
 21
83.0868857548
  0
LINE
  5
2B6
100
AcDbEntity
  8
0
100
AcDbLine
 62
7
  6
BYLAYER
 10
15.0516660705
 20
84.8902857548
 11
11.5972660705
 21
84.8902857548
  0
ARC
  5
2B7
100
AcDbEntity
  8
00_COMPONENTS
100
AcDbCircle
 62
7
  6
BYLAYER
 10
36.9528174299
 20
129.0906857067
 40
122.4999999484
100
AcDbArc
 50
275.6840797549
 51
276.979510503
  0
ARC
  5
2B8
100
AcDbEntity
  8
00_COMPONENTS
100
AcDbCircle
 62
7
  6
BYLAYER
 10
33.5689147112
 20
129.0906857067
 40
122.4999999484
100
AcDbArc
 50
263.0204559114
 51
264.3159202451
  0
ARC
  5
2B9
100
AcDbEntity
  8
0
100
AcDbCircle
 62
7
  6
BYLAYER
 10
14.9287724498
 20
75.1257485798
 40
2.0796641761
100
AcDbArc
 50
128.5403706278
 51
133.7507702357
  0
ARC
  5
2BA
100
AcDbEntity
  8
0
100
AcDbCircle
 62
7
  6
BYLAYER
 10
14.9287724498
 20
66.2712160445
 40
2.079664176
100
AcDbArc
 50
128.5403706277
 51
133.7507702358
  0
ARC
  5
2BB
100
AcDbEntity
  8
00_COMPONENTS
100
AcDbCircle
 62
7
  6
BYLAYER
 10
18.8108660719
 20
8.5406857522
 40
1.0500000001
100
AcDbArc
 50
90.0000001386
 51
263.0243479125
  0
ARC
  5
2BC
100
AcDbEntity
  8
00_COMPONENTS
100
AcDbCircle
 62
7
  6
BYLAYER
 10
51.7108660691
 20
8.5406857522
 40
1.0500000001
100
AcDbArc
 50
276.9756520875
 51
89.9999998614
  0
ARC
  5
2BD
100
AcDbEntity
  8
00_COMPONENTS
100
AcDbCircle
 62
7
  6
BYLAYER
 10
52.0482660745
 20
30.2828801528
 40
0.7874
100
AcDbArc
 50
120.0
 51
180.0
  0
ARC
  5
2BE
100
AcDbEntity
  8
00_COMPONENTS
100
AcDbCircle
 62
7
  6
BYLAYER
 10
18.4734660665
 20
30.2828801528
 40
0.7874
100
AcDbArc
 50
0.0
 51
60.0
  0
SPLINE
  5
2BF
100
AcDbEntity
  8
0
100
AcDbSpline
 62
7
  6
BYLAYER
 70
0
 71
3
 72
11
 73
7
 74
0
 42
0.0000001
 43
0.0000001
 44
0.0000000001
 40
0.0
 40
0.0
 40
0.0
 40
0.0
 40
0.2321786272
 40
0.4789529933
 40
0.7365927127
 40
1.0
 40
1.0
 40
1.0
 40
1.0
 10
13.6330046015
 20
77.3989765736
 30
0.0
 10
13.7557687216
 20
77.4969669839
 30
0.0
 10
14.031137985
 20
77.6722931748
 30
0.0
 10
14.4946791995
 20
77.861226309
 30
0.0
 10
15.0029782717
 20
77.9778848986
 30
0.0
 10
15.3560619082
 20
78.0040607902
 30
0.0
 10
15.5342660705
 20
78.0040607902
 30
0.0
  0
SPLINE
  5
2C0
100
AcDbEntity
  8
0
100
AcDbSpline
 62
7
  6
BYLAYER
 70
0
 71
3
 72
9
 73
5
 74
0
 42
0.0000001
 43
0.0000001
 44
0.0000000001
 40
0.0
 40
0.0
 40
0.0
 40
0.0
 40
0.2573487613
 40
1.0
 40
1.0
 40
1.0
 40
1.0
 10
15.5342660705
 20
78.0040607902
 30
0.0
 10
15.6583218366
 20
78.0040607902
 30
0.0
 10
16.1397586511
 20
77.9792064825
 30
0.0
 10
16.6183849028
 20
77.8553480461
 30
0.0
 10
16.9422738273
 20
77.702842145
 30
0.0
  0
SPLINE
  5
2C1
100
AcDbEntity
  8
0
100
AcDbSpline
 62
7
  6
BYLAYER
 70
0
 71
3
 72
9
 73
5
 74
0
 42
0.0000001
 43
0.0000001
 44
0.0000000001
 40
0.0
 40
0.0
 40
0.0
 40
0.0
 40
0.2477717144
 40
1.0
 40
1.0
 40
1.0
 40
1.0
 10
13.0468305671
 20
67.7168719592
 30
0.0
 10
13.0519247154
 20
67.7343047799
 30
0.0
 10
13.0738970632
 20
67.8042443906
 30
0.0
 10
13.1014618416
 20
67.8724134097
 30
0.0
 10
13.1250046015
 20
67.9222736436
 30
0.0
  0
SPLINE
  5
2C2
100
AcDbEntity
  8
0
100
AcDbSpline
 62
7
  6
BYLAYER
 70
0
 71
3
 72
9
 73
5
 74
0
 42
0.0000001
 43
0.0000001
 44
0.0000000001
 40
0.0
 40
0.0
 40
0.0
 40
0.0
 40
0.2477717144
 40
1.0
 40
1.0
 40
1.0
 40
1.0
 10
13.0468305671
 20
76.5714044945
 30
0.0
 10
13.0519247154
 20
76.5888373152
 30
0.0
 10
13.0738970632
 20
76.658776926
 30
0.0
 10
13.1014618416
 20
76.7269459451
 30
0.0
 10
13.1250046015
 20
76.7768061789
 30
0.0
  0
SPLINE
  5
2C3
100
AcDbEntity
  8
0
100
AcDbSpline
 62
7
  6
BYLAYER
 70
0
 71
3
 72
14
 73
10
 74
0
 42
0.0000001
 43
0.0000001
 44
0.0000000001
 40
0.0
 40
0.0
 40
0.0
 40
0.0
 40
0.132142359
 40
0.2663158809
 40
0.4002889432
 40
0.5319213427
 40
0.6591968977
 40
0.7804309731
 40
1.0
 40
1.0
 40
1.0
 40
1.0
 10
14.8850691661
 20
76.5506246165
 30
0.0
 10
15.0599704885
 20
76.5956382389
 30
0.0
 10
15.4072166444
 20
76.7080166711
 30
0.0
 10
15.9060030354
 20
76.9354430232
 30
0.0
 10
16.375357252
 20
77.2175448106
 30
0.0
 10
16.8016271189
 20
77.5459620279
 30
0.0
 10
17.1728177574
 20
77.91191409
 30
0.0
 10
17.5660318796
 20
78.4172227545
 30
0.0
 10
17.7731676649
 20
78.8474481952
 30
0.0
 10
17.8456660705
 20
79.1386473579
 30
0.0
  0
SPLINE
  5
2C4
100
AcDbEntity
  8
0
100
AcDbSpline
 62
7
  6
BYLAYER
 70
0
 71
3
 72
13
 73
9
 74
0
 42
0.0000001
 43
0.0000001
 44
0.0000000001
 40
0.0
 40
0.0
 40
0.0
 40
0.0
 40
0.1056420789
 40
0.2162752006
 40
0.3325821657
 40
0.4549973815
 40
0.7173494177
 40
1.0
 40
1.0
 40
1.0
 40
1.0
 10
12.3781134663
 20
76.9112085907
 30
0.0
 10
12.4480735334
 20
76.8507829821
 30
0.0
 10
12.6023160896
 20
76.7393895567
 30
0.0
 10
12.862813169
 20
76.6073806279
 30
0.0
 10
13.1532248741
 20
76.5088736921
 30
0.0
 10
13.5840185309
 20
76.4219897876
 30
0.0
 10
14.1726280982
 20
76.4083030565
 30
0.0
 10
14.6455396849
 20
76.488977915
 30
0.0
 10
14.8850691661
 20
76.5506246165
 30
0.0
  0
SPLINE
  5
2C5
100
AcDbEntity
  8
0
100
AcDbSpline
 62
7
  6
BYLAYER
 70
0
 71
3
 72
9
 73
5
 74
0
 42
0.0000001
 43
0.0000001
 44
0.0000000001
 40
0.0
 40
0.0
 40
0.0
 40
0.0
 40
0.2573487613
 40
1.0
 40
1.0
 40
1.0
 40
1.0
 10
15.5342660705
 20
69.1495282549
 30
0.0
 10
15.6583218366
 20
69.1495282549
 30
0.0
 10
16.1397586511
 20
69.1246739472
 30
0.0
 10
16.6183849028
 20
69.0008155107
 30
0.0
 10
16.9422738273
 20
68.8483096096
 30
0.0
  0
SPLINE
  5
2C6
100
AcDbEntity
  8
0
100
AcDbSpline
 62
7
  6
BYLAYER
 70
0
 71
3
 72
11
 73
7
 74
0
 42
0.0000001
 43
0.0000001
 44
0.0000000001
 40
0.0
 40
0.0
 40
0.0
 40
0.0
 40
0.2321786272
 40
0.4789529933
 40
0.7365927127
 40
1.0
 40
1.0
 40
1.0
 40
1.0
 10
13.6330046015
 20
68.5444440382
 30
0.0
 10
13.7557687216
 20
68.6424344485
 30
0.0
 10
14.031137985
 20
68.8177606394
 30
0.0
 10
14.4946791995
 20
69.0066937736
 30
0.0
 10
15.0029782717
 20
69.1233523633
 30
0.0
 10
15.3560619082
 20
69.1495282549
 30
0.0
 10
15.5342660705
 20
69.1495282549
 30
0.0
  0
SPLINE
  5
2C7
100
AcDbEntity
  8
0
100
AcDbSpline
 62
7
  6
BYLAYER
 70
0
 71
3
 72
14
 73
10
 74
0
 42
0.0000001
 43
0.0000001
 44
0.0000000001
 40
0.0
 40
0.0
 40
0.0
 40
0.0
 40
0.132142359
 40
0.2663158809
 40
0.4002889432
 40
0.5319213427
 40
0.6591968977
 40
0.7804309731
 40
1.0
 40
1.0
 40
1.0
 40
1.0
 10
14.8850691661
 20
67.6960920812
 30
0.0
 10
15.0599704885
 20
67.7411057036
 30
0.0
 10
15.4072166444
 20
67.8534841358
 30
0.0
 10
15.9060030354
 20
68.0809104878
 30
0.0
 10
16.375357252
 20
68.3630122753
 30
0.0
 10
16.8016271189
 20
68.6914294926
 30
0.0
 10
17.1728177574
 20
69.0573815546
 30
0.0
 10
17.5660318796
 20
69.5626902191
 30
0.0
 10
17.7731676649
 20
69.9929156598
 30
0.0
 10
17.8456660705
 20
70.2841148225
 30
0.0
  0
SPLINE
  5
2C8
100
AcDbEntity
  8
0
100
AcDbSpline
 62
7
  6
BYLAYER
 70
0
 71
3
 72
13
 73
9
 74
0
 42
0.0000001
 43
0.0000001
 44
0.0000000001
 40
0.0
 40
0.0
 40
0.0
 40
0.0
 40
0.1056420789
 40
0.2162752006
 40
0.3325821657
 40
0.4549973815
 40
0.7173494177
 40
1.0
 40
1.0
 40
1.0
 40
1.0
 10
12.3781134663
 20
68.0566760553
 30
0.0
 10
12.4480735335
 20
67.9962504467
 30
0.0
 10
12.6023160896
 20
67.8848570213
 30
0.0
 10
12.862813169
 20
67.7528480926
 30
0.0
 10
13.1532248741
 20
67.6543411567
 30
0.0
 10
13.5840185309
 20
67.5674572522
 30
0.0
 10
14.1726280982
 20
67.5537705211
 30
0.0
 10
14.6455396849
 20
67.6344453796
 30
0.0
 10
14.8850691661
 20
67.6960920812
 30
0.0
  0
SPLINE
  5
2C9
100
AcDbEntity
  8
0
100
AcDbSpline
 62
7
  6
BYLAYER
 70
0
 71
3
 72
15
 73
11
 74
0
 42
0.0000001
 43
0.0000001
 44
0.0000000001
 40
0.0
 40
0.0
 40
0.0
 40
0.0
 40
0.104125605
 40
0.2112476426
 40
0.3239422654
 40
0.4438838908
 40
0.5718527346
 40
0.707766468
 40
0.8509438515
 40
1.0
 40
1.0
 40
1.0
 40
1.0
 10
17.7418984959
 20
71.4385973943
 30
0.0
 10
17.6912211108
 20
71.5370809746
 30
0.0
 10
17.5642205165
 20
71.7253716573
 30
0.0
 10
17.3096401708
 20
71.9615020836
 30
0.0
 10
16.9973018508
 20
72.148020104
 30
0.0
 10
16.6354685452
 20
72.281012053
 30
0.0
 10
16.2329486523
 20
72.3581659302
 30
0.0
 10
15.7991031075
 20
72.3782562177
 30
0.0
 10
15.3441294289
 20
72.3409800099
 30
0.0
 10
15.0386151287
 20
72.2796191611
 30
0.0
 10
14.8850691661
 20
72.2401016784
 30
0.0
  0
SPLINE
  5
2CA
100
AcDbEntity
  8
0
100
AcDbSpline
 62
7
  6
BYLAYER
 70
0
 71
3
 72
11
 73
7
 74
0
 42
0.0000001
 43
0.0000001
 44
0.0000000001
 40
0.0
 40
0.0
 40
0.0
 40
0.0
 40
0.2538815877
 40
0.510686144
 40
0.7619495882
 40
1.0
 40
1.0
 40
1.0
 40
1.0
 10
14.8850691661
 20
81.0946342138
 30
0.0
 10
14.6346694661
 20
81.0301898895
 30
0.0
 10
14.1414784223
 20
80.8563536136
 30
0.0
 10
13.4577437675
 20
80.4826077202
 30
0.0
 10
12.8560520702
 20
80.0130816599
 30
0.0
 10
12.520474351
 20
79.6398778004
 30
0.0
 10
12.3781134663
 20
79.4436408169
 30
0.0
  0
SPLINE
  5
2CB
100
AcDbEntity
  8
0
100
AcDbSpline
 62
7
  6
BYLAYER
 70
0
 71
3
 72
15
 73
11
 74
0
 42
0.0000001
 43
0.0000001
 44
0.0000000001
 40
0.0
 40
0.0
 40
0.0
 40
0.0
 40
0.104125605
 40
0.2112476426
 40
0.3239422654
 40
0.4438838908
 40
0.5718527346
 40
0.707766468
 40
0.8509438515
 40
1.0
 40
1.0
 40
1.0
 40
1.0
 10
17.7418984959
 20
80.2931299297
 30
0.0
 10
17.6912211108
 20
80.39161351
 30
0.0
 10
17.5642205165
 20
80.5799041927
 30
0.0
 10
17.3096401708
 20
80.816034619
 30
0.0
 10
16.9973018508
 20
81.0025526394
 30
0.0
 10
16.6354685452
 20
81.1355445883
 30
0.0
 10
16.2329486523
 20
81.2126984655
 30
0.0
 10
15.7991031075
 20
81.2327887531
 30
0.0
 10
15.3441294289
 20
81.1955125452
 30
0.0
 10
15.0386151287
 20
81.1341516965
 30
0.0
 10
14.8850691661
 20
81.0946342138
 30
0.0
  0
SPLINE
  5
2CC
100
AcDbEntity
  8
0
100
AcDbSpline
 62
7
  6
BYLAYER
 70
0
 71
3
 72
11
 73
7
 74
0
 42
0.0000001
 43
0.0000001
 44
0.0000000001
 40
0.0
 40
0.0
 40
0.0
 40
0.0
 40
0.2538815877
 40
0.510686144
 40
0.7619495882
 40
1.0
 40
1.0
 40
1.0
 40
1.0
 10
14.8850691661
 20
72.2401016784
 30
0.0
 10
14.6346694661
 20
72.1756573541
 30
0.0
 10
14.1414784223
 20
72.0018210782
 30
0.0
 10
13.4577437675
 20
71.6280751848
 30
0.0
 10
12.8560520702
 20
71.1585491245
 30
0.0
 10
12.520474351
 20
70.785345265
 30
0.0
 10
12.3781134663
 20
70.5891082815
 30
0.0
  0
SPLINE
  5
2CD
100
AcDbEntity
  8
00_COMPONENTS
100
AcDbSpline
 62
7
  6
BYLAYER
 70
0
 71
3
 72
15
 73
11
 74
0
 42
0.0000001
 43
0.0000001
 44
0.0000000001
 40
0.0
 40
0.0
 40
0.0
 40
0.0
 40
0.1262643924
 40
0.2515123322
 40
0.3759716731
 40
0.5
 40
0.6240283269
 40
0.7484876678
 40
0.8737356076
 40
1.0
 40
1.0
 40
1.0
 40
1.0
 10
42.4940704035
 20
32.4125369605
 30
0.0
 10
42.9119202297
 20
32.2819757233
 30
0.0
 10
43.7522797399
 20
32.046526677
 30
0.0
 10
45.0299218898
 20
31.7823172068
 30
0.0
 10
46.3167876768
 20
31.6188338855
 30
0.0
 10
47.608718237
 20
31.5634241862
 30
0.0
 10
48.9006487972
 20
31.6188338855
 30
0.0
 10
50.1875145842
 20
31.7823172068
 30
0.0
 10
51.4651567341
 20
32.046526677
 30
0.0
 10
52.3055162443
 20
32.2819757233
 30
0.0
 10
52.7233660705
 20
32.4125369605
 30
0.0
  0
SPLINE
  5
2CE
100
AcDbEntity
  8
00_COMPONENTS
100
AcDbSpline
 62
7
  6
BYLAYER
 70
0
 71
3
 72
15
 73
11
 74
0
 42
0.0000001
 43
0.0000001
 44
0.0000000001
 40
0.0
 40
0.0
 40
0.0
 40
0.0
 40
0.1262643924
 40
0.2515123322
 40
0.3759716731
 40
0.5
 40
0.6240283269
 40
0.7484876678
 40
0.8737356076
 40
1.0
 40
1.0
 40
1.0
 40
1.0
 10
17.7983660705
 20
32.4125369605
 30
0.0
 10
18.2162158967
 20
32.2819757233
 30
0.0
 10
19.056575407
 20
32.046526677
 30
0.0
 10
20.3342175569
 20
31.7823172068
 30
0.0
 10
21.6210833439
 20
31.6188338855
 30
0.0
 10
22.9130139041
 20
31.5634241862
 30
0.0
 10
24.2049444642
 20
31.6188338855
 30
0.0
 10
25.4918102513
 20
31.7823172068
 30
0.0
 10
26.7694524011
 20
32.046526677
 30
0.0
 10
27.6098119114
 20
32.2819757233
 30
0.0
 10
28.0276617376
 20
32.4125369605
 30
0.0
  0
SPLINE
  5
2CF
100
AcDbEntity
  8
00_COMPONENTS
100
AcDbSpline
 62
7
  6
BYLAYER
 70
0
 71
3
 72
15
 73
11
 74
0
 42
0.0000001
 43
0.0000001
 44
0.0000000001
 40
0.0
 40
0.0
 40
0.0
 40
0.0
 40
0.12500029
 40
0.2500023334
 40
0.3750011493
 40
0.5
 40
0.6249988507
 40
0.7499976666
 40
0.87499971
 40
1.0
 40
1.0
 40
1.0
 40
1.0
 10
28.0276617376
 20
32.4125369605
 30
0.0
 10
28.6212196226
 20
32.2813948671
 30
0.0
 10
29.8143600451
 20
32.0452736803
 30
0.0
 10
31.6196637216
 20
31.7816595717
 30
0.0
 10
33.4370013588
 20
31.6186802049
 30
0.0
 10
35.2608660705
 20
31.5634689684
 30
0.0
 10
37.0847307823
 20
31.6186802049
 30
0.0
 10
38.9020684195
 20
31.7816595717
 30
0.0
 10
40.7073720959
 20
32.0452736803
 30
0.0
 10
41.9005125185
 20
32.2813948671
 30
0.0
 10
42.4940704035
 20
32.4125369605
 30
0.0
  0
ELLIPSE
  5
2D0
100
AcDbEntity
  8
0
100
AcDbEllipse
 62
7
  6
BYLAYER
 10
14.4928660705
 20
79.5845858675
 30
0.0
 11
3.4193096007
 21
-0.0
 31
0.0
 40
0.6644630244
 41
-0.1975579181
 42
0.1975579181
  0
ELLIPSE
  5
2D1
100
AcDbEntity
  8
0
100
AcDbEllipse
 62
7
  6
BYLAYER
 10
14.9551082681
 20
69.8320277201
 30
0.0
 11
3.4193096007
 21
0.0
 31
0.0
 40
0.6644630244
 41
0.5315947947
 42
0.5911452022
  0
ELLIPSE
  5
2D2
100
AcDbEntity
  8
0
100
AcDbEllipse
 62
7
  6
BYLAYER
 10
15.9535514147
 20
76.7468249333
 30
0.0
 11
3.4193096007
 21
0.0
 31
0.0
 40
0.6644630244
 41
7.3215210918
 42
8.8336327586
  0
ELLIPSE
  5
2D3
100
AcDbEntity
  8
0
100
AcDbEllipse
 62
7
  6
BYLAYER
 10
14.955108268
 20
78.6865602554
 30
0.0
 11
3.4193096007
 21
-0.0
 31
0.0
 40
0.6644630244
 41
0.5315947947
 42
0.5911452022
  0
ELLIPSE
  5
2D4
100
AcDbEntity
  8
0
100
AcDbEllipse
 62
7
  6
BYLAYER
 10
14.4928660705
 20
70.7300533322
 30
0.0
 11
3.4193096007
 21
-0.0
 31
0.0
 40
0.6644630244
 41
-0.1975579181
 42
0.1975579181
  0
ELLIPSE
  5
2D5
100
AcDbEntity
  8
0
100
AcDbEllipse
 62
7
  6
BYLAYER
 10
15.9535514147
 20
67.8922923979
 30
0.0
 11
3.4193096007
 21
-0.0
 31
0.0
 40
0.6644630244
 41
7.3215210918
 42
8.8336327586
  0
ENDSEC
  0
SECTION
  2
OBJECTS
  0
DICTIONARY
  5
C
100
AcDbDictionary
280
0
281
1
  3
ACAD_GROUP
350
D
  3
ACAD_MLINESTYLE
350
17
  3
ACAD_LAYOUT
350
1A
  3
ACAD_PLOTSETTINGS
350
19
  3
ACAD_PLOTSTYLENAME
350
E
  0
DICTIONARY
  5
D
102
{ACAD_REACTORS
330
C
102
}
100
AcDbDictionary
280
0
281
1
  0
ACDBDICTIONARYWDFLT
  5
E
102
{ACAD_REACTORS
330
C
102
}
100
AcDbDictionary
281
1
  3
Normal
350
F
100
AcDbDictionaryWithDefault
340
F
  0
DICTIONARY
  5
17
102
{ACAD_REACTORS
330
C
102
}
100
AcDbDictionary
280
0
281
1
  3
Standard
350
18
  0
DICTIONARY
  5
19
102
{ACAD_REACTORS
330
C
102
}
100
AcDbDictionary
281
1
  0
DICTIONARY
  5
1A
102
{ACAD_REACTORS
330
C
102
}
100
AcDbDictionary
281
1
  3
Model
350
2D6
  3
Layout1
350
2D7
  0
ACDBPLACEHOLDER
  5
F
102
{ACAD_REACTORS
330
E
102
}
  0
MLINESTYLE
  5
18
102
{ACAD_REACTORS
330
17
102
}
100
AcDbMlineStyle
  2
STANDARD
 70
0
  3

 62
256
 51
90.0
 52
90.0
 71
2
 49
0.5
 62
256
  6
BYLAYER
 49
-0.5
 62
256
  6
BYLAYER
  0
LAYOUT
  5
2D6
102
{ACAD_REACTORS
330
1A
102
}
100
AcDbPlotSettings
  1

  2
none_device
  4

  6

 40
0.0
 41
0.0
 42
0.0
 43
0.0
 44
210.0
 45
297.0
 46
0.0
 47
0.0
 48
0.0
 49
0.0
140
0.0
141
0.0
142
1.0
143
1.0
 70
1024
 72
1
 73
0
 74
0
  7

 75
0
147
1.0
148
0.0
149
0.0
100
AcDbLayout
  1
Model
 70
0
 71
0
 10
0.0
 20
0.0
 11
210.0
 21
297.0
 12
0.0
 22
0.0
 32
0.0
 14
0.0
 24
0.0
 34
0.0
 15
0.0
 25
0.0
 35
0.0
146
0.0
 13
0.0
 23
0.0
 33
0.0
 16
1.0
 26
0.0
 36
0.0
 17
0.0
 27
1.0
 37
0.0
 76
0
330
21A
345
0
346
0
  0
LAYOUT
  5
2D7
102
{ACAD_REACTORS
330
1A
102
}
100
AcDbPlotSettings
  1

  2
none_device
  4

  6

 40
0.0
 41
0.0
 42
0.0
 43
0.0
 44
210.0
 45
297.0
 46
0.0
 47
0.0
 48
0.0
 49
0.0
140
0.0
141
0.0
142
1.0
143
1.0
 70
0
 72
1
 73
0
 74
0
  7

 75
0
147
1.0
148
0.0
149
0.0
100
AcDbLayout
  1
Layout1
 70
0
 71
1
 10
0.0
 20
0.0
 11
210.0
 21
297.0
 12
0.0
 22
0.0
 32
0.0
 14
0.0
 24
0.0
 34
0.0
 15
0.0
 25
0.0
 35
0.0
146
0.0
 13
0.0
 23
0.0
 33
0.0
 16
1.0
 26
0.0
 36
0.0
 17
0.0
 27
1.0
 37
0.0
 76
0
330
21B
345
0
346
0
  0
ENDSEC
  0
EOF
