999
DXF file: C:\Users\sesa63760\Dev\_Creo\CAD\MCADPD0005172_3D-CAD\drw0001_7.dxf
999
Pro/ENGINEER 2019471 by Parametric Technology Corporation
  0
SECTION
  2
HEADER
  9
$ACADVER
  1
AC1024
  9
$DWGCODEPAGE
  3
ANSI_1252
  9
$EXTMAX
 10
134.6715700113
 20
190.4640775874
 30
0.0
  9
$EXTMIN
 10
0.0
 20
0.0
 30
0.0
  9
$LIMMIN
 10
0.0
 20
0.0
  9
$LIMMAX
 10
134.6715700113
 20
190.4640775874
  9
$VIEWCTR
 10
67.3357850056
 20
95.2320387937
  9
$VIEWSIZE
 40
190.4640775874
  9
$CLAYER
  8
0
  9
$LTSCALE
 40
12.4154361687
  9
$CELTYPE
  6
BYLAYER
  9
$DIMSCALE
 40
1.0
  9
$DIMASZ
 40
1.6032329763
  9
$DIMEXO
 40
1.0
  9
$DIMDLI
 40
8.5779377165
  9
$DIMEXE
 40
1.0
  9
$DIMCEN
 40
2.0316168276
  9
$DIMLFAC
 40
1.0
  9
$DIMBLK
  1
_FILLED
  9
$DIMALT
 70
0
  9
$DIMALTF
 40
0.0393700787
  9
$DIMTXT
 40
2.2445261669
  9
$DIMTOL
 70
1
  9
$DIMLIM
 70
0
  9
$DIMTFAC
 40
1.0
  9
$DIMTP
 40
0.01
  9
$DIMTM
 40
0.01
  9
$DIMGAP
 40
0.625
  9
$DIMDSEP
 70
46
  9
$AUNITS
 70
0
  9
$PDMODE
 70
3
  9
$PDSIZE
 40
0.3125
  9
$HANDSEED
  5
2AB
  9
$TILEMODE
 70
1
  9
$MEASUREMENT
 70
1
  9
$INSUNITS
 70
4
  0
ENDSEC
  0
SECTION
  2
CLASSES
  0
CLASS
  1
ACDBDICTIONARYWDFLT
  2
AcDbDictionaryWithDefault
  3
AutoCAD 2000
 90
0
 91
1
280
0
281
0
  0
CLASS
  1
ACDBPLACEHOLDER
  2
AcDbPlaceHolder
  3
AutoCAD 2000
 90
0
 91
1
280
0
281
0
  0
CLASS
  1
LAYOUT
  2
AcDbLayout
  3
AutoCAD 2000
 90
0
 91
0
280
0
281
0
  0
ENDSEC
  0
SECTION
  2
TABLES
  0
TABLE
  2
VPORT
  5
8
100
AcDbSymbolTable
 70
2
  0
VPORT
  5
1F4
100
AcDbSymbolTableRecord
100
AcDbViewportTableRecord
  2
*ACTIVE
 70
0
 10
0.0
 20
0.0
 11
1.0
 21
1.0
 12
67.3357850056
 22
95.2320387937
 13
0.0
 23
0.0
 14
1.0
 24
1.0
 15
0.0
 25
0.0
 16
0.0
 26
0.0
 36
1.0
 17
0.0
 27
0.0
 37
0.0
 40
190.4640775874
 41
0.7070707071
 42
50.0
 43
0.0
 44
0.0
 50
0.0
 51
0.0
 71
0
 72
100
 73
1
 74
1
 75
0
 76
0
 77
0
 78
0
  0
ENDTAB
  0
TABLE
  2
LTYPE
  5
5
100
AcDbSymbolTable
 70
6
  0
LTYPE
  5
14
100
AcDbSymbolTableRecord
100
AcDbLinetypeTableRecord
  2
BYBLOCK
 70
0
  3

 72
65
 73
0
 40
0.0
  0
LTYPE
  5
15
100
AcDbSymbolTableRecord
100
AcDbLinetypeTableRecord
  2
BYLAYER
 70
0
  3

 72
65
 73
0
 40
0.0
  0
LTYPE
  5
16
100
AcDbSymbolTableRecord
100
AcDbLinetypeTableRecord
  2
CONTINUOUS
 70
64
  3
Solid line
 72
65
 73
0
 40
0.0
  0
LTYPE
  5
1F5
100
AcDbSymbolTableRecord
100
AcDbLinetypeTableRecord
  2
CENTER
 70
64
  3
____ _ ____ _ ____ _ ____ _ ____ _ ____ _ ____
 72
65
 73
4
 40
0.6
 49
0.375
 74
0
 49
-0.075
 74
0
 49
0.075
 74
0
 49
-0.075
 74
0
  0
LTYPE
  5
1F6
100
AcDbSymbolTableRecord
100
AcDbLinetypeTableRecord
  2
HIDDEN
 70
64
  3
- - - - - - - - - - - - - - - - - - - -
 72
65
 73
2
 40
0.2
 49
0.1
 74
0
 49
-0.1
 74
0
  0
LTYPE
  5
1F7
100
AcDbSymbolTableRecord
100
AcDbLinetypeTableRecord
  2
PHANTOM
 70
64
  3
_____ _ _ _____ _ _ _____ _ _ _____
 72
65
 73
6
 40
0.8
 49
0.45
 74
0
 49
-0.05
 74
0
 49
0.1
 74
0
 49
-0.05
 74
0
 49
0.1
 74
0
 49
-0.05
 74
0
  0
LTYPE
  5
1F8
100
AcDbSymbolTableRecord
100
AcDbLinetypeTableRecord
  2
DOT
 70
64
  3
. . . . . . . . . . . . . . . . . . . .
 72
65
 73
2
 40
0.2
 49
0.1
 74
0
 49
-0.1
 74
0
  0
LTYPE
  5
1F9
100
AcDbSymbolTableRecord
100
AcDbLinetypeTableRecord
  2
DASHED
 70
64
  3
- - - - - - - - - - - - - - - - - - - -
 72
65
 73
2
 40
0.2
 49
0.1
 74
0
 49
-0.1
 74
0
  0
ENDTAB
  0
TABLE
  2
LAYER
  5
2
100
AcDbSymbolTable
 70
36
  0
LAYER
  5
10
100
AcDbSymbolTableRecord
100
AcDbLayerTableRecord
  2
0
 70
0
 62
7
  6
CONTINUOUS
370
-3
390
F
  0
LAYER
  5
1FA
100
AcDbSymbolTableRecord
100
AcDbLayerTableRecord
  2
DEFAULT_1
 70
0
 62
7
  6
CENTER
370
-3
390
F
  0
LAYER
  5
1FB
100
AcDbSymbolTableRecord
100
AcDbLayerTableRecord
  2
DEFAULT_2
 70
0
 62
7
  6
HIDDEN
370
-3
390
F
  0
LAYER
  5
1FC
100
AcDbSymbolTableRecord
100
AcDbLayerTableRecord
  2
DEFAULT_3
 70
0
 62
7
  6
PHANTOM
370
-3
390
F
  0
LAYER
  5
1FD
100
AcDbSymbolTableRecord
100
AcDbLayerTableRecord
  2
00_COMPONENTS
 70
0
 62
7
  6
CONTINUOUS
370
-3
390
F
  0
LAYER
  5
1FE
100
AcDbSymbolTableRecord
100
AcDbLayerTableRecord
  2
01_1_DEFAULT_DATUMS
 70
0
 62
7
  6
CONTINUOUS
370
-3
390
F
  0
LAYER
  5
1FF
100
AcDbSymbolTableRecord
100
AcDbLayerTableRecord
  2
01_PLANES
 70
0
 62
7
  6
CONTINUOUS
370
-3
390
F
  0
LAYER
  5
200
100
AcDbSymbolTableRecord
100
AcDbLayerTableRecord
  2
02_COORD_SYS
 70
0
 62
7
  6
CONTINUOUS
370
-3
390
F
  0
LAYER
  5
201
100
AcDbSymbolTableRecord
100
AcDbLayerTableRecord
  2
03_AXES
 70
0
 62
7
  6
CONTINUOUS
370
-3
390
F
  0
LAYER
  5
202
100
AcDbSymbolTableRecord
100
AcDbLayerTableRecord
  2
04_POINTS
 70
0
 62
7
  6
CONTINUOUS
370
-3
390
F
  0
LAYER
  5
203
100
AcDbSymbolTableRecord
100
AcDbLayerTableRecord
  2
05_CURVES
 70
0
 62
7
  6
CONTINUOUS
370
-3
390
F
  0
LAYER
  5
204
100
AcDbSymbolTableRecord
100
AcDbLayerTableRecord
  2
06_SURFS
 70
0
 62
7
  6
CONTINUOUS
370
-3
390
F
  0
LAYER
  5
205
100
AcDbSymbolTableRecord
100
AcDbLayerTableRecord
  2
07_COSMETICS
 70
0
 62
7
  6
CONTINUOUS
370
-3
390
F
  0
LAYER
  5
206
100
AcDbSymbolTableRecord
100
AcDbLayerTableRecord
  2
10_NOTES
 70
0
 62
7
  6
CONTINUOUS
370
-3
390
F
  0
LAYER
  5
207
100
AcDbSymbolTableRecord
100
AcDbLayerTableRecord
  2
11_NOTES_PUB
 70
0
 62
7
  6
CONTINUOUS
370
-3
390
F
  0
LAYER
  5
208
100
AcDbSymbolTableRecord
100
AcDbLayerTableRecord
  2
13_REF_GTOL
 70
0
 62
7
  6
CONTINUOUS
370
-3
390
F
  0
LAYER
  5
209
100
AcDbSymbolTableRecord
100
AcDbLayerTableRecord
  2
16_MISC
 70
0
 62
7
  6
CONTINUOUS
370
-3
390
F
  0
LAYER
  5
20A
100
AcDbSymbolTableRecord
100
AcDbLayerTableRecord
  2
17_NO_PRINT
 70
0
 62
7
  6
CONTINUOUS
370
-3
390
F
  0
LAYER
  5
20B
100
AcDbSymbolTableRecord
100
AcDbLayerTableRecord
  2
18_DATUM_CAMS_JOINTS
 70
0
 62
7
  6
CONTINUOUS
370
-3
390
F
  0
LAYER
  5
20C
100
AcDbSymbolTableRecord
100
AcDbLayerTableRecord
  2
19_DATUM_FUNCTIONAL
 70
0
 62
7
  6
CONTINUOUS
370
-3
390
F
  0
LAYER
  5
20D
100
AcDbSymbolTableRecord
100
AcDbLayerTableRecord
  2
20_DATUM_KINEMATIC_SCHEME
 70
0
 62
7
  6
CONTINUOUS
370
-3
390
F
  0
ENDTAB
  0
TABLE
  2
STYLE
  5
3
100
AcDbSymbolTable
 70
1
  0
STYLE
  5
11
100
AcDbSymbolTableRecord
100
AcDbTextStyleTableRecord
  2
STANDARD
 70
0
 40
0.0
 41
1.0
 50
0.0
 71
0
 42
0.2
  3
ARIAL.TTF
  4

  0
STYLE
  5
20E
100
AcDbSymbolTableRecord
100
AcDbTextStyleTableRecord
  2
TEXTSTYLE_1
 70
0
 40
0.0
 41
0.8
 50
0.0
 71
0
 42
0.2
  3
gdt
  4

  0
ENDTAB
  0
TABLE
  2
VIEW
  5
6
100
AcDbSymbolTable
 70
0
  0
ENDTAB
  0
TABLE
  2
UCS
  5
7
100
AcDbSymbolTable
 70
0
  0
ENDTAB
  0
TABLE
  2
APPID
  5
9
100
AcDbSymbolTable
 70
1
  0
APPID
  5
20F
100
AcDbSymbolTableRecord
100
AcDbRegAppTableRecord
  2
ACAD
 70
0
  0
ENDTAB
  0
TABLE
  2
BLOCK_RECORD
  5
1
100
AcDbSymbolTable
 70
0
  0
BLOCK_RECORD
  5
210
100
AcDbSymbolTableRecord
100
AcDbBlockTableRecord
  2
*Model_Space
  0
BLOCK_RECORD
  5
211
100
AcDbSymbolTableRecord
100
AcDbBlockTableRecord
  2
*Paper_Space
  0
BLOCK_RECORD
  5
212
100
AcDbSymbolTableRecord
100
AcDbBlockTableRecord
  2
_FILLED
  0
ENDTAB
  0
TABLE
  2
DIMSTYLE
  5
A
100
AcDbSymbolTable
 70
1
100
AcDbDimStyleTable
 71
0
  0
DIMSTYLE
105
213
100
AcDbSymbolTableRecord
100
AcDbDimStyleTableRecord
  2
STANDARD
 70
0
  3

  4

 40
1.0
 41
1.6032329763
 42
1.0
 43
0.38
 44
1.0
 45
0.0
 46
0.0
 47
0.01
 48
0.01
140
2.2445261669
141
0.09
142
0.0
143
25.4
144
1.0
145
0.0
146
1.0
147
0.625
 71
1
 72
0
 73
0
 74
0
 75
0
 76
0
 77
1
 78
8
 79
2
170
0
171
1
172
0
173
0
174
0
175
0
176
0
177
0
178
0
270
2
179
2
271
2
272
2
273
2
274
2
275
0
280
0
281
0
282
0
283
1
284
8
285
0
286
0
287
3
288
0
340
11
278
46
341
212
342
212
343
212
344
212
  0
ENDTAB
  0
ENDSEC
  0
SECTION
  2
BLOCKS
  0
BLOCK
  5
20
100
AcDbEntity
  8
0
100
AcDbBlockBegin
  2
*Model_Space
 70
0
 10
0.0
 20
0.0
 30
0.0
  3
*Model_Space
  1

  0
ENDBLK
  5
21
100
AcDbEntity
  8
0
100
AcDbBlockEnd
  0
BLOCK
  5
1C
100
AcDbEntity
  8
0
100
AcDbBlockBegin
  2
*Paper_Space
 70
0
 10
0.0
 20
0.0
 30
0.0
  3
*Paper_Space
  1

  0
ENDBLK
  5
1D
100
AcDbEntity
  8
0
100
AcDbBlockEnd
  0
BLOCK
  5
214
100
AcDbEntity
  8
0
100
AcDbBlockBegin
  2
_FILLED
 70
64
 10
0.0
 20
0.0
  3
_FILLED
  1

  0
SOLID
  5
215
100
AcDbEntity
  8
0
  6
BYBLOCK
 62
0
100
AcDbTrace
 10
0.0
 20
0.0
 11
-1.0
 21
0.25
 12
-1.0
 22
-0.25
 13
-1.0
 23
-0.25
  0
ENDBLK
  5
216
100
AcDbEntity
  8
0
  6
BYBLOCK
 62
0
100
AcDbBlockEnd
  0
ENDSEC
  0
SECTION
  2
ENTITIES
  0
LINE
  5
217
100
AcDbEntity
  8
0
100
AcDbLine
 62
7
  6
BYLAYER
 10
14.2997906533
 20
85.1482911259
 11
14.2997906336
 21
106.2482911259
  0
LINE
  5
218
100
AcDbEntity
  8
0
100
AcDbLine
 62
7
  6
BYLAYER
 10
14.3133006505
 20
85.1482911259
 11
14.3133006307
 21
106.2482911259
  0
LINE
  5
219
100
AcDbEntity
  8
0
100
AcDbLine
 62
7
  6
BYLAYER
 10
16.2453695122
 20
106.2482911259
 11
16.2453695122
 21
105.0029237008
  0
LINE
  5
21A
100
AcDbEntity
  8
0
100
AcDbLine
 62
7
  6
BYLAYER
 10
16.2453695122
 20
101.1921392359
 11
16.2453695122
 21
97.6029237008
  0
LINE
  5
21B
100
AcDbEntity
  8
0
100
AcDbLine
 62
7
  6
BYLAYER
 10
16.2453695122
 20
93.7921392359
 11
16.2453695122
 21
90.2029237008
  0
LINE
  5
21C
100
AcDbEntity
  8
0
100
AcDbLine
 62
7
  6
BYLAYER
 10
16.2453695122
 20
86.3921392359
 11
16.2453695122
 21
85.1482911259
  0
LINE
  5
21D
100
AcDbEntity
  8
0
100
AcDbLine
 62
7
  6
BYLAYER
 10
19.0356951218
 20
84.3982911256
 11
19.0356951218
 21
106.9982911256
  0
LINE
  5
21E
100
AcDbEntity
  8
0
100
AcDbLine
 62
7
  6
BYLAYER
 10
23.4779679077
 20
85.9982911259
 11
23.4779679077
 21
105.3982911259
  0
LINE
  5
21F
100
AcDbEntity
  8
0
100
AcDbLine
 62
7
  6
BYLAYER
 10
24.8395654953
 20
105.3982911259
 11
24.8395654953
 21
85.9982911259
  0
LINE
  5
220
100
AcDbEntity
  8
0
100
AcDbLine
 62
7
  6
BYLAYER
 10
25.4282885776
 20
85.9982911259
 11
25.4282885776
 21
105.3982911259
  0
LINE
  5
221
100
AcDbEntity
  8
0
100
AcDbLine
 62
7
  6
BYLAYER
 10
26.0942464658
 20
105.3982911259
 11
26.0942464658
 21
85.9982911259
  0
LINE
  5
222
100
AcDbEntity
  8
0
100
AcDbLine
 62
7
  6
BYLAYER
 10
26.5767498104
 20
105.3982911259
 11
26.5767498104
 21
85.9982911259
  0
LINE
  5
223
100
AcDbEntity
  8
0
100
AcDbLine
 62
7
  6
BYLAYER
 10
19.0356951218
 20
104.5993111657
 11
18.9628930845
 21
104.5125046888
  0
LINE
  5
224
100
AcDbEntity
  8
0
100
AcDbLine
 62
7
  6
BYLAYER
 10
18.9628930844
 20
86.8840775641
 11
19.0356951218
 21
86.7972710872
  0
LINE
  5
225
100
AcDbEntity
  8
0
100
AcDbLine
 62
7
  6
BYLAYER
 10
18.2318763483
 20
89.3713150173
 11
19.0356951218
 21
88.4128710178
  0
LINE
  5
226
100
AcDbEntity
  8
0
100
AcDbLine
 62
7
  6
BYLAYER
 10
19.0356951218
 20
89.0622786109
 11
18.7765153834
 21
89.3713150173
  0
LINE
  5
227
100
AcDbEntity
  8
0
100
AcDbLine
 62
7
  6
BYLAYER
 10
19.0356951218
 20
89.4028205114
 11
18.6469971004
 21
89.8662897641
  0
LINE
  5
228
100
AcDbEntity
  8
0
100
AcDbLine
 62
7
  6
BYLAYER
 10
30.3356951222
 20
106.9982911256
 11
30.3356951222
 21
105.3982911259
  0
LINE
  5
229
100
AcDbEntity
  8
0
100
AcDbLine
 62
7
  6
BYLAYER
 10
30.3356951222
 20
85.9982911259
 11
30.3356951222
 21
84.3982911256
  0
LINE
  5
22A
100
AcDbEntity
  8
0
100
AcDbLine
 62
7
  6
BYLAYER
 10
30.3653164717
 20
105.3982911259
 11
30.3653164717
 21
85.9982911259
  0
LINE
  5
22B
100
AcDbEntity
  8
0
100
AcDbLine
 62
7
  6
BYLAYER
 10
19.0356951218
 20
97.1993111657
 11
18.9628930845
 21
97.1125046888
  0
LINE
  5
22C
100
AcDbEntity
  8
0
100
AcDbLine
 62
7
  6
BYLAYER
 10
18.9628930844
 20
94.2840775641
 11
19.0356951218
 21
94.1972710872
  0
LINE
  5
22D
100
AcDbEntity
  8
0
100
AcDbLine
 62
7
  6
BYLAYER
 10
18.2318763483
 20
96.7713150173
 11
19.0356951218
 21
95.8128710178
  0
LINE
  5
22E
100
AcDbEntity
  8
0
100
AcDbLine
 62
7
  6
BYLAYER
 10
19.0356951218
 20
96.462278611
 11
18.7765153834
 21
96.7713150173
  0
LINE
  5
22F
100
AcDbEntity
  8
0
100
AcDbLine
 62
7
  6
BYLAYER
 10
19.0356951218
 20
96.8028205114
 11
18.6469971004
 21
97.2662897641
  0
LINE
  5
230
100
AcDbEntity
  8
0
100
AcDbLine
 62
7
  6
BYLAYER
 10
35.2152734461
 20
84.3982911256
 11
35.2152734461
 21
85.9982911259
  0
LINE
  5
231
100
AcDbEntity
  8
0
100
AcDbLine
 62
7
  6
BYLAYER
 10
35.2152734461
 20
105.3982911259
 11
35.2152734461
 21
106.9982911256
  0
LINE
  5
232
100
AcDbEntity
  8
0
100
AcDbLine
 62
7
  6
BYLAYER
 10
35.3432676093
 20
106.8982911257
 11
35.3432676093
 21
105.3982911259
  0
LINE
  5
233
100
AcDbEntity
  8
0
100
AcDbLine
 62
7
  6
BYLAYER
 10
35.3432676093
 20
85.9982911259
 11
35.3432676093
 21
84.4982911256
  0
LINE
  5
234
100
AcDbEntity
  8
0
100
AcDbLine
 62
7
  6
BYLAYER
 10
19.0356951218
 20
89.7993111657
 11
18.9628930845
 21
89.7125046888
  0
LINE
  5
235
100
AcDbEntity
  8
0
100
AcDbLine
 62
7
  6
BYLAYER
 10
18.9628930844
 20
101.6840775641
 11
19.0356951218
 21
101.5972710872
  0
LINE
  5
236
100
AcDbEntity
  8
0
100
AcDbLine
 62
7
  6
BYLAYER
 10
18.2318763483
 20
104.1713150173
 11
19.0356951218
 21
103.2128710178
  0
LINE
  5
237
100
AcDbEntity
  8
0
100
AcDbLine
 62
7
  6
BYLAYER
 10
19.0356951218
 20
103.862278611
 11
18.7765153834
 21
104.1713150173
  0
LINE
  5
238
100
AcDbEntity
  8
0
100
AcDbLine
 62
7
  6
BYLAYER
 10
19.0356951218
 20
104.2028205114
 11
18.6469971004
 21
104.6662897641
  0
LINE
  5
239
100
AcDbEntity
  8
0
100
AcDbLine
 62
7
  6
BYLAYER
 10
42.2549524231
 20
84.3982911256
 11
42.2549524231
 21
84.4982911256
  0
LINE
  5
23A
100
AcDbEntity
  8
0
100
AcDbLine
 62
7
  6
BYLAYER
 10
42.2549524231
 20
106.8982911257
 11
42.2549524231
 21
106.9982911256
  0
LINE
  5
23B
100
AcDbEntity
  8
0
100
AcDbLine
 62
7
  6
BYLAYER
 10
19.0356951217
 20
84.3982911256
 11
118.035695122
 21
84.3982911256
  0
LINE
  5
23C
100
AcDbEntity
  8
0
100
AcDbLine
 62
7
  6
BYLAYER
 10
101.7281226349
 20
84.4982911256
 11
35.3432676093
 21
84.4982911256
  0
LINE
  5
23D
100
AcDbEntity
  8
0
100
AcDbLine
 62
7
  6
BYLAYER
 10
14.2997906533
 20
85.1482911259
 11
19.0356951218
 21
85.1482911259
  0
LINE
  5
23E
100
AcDbEntity
  8
0
100
AcDbLine
 62
7
  6
BYLAYER
 10
18.5937923454
 20
85.6482911265
 11
17.7768337928
 21
85.6482911265
  0
LINE
  5
23F
100
AcDbEntity
  8
0
100
AcDbLine
 62
7
  6
BYLAYER
 10
118.0356951219
 20
85.6482911259
 11
120.8382400929
 21
85.6482911259
  0
LINE
  5
240
100
AcDbEntity
  8
0
100
AcDbLine
 62
7
  6
BYLAYER
 10
106.7356951222
 20
85.9982911259
 11
101.7281226349
 21
85.9982911259
  0
LINE
  5
241
100
AcDbEntity
  8
0
100
AcDbLine
 62
7
  6
BYLAYER
 10
23.4779679074
 20
85.9982911259
 11
35.3432676093
 21
85.9982911259
  0
LINE
  5
242
100
AcDbEntity
  8
0
100
AcDbLine
 62
7
  6
BYLAYER
 10
107.7643072465
 20
85.9982911259
 11
110.7485225422
 21
85.9982911259
  0
LINE
  5
243
100
AcDbEntity
  8
0
100
AcDbLine
 62
7
  6
BYLAYER
 10
19.0356951218
 20
86.8840775641
 11
18.9628930844
 21
86.8840775641
  0
LINE
  5
244
100
AcDbEntity
  8
0
100
AcDbLine
 62
7
  6
BYLAYER
 10
118.0356951219
 20
87.2252672345
 11
118.4283546927
 21
87.2252672345
  0
LINE
  5
245
100
AcDbEntity
  8
0
100
AcDbLine
 62
7
  6
BYLAYER
 10
18.7765153834
 20
89.3713150173
 11
18.2318763483
 21
89.3713150173
  0
LINE
  5
246
100
AcDbEntity
  8
0
100
AcDbLine
 62
7
  6
BYLAYER
 10
18.9628930844
 20
89.7125046888
 11
19.0356951218
 21
89.7125046888
  0
LINE
  5
247
100
AcDbEntity
  8
0
100
AcDbLine
 62
7
  6
BYLAYER
 10
18.5937923454
 20
90.9482911265
 11
17.7768337928
 21
90.9482911265
  0
LINE
  5
248
100
AcDbEntity
  8
0
100
AcDbLine
 62
7
  6
BYLAYER
 10
118.0356951219
 20
92.1252672345
 11
118.4283546927
 21
92.1252672345
  0
LINE
  5
249
100
AcDbEntity
  8
0
100
AcDbLine
 62
7
  6
BYLAYER
 10
18.5937923454
 20
93.0482911265
 11
17.7768337928
 21
93.0482911265
  0
LINE
  5
24A
100
AcDbEntity
  8
0
100
AcDbLine
 62
7
  6
BYLAYER
 10
19.0356951218
 20
94.2840775641
 11
18.9628930844
 21
94.2840775641
  0
LINE
  5
24B
100
AcDbEntity
  8
0
100
AcDbLine
 62
7
  6
BYLAYER
 10
18.7765153834
 20
96.7713150173
 11
18.2318763483
 21
96.7713150173
  0
LINE
  5
24C
100
AcDbEntity
  8
0
100
AcDbLine
 62
7
  6
BYLAYER
 10
18.9628930844
 20
97.1125046888
 11
19.0356951218
 21
97.1125046888
  0
LINE
  5
24D
100
AcDbEntity
  8
0
100
AcDbLine
 62
7
  6
BYLAYER
 10
118.0356951219
 20
97.1252672345
 11
118.4283546927
 21
97.1252672345
  0
LINE
  5
24E
100
AcDbEntity
  8
0
100
AcDbLine
 62
7
  6
BYLAYER
 10
18.5937923454
 20
98.3482911265
 11
17.7768337928
 21
98.3482911265
  0
LINE
  5
24F
100
AcDbEntity
  8
0
100
AcDbLine
 62
7
  6
BYLAYER
 10
18.5937923454
 20
100.4482911265
 11
17.7768337928
 21
100.4482911265
  0
LINE
  5
250
100
AcDbEntity
  8
0
100
AcDbLine
 62
7
  6
BYLAYER
 10
19.0356951218
 20
101.6840775641
 11
18.9628930844
 21
101.6840775641
  0
LINE
  5
251
100
AcDbEntity
  8
0
100
AcDbLine
 62
7
  6
BYLAYER
 10
118.0356951219
 20
102.0252672345
 11
118.4283546927
 21
102.0252672345
  0
LINE
  5
252
100
AcDbEntity
  8
0
100
AcDbLine
 62
7
  6
BYLAYER
 10
18.7765153834
 20
104.1713150173
 11
18.2318763483
 21
104.1713150173
  0
LINE
  5
253
100
AcDbEntity
  8
0
100
AcDbLine
 62
7
  6
BYLAYER
 10
18.9628930844
 20
104.5125046888
 11
19.0356951218
 21
104.5125046888
  0
LINE
  5
254
100
AcDbEntity
  8
0
100
AcDbLine
 62
7
  6
BYLAYER
 10
110.7485225422
 20
105.3982911259
 11
107.7643072464
 21
105.3982911259
  0
LINE
  5
255
100
AcDbEntity
  8
0
100
AcDbLine
 62
7
  6
BYLAYER
 10
23.4779679076
 20
105.3982911259
 11
35.3432676093
 21
105.3982911259
  0
LINE
  5
256
100
AcDbEntity
  8
0
100
AcDbLine
 62
7
  6
BYLAYER
 10
101.7281226349
 20
105.3982911259
 11
106.7356951222
 21
105.3982911259
  0
LINE
  5
257
100
AcDbEntity
  8
0
100
AcDbLine
 62
7
  6
BYLAYER
 10
120.8382400929
 20
105.7482911257
 11
118.0356951219
 21
105.7482911257
  0
LINE
  5
258
100
AcDbEntity
  8
0
100
AcDbLine
 62
7
  6
BYLAYER
 10
18.5937923454
 20
105.7482911265
 11
17.7768337928
 21
105.7482911265
  0
LINE
  5
259
100
AcDbEntity
  8
0
100
AcDbLine
 62
7
  6
BYLAYER
 10
14.2997906336
 20
106.2482911259
 11
19.0356951218
 21
106.2482911259
  0
LINE
  5
25A
100
AcDbEntity
  8
0
100
AcDbLine
 62
7
  6
BYLAYER
 10
101.728122635
 20
106.8982911257
 11
35.3432676093
 21
106.8982911257
  0
LINE
  5
25B
100
AcDbEntity
  8
0
100
AcDbLine
 62
7
  6
BYLAYER
 10
19.0356951217
 20
106.9982911256
 11
118.035695122
 21
106.9982911256
  0
LINE
  5
25C
100
AcDbEntity
  8
0
100
AcDbLine
 62
7
  6
BYLAYER
 10
94.8164378212
 20
106.9982911256
 11
94.8164378212
 21
106.8982911257
  0
LINE
  5
25D
100
AcDbEntity
  8
0
100
AcDbLine
 62
7
  6
BYLAYER
 10
94.8164378212
 20
84.4982911256
 11
94.8164378212
 21
84.3982911256
  0
LINE
  5
25E
100
AcDbEntity
  8
0
100
AcDbLine
 62
7
  6
BYLAYER
 10
101.728122635
 20
106.8982911257
 11
101.728122635
 21
105.3982911259
  0
LINE
  5
25F
100
AcDbEntity
  8
0
100
AcDbLine
 62
7
  6
BYLAYER
 10
101.728122635
 20
85.9982911259
 11
101.728122635
 21
84.4982911256
  0
LINE
  5
260
100
AcDbEntity
  8
0
100
AcDbLine
 62
7
  6
BYLAYER
 10
101.8561167983
 20
84.3982911256
 11
101.8561167983
 21
85.9982911259
  0
LINE
  5
261
100
AcDbEntity
  8
0
100
AcDbLine
 62
7
  6
BYLAYER
 10
101.8561167983
 20
105.3982911259
 11
101.8561167983
 21
106.9982911256
  0
LINE
  5
262
100
AcDbEntity
  8
0
100
AcDbLine
 62
7
  6
BYLAYER
 10
118.4283546927
 20
87.2252672344
 11
118.0356951219
 21
87.6933915911
  0
LINE
  5
263
100
AcDbEntity
  8
0
100
AcDbLine
 62
7
  6
BYLAYER
 10
118.4283546927
 20
92.1252672344
 11
118.0356951219
 21
92.5933915911
  0
LINE
  5
264
100
AcDbEntity
  8
0
100
AcDbLine
 62
7
  6
BYLAYER
 10
105.8907684401
 20
105.3982911259
 11
105.8907684401
 21
85.9982911259
  0
LINE
  5
265
100
AcDbEntity
  8
0
100
AcDbLine
 62
7
  6
BYLAYER
 10
106.6267673152
 20
85.9982911259
 11
106.6267673152
 21
105.3982911259
  0
LINE
  5
266
100
AcDbEntity
  8
0
100
AcDbLine
 62
7
  6
BYLAYER
 10
106.7356951222
 20
84.3982911256
 11
106.7356951222
 21
106.9982911256
  0
LINE
  5
267
100
AcDbEntity
  8
0
100
AcDbLine
 62
7
  6
BYLAYER
 10
118.4283546927
 20
97.1252672344
 11
118.0356951219
 21
97.5933915911
  0
LINE
  5
268
100
AcDbEntity
  8
0
100
AcDbLine
 62
7
  6
BYLAYER
 10
118.4283546927
 20
102.0252672344
 11
118.0356951219
 21
102.4933915911
  0
LINE
  5
269
100
AcDbEntity
  8
0
100
AcDbLine
 62
7
  6
BYLAYER
 10
118.0356951219
 20
84.3982911256
 11
118.0356951219
 21
106.9982911256
  0
LINE
  5
26A
100
AcDbEntity
  8
0
100
AcDbLine
 62
7
  6
BYLAYER
 10
120.8215886573
 20
85.6482911259
 11
120.8215886573
 21
105.7482911257
  0
LINE
  5
26B
100
AcDbEntity
  8
0
100
AcDbLine
 62
7
  6
BYLAYER
 10
120.8247300963
 20
85.6482911259
 11
120.8247300963
 21
105.7482911257
  0
LINE
  5
26C
100
AcDbEntity
  8
0
100
AcDbLine
 62
7
  6
BYLAYER
 10
120.8382400929
 20
85.6482911259
 11
120.8382400929
 21
105.7482911257
  0
ARC
  5
26D
100
AcDbEntity
  8
0
100
AcDbCircle
 62
7
  6
BYLAYER
 10
20.4282877195
 20
103.2239159694
 40
1.9041840265
100
AcDbArc
 50
143.2837922575
 51
150.1629201005
  0
ARC
  5
26E
100
AcDbEntity
  8
0
100
AcDbCircle
 62
7
  6
BYLAYER
 10
20.4282877195
 20
95.8239159694
 40
1.9041840265
100
AcDbArc
 50
143.2837922575
 51
150.1629201005
  0
ARC
  5
26F
100
AcDbEntity
  8
0
100
AcDbCircle
 62
7
  6
BYLAYER
 10
20.4282877195
 20
88.4239159694
 40
1.9041840265
100
AcDbArc
 50
143.2837922575
 51
150.1629201005
  0
ARC
  5
270
100
AcDbEntity
  8
0
100
AcDbCircle
 62
7
  6
BYLAYER
 10
18.5921533484
 20
103.8627521744
 40
1.8855396644
100
AcDbArc
 50
76.1211226925
 51
89.9501958936
  0
ARC
  5
271
100
AcDbEntity
  8
0
100
AcDbCircle
 62
7
  6
BYLAYER
 10
18.5921533484
 20
89.0627521744
 40
1.8855396644
100
AcDbArc
 50
76.1211226925
 51
89.9501958936
  0
ARC
  5
272
100
AcDbEntity
  8
0
100
AcDbCircle
 62
7
  6
BYLAYER
 10
18.5921533484
 20
96.4627521744
 40
1.8855396644
100
AcDbArc
 50
76.1211226925
 51
89.9501958936
  0
ARC
  5
273
100
AcDbEntity
  8
0
100
AcDbCircle
 62
7
  6
BYLAYER
 10
19.6562047606
 20
103.429576253
 40
1.5962331941
100
AcDbArc
 50
126.2313030409
 51
129.2158199483
  0
ARC
  5
274
100
AcDbEntity
  8
0
100
AcDbCircle
 62
7
  6
BYLAYER
 10
19.6562047606
 20
96.029576253
 40
1.5962331942
100
AcDbArc
 50
126.231303041
 51
129.2158199483
  0
ARC
  5
275
100
AcDbEntity
  8
0
100
AcDbCircle
 62
7
  6
BYLAYER
 10
19.6562047607
 20
88.6295762529
 40
1.5962331942
100
AcDbArc
 50
126.2313030409
 51
129.2158199483
  0
SPLINE
  5
276
100
AcDbEntity
  8
0
100
AcDbSpline
 62
7
  6
BYLAYER
 70
0
 71
3
 72
15
 73
11
 74
0
 42
0.0000001
 43
0.0000001
 44
0.0000000001
 40
0.0
 40
0.0
 40
0.0
 40
0.0
 40
0.1197940641
 40
0.2428198894
 40
0.368437838
 40
0.4957307263
 40
0.6236272205
 40
0.7509994254
 40
0.8767616675
 40
1.0
 40
1.0
 40
1.0
 40
1.0
 10
18.4201543297
 20
101.7547882418
 30
0.0
 10
18.3542180648
 20
101.8334082237
 30
0.0
 10
18.2341548525
 20
102.0046262521
 30
0.0
 10
18.0961373175
 20
102.2897834639
 30
0.0
 10
18.0012578284
 20
102.598782789
 30
0.0
 10
17.9523050505
 20
102.9224411363
 30
0.0
 10
17.9506436189
 20
103.2512629843
 30
0.0
 10
17.9963447611
 20
103.5756084923
 30
0.0
 10
18.0880383003
 20
103.8858636266
 30
0.0
 10
18.1793319203
 20
104.079762233
 30
0.0
 10
18.2318763483
 20
104.1713150173
 30
0.0
  0
SPLINE
  5
277
100
AcDbEntity
  8
0
100
AcDbSpline
 62
7
  6
BYLAYER
 70
0
 71
3
 72
9
 73
5
 74
0
 42
0.0000001
 43
0.0000001
 44
0.0000000001
 40
0.0
 40
0.0
 40
0.0
 40
0.0
 40
0.49487522
 40
1.0
 40
1.0
 40
1.0
 40
1.0
 10
18.7124150854
 20
101.4796711759
 30
0.0
 10
18.6589170128
 20
101.5188848337
 30
0.0
 10
18.5557372074
 20
101.6050372752
 30
0.0
 10
18.4636608469
 20
101.7029126676
 30
0.0
 10
18.4201543297
 20
101.7547882418
 30
0.0
  0
SPLINE
  5
278
100
AcDbEntity
  8
0
100
AcDbSpline
 62
7
  6
BYLAYER
 70
0
 71
3
 72
15
 73
11
 74
0
 42
0.0000001
 43
0.0000001
 44
0.0000000001
 40
0.0
 40
0.0
 40
0.0
 40
0.0
 40
0.1197940641
 40
0.2428198894
 40
0.368437838
 40
0.4957307263
 40
0.6236272205
 40
0.7509994254
 40
0.8767616675
 40
1.0
 40
1.0
 40
1.0
 40
1.0
 10
18.4201543297
 20
94.3547882418
 30
0.0
 10
18.3542180648
 20
94.4334082237
 30
0.0
 10
18.2341548525
 20
94.6046262521
 30
0.0
 10
18.0961373175
 20
94.8897834639
 30
0.0
 10
18.0012578284
 20
95.198782789
 30
0.0
 10
17.9523050505
 20
95.5224411363
 30
0.0
 10
17.9506436189
 20
95.8512629843
 30
0.0
 10
17.9963447611
 20
96.1756084923
 30
0.0
 10
18.0880383003
 20
96.4858636266
 30
0.0
 10
18.1793319203
 20
96.679762233
 30
0.0
 10
18.2318763483
 20
96.7713150173
 30
0.0
  0
SPLINE
  5
279
100
AcDbEntity
  8
0
100
AcDbSpline
 62
7
  6
BYLAYER
 70
0
 71
3
 72
9
 73
5
 74
0
 42
0.0000001
 43
0.0000001
 44
0.0000000001
 40
0.0
 40
0.0
 40
0.0
 40
0.0
 40
0.49487522
 40
1.0
 40
1.0
 40
1.0
 40
1.0
 10
18.7124150854
 20
94.0796711759
 30
0.0
 10
18.6589170128
 20
94.1188848337
 30
0.0
 10
18.5557372074
 20
94.2050372752
 30
0.0
 10
18.4636608469
 20
94.3029126676
 30
0.0
 10
18.4201543297
 20
94.3547882418
 30
0.0
  0
SPLINE
  5
27A
100
AcDbEntity
  8
0
100
AcDbSpline
 62
7
  6
BYLAYER
 70
0
 71
3
 72
15
 73
11
 74
0
 42
0.0000001
 43
0.0000001
 44
0.0000000001
 40
0.0
 40
0.0
 40
0.0
 40
0.0
 40
0.1197940641
 40
0.2428198894
 40
0.368437838
 40
0.4957307263
 40
0.6236272205
 40
0.7509994254
 40
0.8767616675
 40
1.0
 40
1.0
 40
1.0
 40
1.0
 10
18.4201543297
 20
86.9547882418
 30
0.0
 10
18.3542180648
 20
87.0334082237
 30
0.0
 10
18.2341548525
 20
87.2046262521
 30
0.0
 10
18.0961373175
 20
87.4897834639
 30
0.0
 10
18.0012578284
 20
87.798782789
 30
0.0
 10
17.9523050505
 20
88.1224411363
 30
0.0
 10
17.9506436189
 20
88.4512629843
 30
0.0
 10
17.9963447611
 20
88.7756084923
 30
0.0
 10
18.0880383003
 20
89.0858636266
 30
0.0
 10
18.1793319203
 20
89.279762233
 30
0.0
 10
18.2318763483
 20
89.3713150173
 30
0.0
  0
SPLINE
  5
27B
100
AcDbEntity
  8
0
100
AcDbSpline
 62
7
  6
BYLAYER
 70
0
 71
3
 72
9
 73
5
 74
0
 42
0.0000001
 43
0.0000001
 44
0.0000000001
 40
0.0
 40
0.0
 40
0.0
 40
0.0
 40
0.49487522
 40
1.0
 40
1.0
 40
1.0
 40
1.0
 10
18.7124150854
 20
86.6796711759
 30
0.0
 10
18.6589170128
 20
86.7188848337
 30
0.0
 10
18.5557372074
 20
86.8050372752
 30
0.0
 10
18.4636608469
 20
86.9029126676
 30
0.0
 10
18.4201543297
 20
86.9547882418
 30
0.0
  0
SPLINE
  5
27C
100
AcDbEntity
  8
0
100
AcDbSpline
 62
7
  6
BYLAYER
 70
0
 71
3
 72
15
 73
11
 74
0
 42
0.0000001
 43
0.0000001
 44
0.0000000001
 40
0.0
 40
0.0
 40
0.0
 40
0.0
 40
0.1197979121
 40
0.2428251605
 40
0.3684426416
 40
0.4957338583
 40
0.6236282511
 40
0.7509987286
 40
0.8767603955
 40
1.0
 40
1.0
 40
1.0
 40
1.0
 10
118.2400491601
 20
89.64179401
 30
0.0
 10
118.3059942909
 20
89.5631749613
 30
0.0
 10
118.4260742454
 20
89.3919588006
 30
0.0
 10
118.5641127205
 20
89.1068010847
 30
0.0
 10
118.6590066512
 20
88.7978009668
 30
0.0
 10
118.7079668919
 20
88.4741416588
 30
0.0
 10
118.7096285769
 20
88.1453187946
 30
0.0
 10
118.6639204668
 20
87.8209723176
 30
0.0
 10
118.5722129713
 20
87.51071638
 30
0.0
 10
118.4809063104
 20
87.3168191487
 30
0.0
 10
118.4283546927
 20
87.2252672344
 30
0.0
  0
SPLINE
  5
27D
100
AcDbEntity
  8
0
100
AcDbSpline
 62
7
  6
BYLAYER
 70
0
 71
3
 72
9
 73
5
 74
0
 42
0.0000001
 43
0.0000001
 44
0.0000000001
 40
0.0
 40
0.0
 40
0.0
 40
0.0
 40
0.2474864872
 40
1.0
 40
1.0
 40
1.0
 40
1.0
 10
118.0444129855
 20
89.8401430352
 30
0.0
 10
118.0618624078
 20
89.8251630793
 30
0.0
 10
118.1310846781
 20
89.7631506963
 30
0.0
 10
118.195110886
 20
89.6953689188
 30
0.0
 10
118.2400491601
 20
89.64179401
 30
0.0
  0
SPLINE
  5
27E
100
AcDbEntity
  8
0
100
AcDbSpline
 62
7
  6
BYLAYER
 70
0
 71
3
 72
15
 73
11
 74
0
 42
0.0000001
 43
0.0000001
 44
0.0000000001
 40
0.0
 40
0.0
 40
0.0
 40
0.0
 40
0.1197979121
 40
0.2428251605
 40
0.3684426416
 40
0.4957338583
 40
0.6236282511
 40
0.7509987286
 40
0.8767603955
 40
1.0
 40
1.0
 40
1.0
 40
1.0
 10
118.2400491601
 20
94.54179401
 30
0.0
 10
118.3059942909
 20
94.4631749613
 30
0.0
 10
118.4260742454
 20
94.2919588006
 30
0.0
 10
118.5641127205
 20
94.0068010847
 30
0.0
 10
118.6590066512
 20
93.6978009668
 30
0.0
 10
118.7079668919
 20
93.3741416588
 30
0.0
 10
118.7096285769
 20
93.0453187946
 30
0.0
 10
118.6639204668
 20
92.7209723176
 30
0.0
 10
118.5722129713
 20
92.41071638
 30
0.0
 10
118.4809063104
 20
92.2168191487
 30
0.0
 10
118.4283546927
 20
92.1252672344
 30
0.0
  0
SPLINE
  5
27F
100
AcDbEntity
  8
0
100
AcDbSpline
 62
7
  6
BYLAYER
 70
0
 71
3
 72
9
 73
5
 74
0
 42
0.0000001
 43
0.0000001
 44
0.0000000001
 40
0.0
 40
0.0
 40
0.0
 40
0.0
 40
0.2474864872
 40
1.0
 40
1.0
 40
1.0
 40
1.0
 10
118.0444129855
 20
94.7401430352
 30
0.0
 10
118.0618624078
 20
94.7251630793
 30
0.0
 10
118.1310846781
 20
94.6631506963
 30
0.0
 10
118.195110886
 20
94.5953689188
 30
0.0
 10
118.2400491601
 20
94.54179401
 30
0.0
  0
SPLINE
  5
280
100
AcDbEntity
  8
0
100
AcDbSpline
 62
7
  6
BYLAYER
 70
0
 71
3
 72
15
 73
11
 74
0
 42
0.0000001
 43
0.0000001
 44
0.0000000001
 40
0.0
 40
0.0
 40
0.0
 40
0.0
 40
0.1197979121
 40
0.2428251605
 40
0.3684426416
 40
0.4957338583
 40
0.6236282511
 40
0.7509987286
 40
0.8767603955
 40
1.0
 40
1.0
 40
1.0
 40
1.0
 10
118.2400491601
 20
99.54179401
 30
0.0
 10
118.3059942909
 20
99.4631749613
 30
0.0
 10
118.4260742454
 20
99.2919588006
 30
0.0
 10
118.5641127205
 20
99.0068010847
 30
0.0
 10
118.6590066512
 20
98.6978009668
 30
0.0
 10
118.7079668919
 20
98.3741416588
 30
0.0
 10
118.7096285769
 20
98.0453187946
 30
0.0
 10
118.6639204669
 20
97.7209723176
 30
0.0
 10
118.5722129713
 20
97.41071638
 30
0.0
 10
118.4809063104
 20
97.2168191487
 30
0.0
 10
118.4283546927
 20
97.1252672344
 30
0.0
  0
SPLINE
  5
281
100
AcDbEntity
  8
0
100
AcDbSpline
 62
7
  6
BYLAYER
 70
0
 71
3
 72
9
 73
5
 74
0
 42
0.0000001
 43
0.0000001
 44
0.0000000001
 40
0.0
 40
0.0
 40
0.0
 40
0.0
 40
0.2474864872
 40
1.0
 40
1.0
 40
1.0
 40
1.0
 10
118.0444129855
 20
99.7401430352
 30
0.0
 10
118.0618624078
 20
99.7251630793
 30
0.0
 10
118.1310846781
 20
99.6631506963
 30
0.0
 10
118.195110886
 20
99.5953689188
 30
0.0
 10
118.2400491601
 20
99.54179401
 30
0.0
  0
SPLINE
  5
282
100
AcDbEntity
  8
0
100
AcDbSpline
 62
7
  6
BYLAYER
 70
0
 71
3
 72
15
 73
11
 74
0
 42
0.0000001
 43
0.0000001
 44
0.0000000001
 40
0.0
 40
0.0
 40
0.0
 40
0.0
 40
0.1197979121
 40
0.2428251605
 40
0.3684426416
 40
0.4957338583
 40
0.6236282511
 40
0.7509987286
 40
0.8767603955
 40
1.0
 40
1.0
 40
1.0
 40
1.0
 10
118.2400491601
 20
104.44179401
 30
0.0
 10
118.3059942909
 20
104.3631749613
 30
0.0
 10
118.4260742454
 20
104.1919588006
 30
0.0
 10
118.5641127205
 20
103.9068010847
 30
0.0
 10
118.6590066512
 20
103.5978009668
 30
0.0
 10
118.7079668919
 20
103.2741416588
 30
0.0
 10
118.7096285769
 20
102.9453187946
 30
0.0
 10
118.6639204669
 20
102.6209723176
 30
0.0
 10
118.5722129713
 20
102.31071638
 30
0.0
 10
118.4809063104
 20
102.1168191487
 30
0.0
 10
118.4283546927
 20
102.0252672344
 30
0.0
  0
SPLINE
  5
283
100
AcDbEntity
  8
0
100
AcDbSpline
 62
7
  6
BYLAYER
 70
0
 71
3
 72
9
 73
5
 74
0
 42
0.0000001
 43
0.0000001
 44
0.0000000001
 40
0.0
 40
0.0
 40
0.0
 40
0.0
 40
0.2474864872
 40
1.0
 40
1.0
 40
1.0
 40
1.0
 10
118.0444129855
 20
104.6401430352
 30
0.0
 10
118.0618624078
 20
104.6251630793
 30
0.0
 10
118.1310846781
 20
104.5631506963
 30
0.0
 10
118.195110886
 20
104.4953689188
 30
0.0
 10
118.2400491601
 20
104.44179401
 30
0.0
  0
SPLINE
  5
284
100
AcDbEntity
  8
0
100
AcDbSpline
 62
7
  6
BYLAYER
 70
0
 71
3
 72
9
 73
5
 74
0
 42
0.0000001
 43
0.0000001
 44
0.0000000001
 40
0.0
 40
0.0
 40
0.0
 40
0.0
 40
0.4980841821
 40
1.0
 40
1.0
 40
1.0
 40
1.0
 10
118.4729674393
 20
105.0732764651
 30
0.0
 10
118.3975812057
 20
105.0732766015
 30
0.0
 10
118.2459761685
 20
105.0609060056
 30
0.0
 10
118.0983950247
 20
105.0241954801
 30
0.0
 10
118.0263348316
 20
105.0001499781
 30
0.0
  0
SPLINE
  5
285
100
AcDbEntity
  8
0
100
AcDbSpline
 62
7
  6
BYLAYER
 70
0
 71
3
 72
9
 73
5
 74
0
 42
0.0000001
 43
0.0000001
 44
0.0000000001
 40
0.0
 40
0.0
 40
0.0
 40
0.0
 40
0.5019173753
 40
1.0
 40
1.0
 40
1.0
 40
1.0
 10
118.0263193759
 20
86.3964376689
 30
0.0
 10
118.0983821545
 20
86.3723905352
 30
0.0
 10
118.2459681017
 20
86.3356762477
 30
0.0
 10
118.3975787223
 20
86.3233059227
 30
0.0
 10
118.4729674326
 20
86.3233057864
 30
0.0
  0
SPLINE
  5
286
100
AcDbEntity
  8
0
100
AcDbSpline
 62
7
  6
BYLAYER
 70
0
 71
3
 72
9
 73
5
 74
0
 42
0.0000001
 43
0.0000001
 44
0.0000000001
 40
0.0
 40
0.0
 40
0.0
 40
0.0
 40
0.5019173753
 40
1.0
 40
1.0
 40
1.0
 40
1.0
 10
118.0263193759
 20
96.2964376689
 30
0.0
 10
118.0983821545
 20
96.2723905352
 30
0.0
 10
118.2459681017
 20
96.2356762477
 30
0.0
 10
118.3975787223
 20
96.2233059227
 30
0.0
 10
118.4729674326
 20
96.2233057864
 30
0.0
  0
SPLINE
  5
287
100
AcDbEntity
  8
0
100
AcDbSpline
 62
7
  6
BYLAYER
 70
0
 71
3
 72
9
 73
5
 74
0
 42
0.0000001
 43
0.0000001
 44
0.0000000001
 40
0.0
 40
0.0
 40
0.0
 40
0.0
 40
0.5019173753
 40
1.0
 40
1.0
 40
1.0
 40
1.0
 10
118.0263193759
 20
91.2964376689
 30
0.0
 10
118.0983821545
 20
91.2723905352
 30
0.0
 10
118.2459681017
 20
91.2356762477
 30
0.0
 10
118.3975787223
 20
91.2233059227
 30
0.0
 10
118.4729674326
 20
91.2233057864
 30
0.0
  0
SPLINE
  5
288
100
AcDbEntity
  8
0
100
AcDbSpline
 62
7
  6
BYLAYER
 70
0
 71
3
 72
9
 73
5
 74
0
 42
0.0000001
 43
0.0000001
 44
0.0000000001
 40
0.0
 40
0.0
 40
0.0
 40
0.0
 40
0.5019173753
 40
1.0
 40
1.0
 40
1.0
 40
1.0
 10
118.0263193759
 20
101.1964376689
 30
0.0
 10
118.0983821545
 20
101.1723905352
 30
0.0
 10
118.2459681017
 20
101.1356762477
 30
0.0
 10
118.3975787223
 20
101.1233059227
 30
0.0
 10
118.4729674326
 20
101.1233057864
 30
0.0
  0
SPLINE
  5
289
100
AcDbEntity
  8
0
100
AcDbSpline
 62
7
  6
BYLAYER
 70
0
 71
3
 72
9
 73
5
 74
0
 42
0.0000001
 43
0.0000001
 44
0.0000000001
 40
0.0
 40
0.0
 40
0.0
 40
0.0
 40
0.4980841821
 40
1.0
 40
1.0
 40
1.0
 40
1.0
 10
118.4729674393
 20
95.1732764651
 30
0.0
 10
118.3975812057
 20
95.1732766015
 30
0.0
 10
118.2459761685
 20
95.1609060056
 30
0.0
 10
118.0983950247
 20
95.1241954801
 30
0.0
 10
118.0263348316
 20
95.1001499781
 30
0.0
  0
SPLINE
  5
28A
100
AcDbEntity
  8
0
100
AcDbSpline
 62
7
  6
BYLAYER
 70
0
 71
3
 72
9
 73
5
 74
0
 42
0.0000001
 43
0.0000001
 44
0.0000000001
 40
0.0
 40
0.0
 40
0.0
 40
0.0
 40
0.4980841821
 40
1.0
 40
1.0
 40
1.0
 40
1.0
 10
118.4729674393
 20
100.1732764651
 30
0.0
 10
118.3975812057
 20
100.1732766015
 30
0.0
 10
118.2459761685
 20
100.1609060056
 30
0.0
 10
118.0983950247
 20
100.1241954801
 30
0.0
 10
118.0263348316
 20
100.1001499781
 30
0.0
  0
SPLINE
  5
28B
100
AcDbEntity
  8
0
100
AcDbSpline
 62
7
  6
BYLAYER
 70
0
 71
3
 72
9
 73
5
 74
0
 42
0.0000001
 43
0.0000001
 44
0.0000000001
 40
0.0
 40
0.0
 40
0.0
 40
0.0
 40
0.4980841821
 40
1.0
 40
1.0
 40
1.0
 40
1.0
 10
118.4729674393
 20
90.2732764651
 30
0.0
 10
118.3975812057
 20
90.2732766015
 30
0.0
 10
118.2459761685
 20
90.2609060056
 30
0.0
 10
118.0983950247
 20
90.2241954801
 30
0.0
 10
118.0263348316
 20
90.2001499781
 30
0.0
  0
SPLINE
  5
28C
100
AcDbEntity
  8
0
100
AcDbSpline
 62
7
  6
BYLAYER
 70
0
 71
3
 72
15
 73
11
 74
0
 42
0.0000001
 43
0.0000001
 44
0.0000000001
 40
0.0
 40
0.0
 40
0.0
 40
0.0
 40
0.1140504469
 40
0.2298737058
 40
0.348904025
 40
0.4719967802
 40
0.5993431451
 40
0.7304941088
 40
0.8644981035
 40
1.0
 40
1.0
 40
1.0
 40
1.0
 10
118.4729674326
 20
96.2233057864
 30
0.0
 10
118.5814349751
 20
96.2233055903
 30
0.0
 10
118.8008901664
 20
96.2492481062
 30
0.0
 10
119.1151878326
 20
96.363880406
 30
0.0
 10
119.4038855062
 20
96.5492238026
 30
0.0
 10
119.6558471138
 20
96.7974889366
 30
0.0
 10
119.8618972559
 20
97.0987853077
 30
0.0
 10
120.0146277967
 20
97.4415271934
 30
0.0
 10
120.1085005897
 20
97.8126006679
 30
0.0
 10
120.1295841903
 20
98.0694222075
 30
0.0
 10
120.1295841903
 20
98.1982911258
 30
0.0
  0
SPLINE
  5
28D
100
AcDbEntity
  8
0
100
AcDbSpline
 62
7
  6
BYLAYER
 70
0
 71
3
 72
15
 73
11
 74
0
 42
0.0000001
 43
0.0000001
 44
0.0000000001
 40
0.0
 40
0.0
 40
0.0
 40
0.0
 40
0.1140504469
 40
0.2298737058
 40
0.348904025
 40
0.4719967802
 40
0.5993431451
 40
0.7304941088
 40
0.8644981035
 40
1.0
 40
1.0
 40
1.0
 40
1.0
 10
118.4729674326
 20
91.2233057864
 30
0.0
 10
118.5814349751
 20
91.2233055903
 30
0.0
 10
118.8008901664
 20
91.2492481063
 30
0.0
 10
119.1151878326
 20
91.363880406
 30
0.0
 10
119.4038855061
 20
91.5492238026
 30
0.0
 10
119.6558471137
 20
91.7974889366
 30
0.0
 10
119.8618972559
 20
92.0987853077
 30
0.0
 10
120.0146277967
 20
92.4415271934
 30
0.0
 10
120.1085005897
 20
92.8126006679
 30
0.0
 10
120.1295841903
 20
93.0694222075
 30
0.0
 10
120.1295841903
 20
93.1982911258
 30
0.0
  0
SPLINE
  5
28E
100
AcDbEntity
  8
0
100
AcDbSpline
 62
7
  6
BYLAYER
 70
0
 71
3
 72
15
 73
11
 74
0
 42
0.0000001
 43
0.0000001
 44
0.0000000001
 40
0.0
 40
0.0
 40
0.0
 40
0.0
 40
0.1140504469
 40
0.2298737058
 40
0.348904025
 40
0.4719967802
 40
0.5993431451
 40
0.7304941088
 40
0.8644981035
 40
1.0
 40
1.0
 40
1.0
 40
1.0
 10
118.4729674326
 20
86.3233057864
 30
0.0
 10
118.5814349751
 20
86.3233055903
 30
0.0
 10
118.8008901664
 20
86.3492481063
 30
0.0
 10
119.1151878326
 20
86.463880406
 30
0.0
 10
119.4038855061
 20
86.6492238026
 30
0.0
 10
119.6558471137
 20
86.8974889366
 30
0.0
 10
119.8618972559
 20
87.1987853077
 30
0.0
 10
120.0146277967
 20
87.5415271934
 30
0.0
 10
120.1085005897
 20
87.9126006679
 30
0.0
 10
120.1295841903
 20
88.1694222075
 30
0.0
 10
120.1295841903
 20
88.2982911258
 30
0.0
  0
SPLINE
  5
28F
100
AcDbEntity
  8
0
100
AcDbSpline
 62
7
  6
BYLAYER
 70
0
 71
3
 72
15
 73
11
 74
0
 42
0.0000001
 43
0.0000001
 44
0.0000000001
 40
0.0
 40
0.0
 40
0.0
 40
0.0
 40
0.1355005102
 40
0.2695016727
 40
0.4006514131
 40
0.5279971808
 40
0.6510910981
 40
0.7701234644
 40
0.8859485838
 40
1.0
 40
1.0
 40
1.0
 40
1.0
 10
120.1295841903
 20
93.1982911258
 30
0.0
 10
120.1295841903
 20
93.3271587543
 30
0.0
 10
120.1085017479
 20
93.5839764133
 30
0.0
 10
120.0146307803
 20
93.95504495
 30
0.0
 10
119.8619055522
 20
94.2977843657
 30
0.0
 10
119.6558577973
 20
94.5990817247
 30
0.0
 10
119.403896592
 20
94.8473509762
 30
0.0
 10
119.1151956659
 20
95.032698545
 30
0.0
 10
118.800893891
 20
95.1473338457
 30
0.0
 10
118.5814359279
 20
95.173276269
 30
0.0
 10
118.4729674393
 20
95.1732764651
 30
0.0
  0
SPLINE
  5
290
100
AcDbEntity
  8
0
100
AcDbSpline
 62
7
  6
BYLAYER
 70
0
 71
3
 72
15
 73
11
 74
0
 42
0.0000001
 43
0.0000001
 44
0.0000000001
 40
0.0
 40
0.0
 40
0.0
 40
0.0
 40
0.1140504469
 40
0.2298737058
 40
0.348904025
 40
0.4719967802
 40
0.5993431451
 40
0.7304941088
 40
0.8644981035
 40
1.0
 40
1.0
 40
1.0
 40
1.0
 10
118.4729674326
 20
101.1233057864
 30
0.0
 10
118.5814349751
 20
101.1233055903
 30
0.0
 10
118.8008901664
 20
101.1492481063
 30
0.0
 10
119.1151878326
 20
101.263880406
 30
0.0
 10
119.4038855062
 20
101.4492238026
 30
0.0
 10
119.6558471138
 20
101.6974889366
 30
0.0
 10
119.8618972559
 20
101.9987853077
 30
0.0
 10
120.0146277967
 20
102.3415271934
 30
0.0
 10
120.1085005897
 20
102.7126006679
 30
0.0
 10
120.1295841903
 20
102.9694222075
 30
0.0
 10
120.1295841903
 20
103.0982911258
 30
0.0
  0
SPLINE
  5
291
100
AcDbEntity
  8
0
100
AcDbSpline
 62
7
  6
BYLAYER
 70
0
 71
3
 72
15
 73
11
 74
0
 42
0.0000001
 43
0.0000001
 44
0.0000000001
 40
0.0
 40
0.0
 40
0.0
 40
0.0
 40
0.1355005102
 40
0.2695016727
 40
0.4006514131
 40
0.5279971808
 40
0.6510910981
 40
0.7701234644
 40
0.8859485838
 40
1.0
 40
1.0
 40
1.0
 40
1.0
 10
120.1295841903
 20
103.0982911258
 30
0.0
 10
120.1295841903
 20
103.2271587543
 30
0.0
 10
120.1085017479
 20
103.4839764133
 30
0.0
 10
120.0146307803
 20
103.85504495
 30
0.0
 10
119.8619055522
 20
104.1977843657
 30
0.0
 10
119.6558577973
 20
104.4990817247
 30
0.0
 10
119.403896592
 20
104.7473509762
 30
0.0
 10
119.1151956659
 20
104.932698545
 30
0.0
 10
118.800893891
 20
105.0473338457
 30
0.0
 10
118.5814359279
 20
105.073276269
 30
0.0
 10
118.4729674393
 20
105.0732764651
 30
0.0
  0
SPLINE
  5
292
100
AcDbEntity
  8
0
100
AcDbSpline
 62
7
  6
BYLAYER
 70
0
 71
3
 72
15
 73
11
 74
0
 42
0.0000001
 43
0.0000001
 44
0.0000000001
 40
0.0
 40
0.0
 40
0.0
 40
0.0
 40
0.1355005102
 40
0.2695016727
 40
0.4006514131
 40
0.5279971808
 40
0.6510910981
 40
0.7701234644
 40
0.8859485838
 40
1.0
 40
1.0
 40
1.0
 40
1.0
 10
120.1295841903
 20
88.2982911258
 30
0.0
 10
120.1295841903
 20
88.4271587543
 30
0.0
 10
120.1085017479
 20
88.6839764133
 30
0.0
 10
120.0146307803
 20
89.05504495
 30
0.0
 10
119.8619055522
 20
89.3977843657
 30
0.0
 10
119.6558577973
 20
89.6990817247
 30
0.0
 10
119.403896592
 20
89.9473509762
 30
0.0
 10
119.1151956659
 20
90.132698545
 30
0.0
 10
118.800893891
 20
90.2473338457
 30
0.0
 10
118.5814359279
 20
90.273276269
 30
0.0
 10
118.4729674393
 20
90.2732764651
 30
0.0
  0
SPLINE
  5
293
100
AcDbEntity
  8
0
100
AcDbSpline
 62
7
  6
BYLAYER
 70
0
 71
3
 72
15
 73
11
 74
0
 42
0.0000001
 43
0.0000001
 44
0.0000000001
 40
0.0
 40
0.0
 40
0.0
 40
0.0
 40
0.1355005102
 40
0.2695016727
 40
0.4006514131
 40
0.5279971808
 40
0.6510910981
 40
0.7701234644
 40
0.8859485838
 40
1.0
 40
1.0
 40
1.0
 40
1.0
 10
120.1295841903
 20
98.1982911258
 30
0.0
 10
120.1295841903
 20
98.3271587543
 30
0.0
 10
120.1085017479
 20
98.5839764133
 30
0.0
 10
120.0146307803
 20
98.95504495
 30
0.0
 10
119.8619055522
 20
99.2977843657
 30
0.0
 10
119.6558577973
 20
99.5990817247
 30
0.0
 10
119.403896592
 20
99.8473509762
 30
0.0
 10
119.1151956659
 20
100.032698545
 30
0.0
 10
118.800893891
 20
100.1473338457
 30
0.0
 10
118.5814359279
 20
100.173276269
 30
0.0
 10
118.4729674393
 20
100.1732764651
 30
0.0
  0
SPLINE
  5
294
100
AcDbEntity
  8
0
100
AcDbSpline
 62
7
  6
BYLAYER
 70
0
 71
3
 72
11
 73
7
 74
0
 42
0.0000001
 43
0.0000001
 44
0.0000000001
 40
0.0
 40
0.0
 40
0.0
 40
0.0
 40
0.2416271206
 40
0.4870136341
 40
0.7391987904
 40
1.0
 40
1.0
 40
1.0
 40
1.0
 10
17.7768337928
 20
86.2982911265
 30
0.0
 10
17.8866609897
 20
86.2982911265
 30
0.0
 10
18.1088651291
 20
86.3245602716
 30
0.0
 10
18.4271179269
 20
86.4406731169
 30
0.0
 10
18.7193642797
 20
86.6282886741
 30
0.0
 10
18.8867183513
 20
86.7932496086
 30
0.0
 10
18.9628930844
 20
86.8840775641
 30
0.0
  0
SPLINE
  5
295
100
AcDbEntity
  8
0
100
AcDbSpline
 62
7
  6
BYLAYER
 70
0
 71
3
 72
11
 73
7
 74
0
 42
0.0000001
 43
0.0000001
 44
0.0000000001
 40
0.0
 40
0.0
 40
0.0
 40
0.0
 40
0.2608012096
 40
0.5129863659
 40
0.7583728794
 40
1.0
 40
1.0
 40
1.0
 40
1.0
 10
18.9628930845
 20
89.7125046888
 30
0.0
 10
18.8867183514
 20
89.8033326443
 30
0.0
 10
18.7193642797
 20
89.9682935788
 30
0.0
 10
18.4271179269
 20
90.155909136
 30
0.0
 10
18.1088651291
 20
90.2720219813
 30
0.0
 10
17.8866609897
 20
90.2982911265
 30
0.0
 10
17.7768337928
 20
90.2982911265
 30
0.0
  0
SPLINE
  5
296
100
AcDbEntity
  8
0
100
AcDbSpline
 62
7
  6
BYLAYER
 70
0
 71
3
 72
23
 73
19
 74
0
 42
0.0000001
 43
0.0000001
 44
0.0000000001
 40
0.0
 40
0.0
 40
0.0
 40
0.0
 40
0.0570216355
 40
0.1149307393
 40
0.1744441611
 40
0.2359897768
 40
0.2996645478
 40
0.3652438907
 40
0.4322438168
 40
0.4999997926
 40
0.5677554937
 40
0.634754645
 40
0.7003331042
 40
0.7640074124
 40
0.8255532787
 40
0.8850673248
 40
0.9429775409
 40
1.0
 40
1.0
 40
1.0
 40
1.0
 10
17.7768337928
 20
85.6482911265
 30
0.0
 10
17.6313129203
 20
85.6482911265
 30
0.0
 10
17.3368867597
 20
85.6831016177
 30
0.0
 10
16.9152241048
 20
85.8369229399
 30
0.0
 10
16.5279099322
 20
86.0856205255
 30
0.0
 10
16.1898928679
 20
86.4187479656
 30
0.0
 10
15.91345444
 20
86.823029357
 30
0.0
 10
15.7085839762
 20
87.2828833168
 30
0.0
 10
15.5826366188
 20
87.7808808281
 30
0.0
 10
15.5401441637
 20
88.298288641
 30
0.0
 10
15.5826357228
 20
88.8156945108
 30
0.0
 10
15.7085805076
 20
89.3136875169
 30
0.0
 10
15.9134465843
 20
89.773537355
 30
0.0
 10
16.1898801982
 20
90.1778186035
 30
0.0
 10
16.5278954663
 20
90.5109492655
 30
0.0
 10
16.9152113519
 20
90.7596537896
 30
0.0
 10
17.3368797885
 20
90.9134789307
 30
0.0
 10
17.6313108185
 20
90.9482911265
 30
0.0
 10
17.7768337929
 20
90.9482911265
 30
0.0
  0
SPLINE
  5
297
100
AcDbEntity
  8
0
100
AcDbSpline
 62
7
  6
BYLAYER
 70
0
 71
3
 72
11
 73
7
 74
0
 42
0.0000001
 43
0.0000001
 44
0.0000000001
 40
0.0
 40
0.0
 40
0.0
 40
0.0
 40
0.2416271206
 40
0.4870136341
 40
0.7391987904
 40
1.0
 40
1.0
 40
1.0
 40
1.0
 10
17.7768337928
 20
101.0982911265
 30
0.0
 10
17.8866609897
 20
101.0982911265
 30
0.0
 10
18.1088651291
 20
101.1245602716
 30
0.0
 10
18.4271179269
 20
101.2406731169
 30
0.0
 10
18.7193642797
 20
101.4282886741
 30
0.0
 10
18.8867183513
 20
101.5932496086
 30
0.0
 10
18.9628930844
 20
101.6840775641
 30
0.0
  0
SPLINE
  5
298
100
AcDbEntity
  8
0
100
AcDbSpline
 62
7
  6
BYLAYER
 70
0
 71
3
 72
11
 73
7
 74
0
 42
0.0000001
 43
0.0000001
 44
0.0000000001
 40
0.0
 40
0.0
 40
0.0
 40
0.0
 40
0.2608012096
 40
0.5129863659
 40
0.7583728794
 40
1.0
 40
1.0
 40
1.0
 40
1.0
 10
18.9628930845
 20
104.5125046888
 30
0.0
 10
18.8867183514
 20
104.6033326443
 30
0.0
 10
18.7193642797
 20
104.7682935788
 30
0.0
 10
18.4271179269
 20
104.955909136
 30
0.0
 10
18.1088651291
 20
105.0720219813
 30
0.0
 10
17.8866609897
 20
105.0982911265
 30
0.0
 10
17.7768337928
 20
105.0982911265
 30
0.0
  0
SPLINE
  5
299
100
AcDbEntity
  8
0
100
AcDbSpline
 62
7
  6
BYLAYER
 70
0
 71
3
 72
23
 73
19
 74
0
 42
0.0000001
 43
0.0000001
 44
0.0000000001
 40
0.0
 40
0.0
 40
0.0
 40
0.0
 40
0.0570216355
 40
0.1149307393
 40
0.1744441611
 40
0.2359897768
 40
0.2996645478
 40
0.3652438907
 40
0.4322438168
 40
0.4999997926
 40
0.5677554937
 40
0.634754645
 40
0.7003331042
 40
0.7640074124
 40
0.8255532787
 40
0.8850673248
 40
0.9429775409
 40
1.0
 40
1.0
 40
1.0
 40
1.0
 10
17.7768337928
 20
100.4482911265
 30
0.0
 10
17.6313129203
 20
100.4482911265
 30
0.0
 10
17.3368867597
 20
100.4831016177
 30
0.0
 10
16.9152241048
 20
100.6369229399
 30
0.0
 10
16.5279099322
 20
100.8856205255
 30
0.0
 10
16.1898928679
 20
101.2187479656
 30
0.0
 10
15.91345444
 20
101.623029357
 30
0.0
 10
15.7085839762
 20
102.0828833168
 30
0.0
 10
15.5826366188
 20
102.5808808281
 30
0.0
 10
15.5401441637
 20
103.098288641
 30
0.0
 10
15.5826357228
 20
103.6156945108
 30
0.0
 10
15.7085805076
 20
104.1136875169
 30
0.0
 10
15.9134465843
 20
104.573537355
 30
0.0
 10
16.1898801982
 20
104.9778186035
 30
0.0
 10
16.5278954663
 20
105.3109492655
 30
0.0
 10
16.9152113519
 20
105.5596537896
 30
0.0
 10
17.3368797885
 20
105.7134789307
 30
0.0
 10
17.6313108185
 20
105.7482911265
 30
0.0
 10
17.7768337929
 20
105.7482911265
 30
0.0
  0
SPLINE
  5
29A
100
AcDbEntity
  8
0
100
AcDbSpline
 62
7
  6
BYLAYER
 70
0
 71
3
 72
11
 73
7
 74
0
 42
0.0000001
 43
0.0000001
 44
0.0000000001
 40
0.0
 40
0.0
 40
0.0
 40
0.0
 40
0.2416271206
 40
0.4870136341
 40
0.7391987904
 40
1.0
 40
1.0
 40
1.0
 40
1.0
 10
17.7768337928
 20
93.6982911265
 30
0.0
 10
17.8866609897
 20
93.6982911265
 30
0.0
 10
18.1088651291
 20
93.7245602716
 30
0.0
 10
18.4271179269
 20
93.8406731169
 30
0.0
 10
18.7193642797
 20
94.0282886741
 30
0.0
 10
18.8867183513
 20
94.1932496086
 30
0.0
 10
18.9628930844
 20
94.2840775641
 30
0.0
  0
SPLINE
  5
29B
100
AcDbEntity
  8
0
100
AcDbSpline
 62
7
  6
BYLAYER
 70
0
 71
3
 72
11
 73
7
 74
0
 42
0.0000001
 43
0.0000001
 44
0.0000000001
 40
0.0
 40
0.0
 40
0.0
 40
0.0
 40
0.2608012096
 40
0.5129863659
 40
0.7583728794
 40
1.0
 40
1.0
 40
1.0
 40
1.0
 10
18.9628930845
 20
97.1125046888
 30
0.0
 10
18.8867183514
 20
97.2033326443
 30
0.0
 10
18.7193642797
 20
97.3682935788
 30
0.0
 10
18.4271179269
 20
97.555909136
 30
0.0
 10
18.1088651291
 20
97.6720219813
 30
0.0
 10
17.8866609897
 20
97.6982911265
 30
0.0
 10
17.7768337928
 20
97.6982911265
 30
0.0
  0
SPLINE
  5
29C
100
AcDbEntity
  8
0
100
AcDbSpline
 62
7
  6
BYLAYER
 70
0
 71
3
 72
23
 73
19
 74
0
 42
0.0000001
 43
0.0000001
 44
0.0000000001
 40
0.0
 40
0.0
 40
0.0
 40
0.0
 40
0.0570216355
 40
0.1149307393
 40
0.1744441611
 40
0.2359897768
 40
0.2996645478
 40
0.3652438907
 40
0.4322438168
 40
0.4999997926
 40
0.5677554937
 40
0.634754645
 40
0.7003331042
 40
0.7640074124
 40
0.8255532787
 40
0.8850673248
 40
0.9429775409
 40
1.0
 40
1.0
 40
1.0
 40
1.0
 10
17.7768337928
 20
93.0482911265
 30
0.0
 10
17.6313129203
 20
93.0482911265
 30
0.0
 10
17.3368867597
 20
93.0831016177
 30
0.0
 10
16.9152241048
 20
93.2369229399
 30
0.0
 10
16.5279099322
 20
93.4856205255
 30
0.0
 10
16.1898928679
 20
93.8187479656
 30
0.0
 10
15.91345444
 20
94.223029357
 30
0.0
 10
15.7085839762
 20
94.6828833168
 30
0.0
 10
15.5826366188
 20
95.1808808281
 30
0.0
 10
15.5401441637
 20
95.698288641
 30
0.0
 10
15.5826357228
 20
96.2156945108
 30
0.0
 10
15.7085805076
 20
96.7136875169
 30
0.0
 10
15.9134465843
 20
97.173537355
 30
0.0
 10
16.1898801982
 20
97.5778186035
 30
0.0
 10
16.5278954663
 20
97.9109492655
 30
0.0
 10
16.9152113519
 20
98.1596537896
 30
0.0
 10
17.3368797885
 20
98.3134789307
 30
0.0
 10
17.6313108185
 20
98.3482911265
 30
0.0
 10
17.7768337929
 20
98.3482911265
 30
0.0
  0
SPLINE
  5
29D
100
AcDbEntity
  8
0
100
AcDbSpline
 62
7
  6
BYLAYER
 70
0
 71
3
 72
11
 73
7
 74
0
 42
0.0000001
 43
0.0000001
 44
0.0000000001
 40
0.0
 40
0.0
 40
0.0
 40
0.0
 40
0.2444339383
 40
0.491338776
 40
0.7426040175
 40
1.0
 40
1.0
 40
1.0
 40
1.0
 10
17.7768337929
 20
90.9482911265
 30
0.0
 10
17.8908275727
 20
90.9482911265
 30
0.0
 10
18.1205060944
 20
90.9270777482
 30
0.0
 10
18.4555964378
 20
90.8327154433
 30
0.0
 10
18.7741962729
 20
90.6782141141
 30
0.0
 10
18.968145537
 20
90.5394395546
 30
0.0
 10
19.0599113173
 20
90.4620551914
 30
0.0
  0
SPLINE
  5
29E
100
AcDbEntity
  8
0
100
AcDbSpline
 62
7
  6
BYLAYER
 70
0
 71
3
 72
9
 73
5
 74
0
 42
0.0000001
 43
0.0000001
 44
0.0000000001
 40
0.0
 40
0.0
 40
0.0
 40
0.0
 40
0.2493081945
 40
1.0
 40
1.0
 40
1.0
 40
1.0
 10
18.5937923454
 20
100.4482911265
 30
0.0
 10
18.6315647923
 20
100.4482911265
 30
0.0
 10
18.7830424727
 20
100.4529130701
 30
0.0
 10
18.9339235114
 20
100.4760656042
 30
0.0
 10
19.0443473372
 20
100.503316161
 30
0.0
  0
SPLINE
  5
29F
100
AcDbEntity
  8
0
100
AcDbSpline
 62
7
  6
BYLAYER
 70
0
 71
3
 72
11
 73
7
 74
0
 42
0.0000001
 43
0.0000001
 44
0.0000000001
 40
0.0
 40
0.0
 40
0.0
 40
0.0
 40
0.2573959825
 40
0.508661224
 40
0.7555660617
 40
1.0
 40
1.0
 40
1.0
 40
1.0
 10
19.0599113173
 20
86.1345270616
 30
0.0
 10
18.968145537
 20
86.0571426983
 30
0.0
 10
18.7741962728
 20
85.9183681388
 30
0.0
 10
18.4555964378
 20
85.7638668097
 30
0.0
 10
18.1205060943
 20
85.6695045047
 30
0.0
 10
17.8908275727
 20
85.6482911265
 30
0.0
 10
17.7768337928
 20
85.6482911265
 30
0.0
  0
SPLINE
  5
2A0
100
AcDbEntity
  8
0
100
AcDbSpline
 62
7
  6
BYLAYER
 70
0
 71
3
 72
23
 73
19
 74
0
 42
0.0000001
 43
0.0000001
 44
0.0000000001
 40
0.0
 40
0.0
 40
0.0
 40
0.0
 40
0.0570198733
 40
0.1149320912
 40
0.1744442872
 40
0.2359901127
 40
0.2996639125
 40
0.3652430808
 40
0.4322428281
 40
0.499998613
 40
0.5677541262
 40
0.6347531775
 40
0.7003317133
 40
0.7640055308
 40
0.8255522552
 40
0.8850655361
 40
0.9429793157
 40
1.0
 40
1.0
 40
1.0
 40
1.0
 10
17.7768337928
 20
105.0982911265
 30
0.0
 10
17.6670104162
 20
105.0982911265
 30
0.0
 10
17.4448016146
 20
105.0720127169
 30
0.0
 10
17.1265611427
 20
104.9559334741
 30
0.0
 10
16.8342543168
 20
104.7682219183
 30
0.0
 10
16.5791454699
 20
104.5168145934
 30
0.0
 10
16.3705193989
 20
104.211694683
 30
0.0
 10
16.2158998712
 20
103.8646396963
 30
0.0
 10
16.1208464069
 20
103.4887942379
 30
0.0
 10
16.0887753528
 20
103.0983001305
 30
0.0
 10
16.1208434964
 20
102.7078071622
 30
0.0
 10
16.2158929816
 20
102.3319639062
 30
0.0
 10
16.3705081622
 20
101.9849098532
 30
0.0
 10
16.5791305117
 20
101.6797867226
 30
0.0
 10
16.834239282
 20
101.4283738809
 30
0.0
 10
17.126549081
 20
101.2406540273
 30
0.0
 10
17.4447955792
 20
101.1245711638
 30
0.0
 10
17.6670088542
 20
101.0982911265
 30
0.0
 10
17.7768337928
 20
101.0982911265
 30
0.0
  0
SPLINE
  5
2A1
100
AcDbEntity
  8
0
100
AcDbSpline
 62
7
  6
BYLAYER
 70
0
 71
3
 72
11
 73
7
 74
0
 42
0.0000001
 43
0.0000001
 44
0.0000000001
 40
0.0
 40
0.0
 40
0.0
 40
0.0
 40
0.2444339383
 40
0.491338776
 40
0.7426040175
 40
1.0
 40
1.0
 40
1.0
 40
1.0
 10
17.7768337929
 20
105.7482911265
 30
0.0
 10
17.8908275727
 20
105.7482911265
 30
0.0
 10
18.1205060944
 20
105.7270777482
 30
0.0
 10
18.4555964378
 20
105.6327154433
 30
0.0
 10
18.7741962729
 20
105.4782141141
 30
0.0
 10
18.968145537
 20
105.3394395546
 30
0.0
 10
19.0599113173
 20
105.2620551914
 30
0.0
  0
SPLINE
  5
2A2
100
AcDbEntity
  8
0
100
AcDbSpline
 62
7
  6
BYLAYER
 70
0
 71
3
 72
11
 73
7
 74
0
 42
0.0000001
 43
0.0000001
 44
0.0000000001
 40
0.0
 40
0.0
 40
0.0
 40
0.0
 40
0.2573959825
 40
0.508661224
 40
0.7555660617
 40
1.0
 40
1.0
 40
1.0
 40
1.0
 10
19.0599113173
 20
100.9345270616
 30
0.0
 10
18.968145537
 20
100.8571426983
 30
0.0
 10
18.7741962728
 20
100.7183681388
 30
0.0
 10
18.4555964378
 20
100.5638668096
 30
0.0
 10
18.1205060943
 20
100.4695045047
 30
0.0
 10
17.8908275726
 20
100.4482911265
 30
0.0
 10
17.7768337928
 20
100.4482911265
 30
0.0
  0
SPLINE
  5
2A3
100
AcDbEntity
  8
0
100
AcDbSpline
 62
7
  6
BYLAYER
 70
0
 71
3
 72
9
 73
5
 74
0
 42
0.0000001
 43
0.0000001
 44
0.0000000001
 40
0.0
 40
0.0
 40
0.0
 40
0.0
 40
0.2493081945
 40
1.0
 40
1.0
 40
1.0
 40
1.0
 10
18.5937923454
 20
85.6482911265
 30
0.0
 10
18.6315647923
 20
85.6482911265
 30
0.0
 10
18.7830424727
 20
85.6529130701
 30
0.0
 10
18.9339235114
 20
85.6760656042
 30
0.0
 10
19.0443473372
 20
85.703316161
 30
0.0
  0
SPLINE
  5
2A4
100
AcDbEntity
  8
0
100
AcDbSpline
 62
7
  6
BYLAYER
 70
0
 71
3
 72
9
 73
5
 74
0
 42
0.0000001
 43
0.0000001
 44
0.0000000001
 40
0.0
 40
0.0
 40
0.0
 40
0.0
 40
0.2493081945
 40
1.0
 40
1.0
 40
1.0
 40
1.0
 10
18.5937923454
 20
93.0482911265
 30
0.0
 10
18.6315647923
 20
93.0482911265
 30
0.0
 10
18.7830424727
 20
93.0529130701
 30
0.0
 10
18.9339235114
 20
93.0760656042
 30
0.0
 10
19.0443473372
 20
93.103316161
 30
0.0
  0
SPLINE
  5
2A5
100
AcDbEntity
  8
0
100
AcDbSpline
 62
7
  6
BYLAYER
 70
0
 71
3
 72
23
 73
19
 74
0
 42
0.0000001
 43
0.0000001
 44
0.0000000001
 40
0.0
 40
0.0
 40
0.0
 40
0.0
 40
0.0570198733
 40
0.1149320912
 40
0.1744442872
 40
0.2359901127
 40
0.2996639125
 40
0.3652430808
 40
0.4322428281
 40
0.499998613
 40
0.5677541262
 40
0.6347531775
 40
0.7003317133
 40
0.7640055308
 40
0.8255522552
 40
0.8850655361
 40
0.9429793157
 40
1.0
 40
1.0
 40
1.0
 40
1.0
 10
17.7768337928
 20
97.6982911265
 30
0.0
 10
17.6670104162
 20
97.6982911265
 30
0.0
 10
17.4448016146
 20
97.6720127169
 30
0.0
 10
17.1265611427
 20
97.5559334741
 30
0.0
 10
16.8342543168
 20
97.3682219183
 30
0.0
 10
16.5791454699
 20
97.1168145934
 30
0.0
 10
16.3705193989
 20
96.811694683
 30
0.0
 10
16.2158998712
 20
96.4646396963
 30
0.0
 10
16.1208464069
 20
96.0887942379
 30
0.0
 10
16.0887753528
 20
95.6983001305
 30
0.0
 10
16.1208434964
 20
95.3078071622
 30
0.0
 10
16.2158929816
 20
94.9319639062
 30
0.0
 10
16.3705081622
 20
94.5849098532
 30
0.0
 10
16.5791305117
 20
94.2797867226
 30
0.0
 10
16.834239282
 20
94.0283738809
 30
0.0
 10
17.126549081
 20
93.8406540273
 30
0.0
 10
17.4447955792
 20
93.7245711638
 30
0.0
 10
17.6670088542
 20
93.6982911265
 30
0.0
 10
17.7768337928
 20
93.6982911265
 30
0.0
  0
SPLINE
  5
2A6
100
AcDbEntity
  8
0
100
AcDbSpline
 62
7
  6
BYLAYER
 70
0
 71
3
 72
23
 73
19
 74
0
 42
0.0000001
 43
0.0000001
 44
0.0000000001
 40
0.0
 40
0.0
 40
0.0
 40
0.0
 40
0.0570198733
 40
0.1149320912
 40
0.1744442872
 40
0.2359901127
 40
0.2996639125
 40
0.3652430808
 40
0.4322428281
 40
0.499998613
 40
0.5677541262
 40
0.6347531775
 40
0.7003317133
 40
0.7640055308
 40
0.8255522552
 40
0.8850655361
 40
0.9429793157
 40
1.0
 40
1.0
 40
1.0
 40
1.0
 10
17.7768337928
 20
90.2982911265
 30
0.0
 10
17.6670104162
 20
90.2982911265
 30
0.0
 10
17.4448016146
 20
90.2720127169
 30
0.0
 10
17.1265611427
 20
90.1559334741
 30
0.0
 10
16.8342543168
 20
89.9682219183
 30
0.0
 10
16.5791454699
 20
89.7168145934
 30
0.0
 10
16.3705193989
 20
89.411694683
 30
0.0
 10
16.2158998712
 20
89.0646396963
 30
0.0
 10
16.1208464069
 20
88.6887942379
 30
0.0
 10
16.0887753528
 20
88.2983001305
 30
0.0
 10
16.1208434964
 20
87.9078071622
 30
0.0
 10
16.2158929816
 20
87.5319639062
 30
0.0
 10
16.3705081622
 20
87.1849098532
 30
0.0
 10
16.5791305117
 20
86.8797867226
 30
0.0
 10
16.834239282
 20
86.6283738809
 30
0.0
 10
17.126549081
 20
86.4406540273
 30
0.0
 10
17.4447955792
 20
86.3245711638
 30
0.0
 10
17.6670088542
 20
86.2982911265
 30
0.0
 10
17.7768337928
 20
86.2982911265
 30
0.0
  0
SPLINE
  5
2A7
100
AcDbEntity
  8
0
100
AcDbSpline
 62
7
  6
BYLAYER
 70
0
 71
3
 72
11
 73
7
 74
0
 42
0.0000001
 43
0.0000001
 44
0.0000000001
 40
0.0
 40
0.0
 40
0.0
 40
0.0
 40
0.2444339383
 40
0.491338776
 40
0.7426040175
 40
1.0
 40
1.0
 40
1.0
 40
1.0
 10
17.7768337929
 20
98.3482911265
 30
0.0
 10
17.8908275727
 20
98.3482911265
 30
0.0
 10
18.1205060944
 20
98.3270777482
 30
0.0
 10
18.4555964378
 20
98.2327154433
 30
0.0
 10
18.7741962729
 20
98.0782141141
 30
0.0
 10
18.968145537
 20
97.9394395546
 30
0.0
 10
19.0599113173
 20
97.8620551914
 30
0.0
  0
SPLINE
  5
2A8
100
AcDbEntity
  8
0
100
AcDbSpline
 62
7
  6
BYLAYER
 70
0
 71
3
 72
11
 73
7
 74
0
 42
0.0000001
 43
0.0000001
 44
0.0000000001
 40
0.0
 40
0.0
 40
0.0
 40
0.0
 40
0.2573959825
 40
0.508661224
 40
0.7555660617
 40
1.0
 40
1.0
 40
1.0
 40
1.0
 10
19.0599113173
 20
93.5345270616
 30
0.0
 10
18.968145537
 20
93.4571426983
 30
0.0
 10
18.7741962728
 20
93.3183681388
 30
0.0
 10
18.4555964378
 20
93.1638668096
 30
0.0
 10
18.1205060943
 20
93.0695045047
 30
0.0
 10
17.8908275726
 20
93.0482911265
 30
0.0
 10
17.7768337928
 20
93.0482911265
 30
0.0
  0
ENDSEC
  0
SECTION
  2
OBJECTS
  0
DICTIONARY
  5
C
100
AcDbDictionary
280
0
281
1
  3
ACAD_GROUP
350
D
  3
ACAD_MLINESTYLE
350
17
  3
ACAD_LAYOUT
350
1A
  3
ACAD_PLOTSETTINGS
350
19
  3
ACAD_PLOTSTYLENAME
350
E
  0
DICTIONARY
  5
D
102
{ACAD_REACTORS
330
C
102
}
100
AcDbDictionary
280
0
281
1
  0
ACDBDICTIONARYWDFLT
  5
E
102
{ACAD_REACTORS
330
C
102
}
100
AcDbDictionary
281
1
  3
Normal
350
F
100
AcDbDictionaryWithDefault
340
F
  0
DICTIONARY
  5
17
102
{ACAD_REACTORS
330
C
102
}
100
AcDbDictionary
280
0
281
1
  3
Standard
350
18
  0
DICTIONARY
  5
19
102
{ACAD_REACTORS
330
C
102
}
100
AcDbDictionary
281
1
  0
DICTIONARY
  5
1A
102
{ACAD_REACTORS
330
C
102
}
100
AcDbDictionary
281
1
  3
Model
350
2A9
  3
Layout1
350
2AA
  0
ACDBPLACEHOLDER
  5
F
102
{ACAD_REACTORS
330
E
102
}
  0
MLINESTYLE
  5
18
102
{ACAD_REACTORS
330
17
102
}
100
AcDbMlineStyle
  2
STANDARD
 70
0
  3

 62
256
 51
90.0
 52
90.0
 71
2
 49
0.5
 62
256
  6
BYLAYER
 49
-0.5
 62
256
  6
BYLAYER
  0
LAYOUT
  5
2A9
102
{ACAD_REACTORS
330
1A
102
}
100
AcDbPlotSettings
  1

  2
none_device
  4

  6

 40
0.0
 41
0.0
 42
0.0
 43
0.0
 44
210.0
 45
297.0
 46
0.0
 47
0.0
 48
0.0
 49
0.0
140
0.0
141
0.0
142
1.0
143
1.0
 70
1024
 72
1
 73
0
 74
0
  7

 75
0
147
1.0
148
0.0
149
0.0
100
AcDbLayout
  1
Model
 70
0
 71
0
 10
0.0
 20
0.0
 11
210.0
 21
297.0
 12
0.0
 22
0.0
 32
0.0
 14
0.0
 24
0.0
 34
0.0
 15
0.0
 25
0.0
 35
0.0
146
0.0
 13
0.0
 23
0.0
 33
0.0
 16
1.0
 26
0.0
 36
0.0
 17
0.0
 27
1.0
 37
0.0
 76
0
330
210
345
0
346
0
  0
LAYOUT
  5
2AA
102
{ACAD_REACTORS
330
1A
102
}
100
AcDbPlotSettings
  1

  2
none_device
  4

  6

 40
0.0
 41
0.0
 42
0.0
 43
0.0
 44
210.0
 45
297.0
 46
0.0
 47
0.0
 48
0.0
 49
0.0
140
0.0
141
0.0
142
1.0
143
1.0
 70
0
 72
1
 73
0
 74
0
  7

 75
0
147
1.0
148
0.0
149
0.0
100
AcDbLayout
  1
Layout1
 70
0
 71
1
 10
0.0
 20
0.0
 11
210.0
 21
297.0
 12
0.0
 22
0.0
 32
0.0
 14
0.0
 24
0.0
 34
0.0
 15
0.0
 25
0.0
 35
0.0
146
0.0
 13
0.0
 23
0.0
 33
0.0
 16
1.0
 26
0.0
 36
0.0
 17
0.0
 27
1.0
 37
0.0
 76
0
330
211
345
0
346
0
  0
ENDSEC
  0
EOF
