999
DXF file: C:\Users\sesa63760\Dev\_Creo\CAD\MCADID0004815_3D-CAD\drw0001_2.dxf
999
Pro/ENGINEER 2019471 by Parametric Technology Corporation
  0
SECTION
  2
HEADER
  9
$ACADVER
  1
AC1024
  9
$DWGCODEPAGE
  3
ANSI_1252
  9
$EXTMAX
 10
37.7570049062
 20
53.399192653
 30
0.0
  9
$EXTMIN
 10
0.0
 20
0.0
 30
0.0
  9
$LIMMIN
 10
0.0
 20
0.0
  9
$LIMMAX
 10
37.7570049062
 20
53.399192653
  9
$VIEWCTR
 10
18.8785024531
 20
26.6995963265
  9
$VIEWSIZE
 40
53.399192653
  9
$CLAYER
  8
0
  9
$LTSCALE
 40
3.4808362618
  9
$CELTYPE
  6
BYLAYER
  9
$DIMSCALE
 40
1.0
  9
$DIMASZ
 40
0.4494881536
  9
$DIMEXO
 40
1.0
  9
$DIMDLI
 40
2.4049414173
  9
$DIMEXE
 40
1.0
  9
$DIMCEN
 40
0.5695913883
  9
$DIMLFAC
 40
1.0
  9
$DIMBLK
  1
_FILLED
  9
$DIMALT
 70
0
  9
$DIMALTF
 40
0.0393700787
  9
$DIMTXT
 40
0.6292834151
  9
$DIMTOL
 70
1
  9
$DIMLIM
 70
0
  9
$DIMTFAC
 40
1.0
  9
$DIMTP
 40
0.01
  9
$DIMTM
 40
0.01
  9
$DIMGAP
 40
0.625
  9
$DIMDSEP
 70
46
  9
$AUNITS
 70
0
  9
$PDMODE
 70
3
  9
$PDSIZE
 40
0.3125
  9
$HANDSEED
  5
238
  9
$TILEMODE
 70
1
  9
$MEASUREMENT
 70
1
  9
$INSUNITS
 70
4
  0
ENDSEC
  0
SECTION
  2
CLASSES
  0
CLASS
  1
ACDBDICTIONARYWDFLT
  2
AcDbDictionaryWithDefault
  3
AutoCAD 2000
 90
0
 91
1
280
0
281
0
  0
CLASS
  1
ACDBPLACEHOLDER
  2
AcDbPlaceHolder
  3
AutoCAD 2000
 90
0
 91
1
280
0
281
0
  0
CLASS
  1
LAYOUT
  2
AcDbLayout
  3
AutoCAD 2000
 90
0
 91
0
280
0
281
0
  0
ENDSEC
  0
SECTION
  2
TABLES
  0
TABLE
  2
VPORT
  5
8
100
AcDbSymbolTable
 70
2
  0
VPORT
  5
1F4
100
AcDbSymbolTableRecord
100
AcDbViewportTableRecord
  2
*ACTIVE
 70
0
 10
0.0
 20
0.0
 11
1.0
 21
1.0
 12
18.8785024531
 22
26.6995963265
 13
0.0
 23
0.0
 14
1.0
 24
1.0
 15
0.0
 25
0.0
 16
0.0
 26
0.0
 36
1.0
 17
0.0
 27
0.0
 37
0.0
 40
53.399192653
 41
0.7070707071
 42
50.0
 43
0.0
 44
0.0
 50
0.0
 51
0.0
 71
0
 72
100
 73
1
 74
1
 75
0
 76
0
 77
0
 78
0
  0
ENDTAB
  0
TABLE
  2
LTYPE
  5
5
100
AcDbSymbolTable
 70
6
  0
LTYPE
  5
14
100
AcDbSymbolTableRecord
100
AcDbLinetypeTableRecord
  2
BYBLOCK
 70
0
  3

 72
65
 73
0
 40
0.0
  0
LTYPE
  5
15
100
AcDbSymbolTableRecord
100
AcDbLinetypeTableRecord
  2
BYLAYER
 70
0
  3

 72
65
 73
0
 40
0.0
  0
LTYPE
  5
16
100
AcDbSymbolTableRecord
100
AcDbLinetypeTableRecord
  2
CONTINUOUS
 70
64
  3
Solid line
 72
65
 73
0
 40
0.0
  0
LTYPE
  5
1F5
100
AcDbSymbolTableRecord
100
AcDbLinetypeTableRecord
  2
CENTER
 70
64
  3
____ _ ____ _ ____ _ ____ _ ____ _ ____ _ ____
 72
65
 73
4
 40
0.6
 49
0.375
 74
0
 49
-0.075
 74
0
 49
0.075
 74
0
 49
-0.075
 74
0
  0
LTYPE
  5
1F6
100
AcDbSymbolTableRecord
100
AcDbLinetypeTableRecord
  2
HIDDEN
 70
64
  3
- - - - - - - - - - - - - - - - - - - -
 72
65
 73
2
 40
0.2
 49
0.1
 74
0
 49
-0.1
 74
0
  0
LTYPE
  5
1F7
100
AcDbSymbolTableRecord
100
AcDbLinetypeTableRecord
  2
PHANTOM
 70
64
  3
_____ _ _ _____ _ _ _____ _ _ _____
 72
65
 73
6
 40
0.8
 49
0.45
 74
0
 49
-0.05
 74
0
 49
0.1
 74
0
 49
-0.05
 74
0
 49
0.1
 74
0
 49
-0.05
 74
0
  0
LTYPE
  5
1F8
100
AcDbSymbolTableRecord
100
AcDbLinetypeTableRecord
  2
DOT
 70
64
  3
. . . . . . . . . . . . . . . . . . . .
 72
65
 73
2
 40
0.2
 49
0.1
 74
0
 49
-0.1
 74
0
  0
LTYPE
  5
1F9
100
AcDbSymbolTableRecord
100
AcDbLinetypeTableRecord
  2
DASHED
 70
64
  3
- - - - - - - - - - - - - - - - - - - -
 72
65
 73
2
 40
0.2
 49
0.1
 74
0
 49
-0.1
 74
0
  0
ENDTAB
  0
TABLE
  2
LAYER
  5
2
100
AcDbSymbolTable
 70
36
  0
LAYER
  5
10
100
AcDbSymbolTableRecord
100
AcDbLayerTableRecord
  2
0
 70
0
 62
7
  6
CONTINUOUS
370
-3
390
F
  0
LAYER
  5
1FA
100
AcDbSymbolTableRecord
100
AcDbLayerTableRecord
  2
DEFAULT_1
 70
0
 62
7
  6
CENTER
370
-3
390
F
  0
LAYER
  5
1FB
100
AcDbSymbolTableRecord
100
AcDbLayerTableRecord
  2
DEFAULT_2
 70
0
 62
7
  6
HIDDEN
370
-3
390
F
  0
LAYER
  5
1FC
100
AcDbSymbolTableRecord
100
AcDbLayerTableRecord
  2
DEFAULT_3
 70
0
 62
7
  6
PHANTOM
370
-3
390
F
  0
LAYER
  5
1FD
100
AcDbSymbolTableRecord
100
AcDbLayerTableRecord
  2
00_COMPONENTS
 70
0
 62
7
  6
CONTINUOUS
370
-3
390
F
  0
LAYER
  5
1FE
100
AcDbSymbolTableRecord
100
AcDbLayerTableRecord
  2
01_1_DEFAULT_DATUMS
 70
0
 62
7
  6
CONTINUOUS
370
-3
390
F
  0
LAYER
  5
1FF
100
AcDbSymbolTableRecord
100
AcDbLayerTableRecord
  2
01_PLANES
 70
0
 62
7
  6
CONTINUOUS
370
-3
390
F
  0
LAYER
  5
200
100
AcDbSymbolTableRecord
100
AcDbLayerTableRecord
  2
02_COORD_SYS
 70
0
 62
7
  6
CONTINUOUS
370
-3
390
F
  0
LAYER
  5
201
100
AcDbSymbolTableRecord
100
AcDbLayerTableRecord
  2
03_AXES
 70
0
 62
7
  6
CONTINUOUS
370
-3
390
F
  0
LAYER
  5
202
100
AcDbSymbolTableRecord
100
AcDbLayerTableRecord
  2
04_POINTS
 70
0
 62
7
  6
CONTINUOUS
370
-3
390
F
  0
LAYER
  5
203
100
AcDbSymbolTableRecord
100
AcDbLayerTableRecord
  2
05_CURVES
 70
0
 62
7
  6
CONTINUOUS
370
-3
390
F
  0
LAYER
  5
204
100
AcDbSymbolTableRecord
100
AcDbLayerTableRecord
  2
06_SURFS
 70
0
 62
7
  6
CONTINUOUS
370
-3
390
F
  0
LAYER
  5
205
100
AcDbSymbolTableRecord
100
AcDbLayerTableRecord
  2
07_COSMETICS
 70
0
 62
7
  6
CONTINUOUS
370
-3
390
F
  0
LAYER
  5
206
100
AcDbSymbolTableRecord
100
AcDbLayerTableRecord
  2
10_NOTES
 70
0
 62
7
  6
CONTINUOUS
370
-3
390
F
  0
LAYER
  5
207
100
AcDbSymbolTableRecord
100
AcDbLayerTableRecord
  2
11_NOTES_PUB
 70
0
 62
7
  6
CONTINUOUS
370
-3
390
F
  0
LAYER
  5
208
100
AcDbSymbolTableRecord
100
AcDbLayerTableRecord
  2
13_REF_GTOL
 70
0
 62
7
  6
CONTINUOUS
370
-3
390
F
  0
LAYER
  5
209
100
AcDbSymbolTableRecord
100
AcDbLayerTableRecord
  2
16_MISC
 70
0
 62
7
  6
CONTINUOUS
370
-3
390
F
  0
LAYER
  5
20A
100
AcDbSymbolTableRecord
100
AcDbLayerTableRecord
  2
17_NO_PRINT
 70
0
 62
7
  6
CONTINUOUS
370
-3
390
F
  0
LAYER
  5
20B
100
AcDbSymbolTableRecord
100
AcDbLayerTableRecord
  2
18_DATUM_CAMS_JOINTS
 70
0
 62
7
  6
CONTINUOUS
370
-3
390
F
  0
LAYER
  5
20C
100
AcDbSymbolTableRecord
100
AcDbLayerTableRecord
  2
19_DATUM_FUNCTIONAL
 70
0
 62
7
  6
CONTINUOUS
370
-3
390
F
  0
LAYER
  5
20D
100
AcDbSymbolTableRecord
100
AcDbLayerTableRecord
  2
20_DATUM_KINEMATIC_SCHEME
 70
0
 62
7
  6
CONTINUOUS
370
-3
390
F
  0
ENDTAB
  0
TABLE
  2
STYLE
  5
3
100
AcDbSymbolTable
 70
1
  0
STYLE
  5
11
100
AcDbSymbolTableRecord
100
AcDbTextStyleTableRecord
  2
STANDARD
 70
0
 40
0.0
 41
1.0
 50
0.0
 71
0
 42
0.2
  3
ARIAL.TTF
  4

  0
STYLE
  5
20E
100
AcDbSymbolTableRecord
100
AcDbTextStyleTableRecord
  2
TEXTSTYLE_1
 70
0
 40
0.0
 41
0.8
 50
0.0
 71
0
 42
0.2
  3
gdt
  4

  0
ENDTAB
  0
TABLE
  2
VIEW
  5
6
100
AcDbSymbolTable
 70
0
  0
ENDTAB
  0
TABLE
  2
UCS
  5
7
100
AcDbSymbolTable
 70
0
  0
ENDTAB
  0
TABLE
  2
APPID
  5
9
100
AcDbSymbolTable
 70
1
  0
APPID
  5
20F
100
AcDbSymbolTableRecord
100
AcDbRegAppTableRecord
  2
ACAD
 70
0
  0
ENDTAB
  0
TABLE
  2
BLOCK_RECORD
  5
1
100
AcDbSymbolTable
 70
0
  0
BLOCK_RECORD
  5
210
100
AcDbSymbolTableRecord
100
AcDbBlockTableRecord
  2
*Model_Space
  0
BLOCK_RECORD
  5
211
100
AcDbSymbolTableRecord
100
AcDbBlockTableRecord
  2
*Paper_Space
  0
BLOCK_RECORD
  5
212
100
AcDbSymbolTableRecord
100
AcDbBlockTableRecord
  2
_FILLED
  0
ENDTAB
  0
TABLE
  2
DIMSTYLE
  5
A
100
AcDbSymbolTable
 70
1
100
AcDbDimStyleTable
 71
0
  0
DIMSTYLE
105
213
100
AcDbSymbolTableRecord
100
AcDbDimStyleTableRecord
  2
STANDARD
 70
0
  3

  4

 40
1.0
 41
0.4494881536
 42
1.0
 43
0.38
 44
1.0
 45
0.0
 46
0.0
 47
0.01
 48
0.01
140
0.6292834151
141
0.09
142
0.0
143
25.4
144
1.0
145
0.0
146
1.0
147
0.625
 71
1
 72
0
 73
0
 74
0
 75
0
 76
0
 77
1
 78
8
 79
2
170
0
171
1
172
0
173
0
174
0
175
0
176
0
177
0
178
0
270
2
179
2
271
2
272
2
273
2
274
2
275
0
280
0
281
0
282
0
283
1
284
8
285
0
286
0
287
3
288
0
340
11
278
46
341
212
342
212
343
212
344
212
  0
ENDTAB
  0
ENDSEC
  0
SECTION
  2
BLOCKS
  0
BLOCK
  5
20
100
AcDbEntity
  8
0
100
AcDbBlockBegin
  2
*Model_Space
 70
0
 10
0.0
 20
0.0
 30
0.0
  3
*Model_Space
  1

  0
ENDBLK
  5
21
100
AcDbEntity
  8
0
100
AcDbBlockEnd
  0
BLOCK
  5
1C
100
AcDbEntity
  8
0
100
AcDbBlockBegin
  2
*Paper_Space
 70
0
 10
0.0
 20
0.0
 30
0.0
  3
*Paper_Space
  1

  0
ENDBLK
  5
1D
100
AcDbEntity
  8
0
100
AcDbBlockEnd
  0
BLOCK
  5
214
100
AcDbEntity
  8
0
100
AcDbBlockBegin
  2
_FILLED
 70
64
 10
0.0
 20
0.0
  3
_FILLED
  1

  0
SOLID
  5
215
100
AcDbEntity
  8
0
  6
BYBLOCK
 62
0
100
AcDbTrace
 10
0.0
 20
0.0
 11
-1.0
 21
0.25
 12
-1.0
 22
-0.25
 13
-1.0
 23
-0.25
  0
ENDBLK
  5
216
100
AcDbEntity
  8
0
  6
BYBLOCK
 62
0
100
AcDbBlockEnd
  0
ENDSEC
  0
SECTION
  2
ENTITIES
  0
LINE
  5
217
100
AcDbEntity
  8
0
100
AcDbLine
 62
7
  6
BYLAYER
 10
4.1400832173
 20
33.9015557717
 11
4.1400832173
 21
19.3015557717
  0
LINE
  5
218
100
AcDbEntity
  8
0
100
AcDbLine
 62
7
  6
BYLAYER
 10
4.5248208962
 20
18.986226794
 11
4.5248208962
 21
34.2168847494
  0
LINE
  5
219
100
AcDbEntity
  8
0
100
AcDbLine
 62
7
  6
BYLAYER
 10
33.4400832173
 20
18.6015557717
 11
4.8400832173
 21
18.6015557717
  0
LINE
  5
21A
100
AcDbEntity
  8
0
100
AcDbLine
 62
7
  6
BYLAYER
 10
33.508070539
 20
18.9015557717
 11
21.3103366588
 21
18.9015557717
  0
LINE
  5
21B
100
AcDbEntity
  8
0
100
AcDbLine
 62
7
  6
BYLAYER
 10
16.9698297759
 20
18.9015557717
 11
4.7720958956
 21
18.9015557717
  0
LINE
  5
21C
100
AcDbEntity
  8
0
100
AcDbLine
 62
7
  6
BYLAYER
 10
4.7720958956
 20
34.3015557717
 11
16.9698297759
 21
34.3015557717
  0
LINE
  5
21D
100
AcDbEntity
  8
0
100
AcDbLine
 62
7
  6
BYLAYER
 10
21.3103366588
 20
34.3015557717
 11
33.508070539
 21
34.3015557717
  0
LINE
  5
21E
100
AcDbEntity
  8
0
100
AcDbLine
 62
7
  6
BYLAYER
 10
4.8400832173
 20
34.6015557717
 11
33.4400832173
 21
34.6015557717
  0
LINE
  5
21F
100
AcDbEntity
  8
0
100
AcDbLine
 62
7
  6
BYLAYER
 10
33.7553455385
 20
18.986226794
 11
33.7553455385
 21
34.2168847494
  0
LINE
  5
220
100
AcDbEntity
  8
0
100
AcDbLine
 62
7
  6
BYLAYER
 10
34.1400832173
 20
19.3015557717
 11
34.1400832173
 21
33.9015557717
  0
CIRCLE
  5
221
100
AcDbEntity
  8
0
100
AcDbCircle
 62
7
  6
BYLAYER
 10
19.1400832173
 20
26.6015557717
 40
8.0
  0
ARC
  5
222
100
AcDbEntity
  8
0
100
AcDbCircle
 62
7
  6
BYLAYER
 10
4.8400832173
 20
19.3015557717
 40
0.7
100
AcDbArc
 50
180.0
 51
270.0
  0
ARC
  5
223
100
AcDbEntity
  8
0
100
AcDbCircle
 62
7
  6
BYLAYER
 10
4.8400832173
 20
33.9015557717
 40
0.7
100
AcDbArc
 50
90.0
 51
180.0000452778
  0
ARC
  5
224
100
AcDbEntity
  8
0
100
AcDbCircle
 62
7
  6
BYLAYER
 10
33.4400832173
 20
33.9015557717
 40
0.7
100
AcDbArc
 50
0.0
 51
90.0
  0
ARC
  5
225
100
AcDbEntity
  8
0
100
AcDbCircle
 62
7
  6
BYLAYER
 10
33.4400832173
 20
19.3015557717
 40
0.7
100
AcDbArc
 50
270.0
 51
0.0000168901
  0
ARC
  5
226
100
AcDbEntity
  8
0
100
AcDbCircle
 62
7
  6
BYLAYER
 10
4.7719964468
 20
19.3046743539
 40
0.4031185945
100
AcDbArc
 50
232.1817724412
 51
270.0141347986
  0
ARC
  5
227
100
AcDbEntity
  8
0
100
AcDbCircle
 62
7
  6
BYLAYER
 10
33.5081699879
 20
33.8984371894
 40
0.4031185946
100
AcDbArc
 50
52.1817724426
 51
90.0141347973
  0
SPLINE
  5
228
100
AcDbEntity
  8
0
100
AcDbSpline
 62
7
  6
BYLAYER
 70
0
 71
3
 72
17
 73
13
 74
0
 42
0.0000001
 43
0.0000001
 44
0.0000000001
 40
0.0
 40
0.0
 40
0.0
 40
0.0
 40
0.1864823618
 40
0.3702105134
 40
0.5418166302
 40
0.69225351
 40
0.8138584552
 40
0.9037644288
 40
0.9367824526
 40
0.9627500287
 40
0.9831022448
 40
1.0
 40
1.0
 40
1.0
 40
1.0
 10
4.5248208962
 20
18.986226794
 30
0.0
 10
4.5148283885
 20
18.9727050399
 30
0.0
 10
4.4954215893
 20
18.9455403632
 30
0.0
 10
4.4683970222
 20
18.9048300185
 30
0.0
 10
4.4448327447
 20
18.8657761349
 30
0.0
 10
4.425916345
 20
18.8304906826
 30
0.0
 10
4.4127486419
 20
18.8006160027
 30
0.0
 10
4.4059989924
 20
18.7795011249
 30
0.0
 10
4.4042032579
 20
18.766156342
 30
0.0
 10
4.4044447859
 20
18.7589616663
 30
0.0
 10
4.406046792
 20
18.7534003678
 30
0.0
 10
4.4081985771
 20
18.7506674174
 30
0.0
 10
4.4093995935
 20
18.7497300599
 30
0.0
  0
SPLINE
  5
229
100
AcDbEntity
  8
0
100
AcDbSpline
 62
7
  6
BYLAYER
 70
0
 71
3
 72
18
 73
14
 74
0
 42
0.0000001
 43
0.0000001
 44
0.0000000001
 40
0.0
 40
0.0
 40
0.0
 40
0.0
 40
0.1716656716
 40
0.3472655088
 40
0.5171604923
 40
0.6704049014
 40
0.7971902594
 40
0.8491472408
 40
0.8929946057
 40
0.9287497831
 40
0.9573753707
 40
0.9804076703
 40
1.0
 40
1.0
 40
1.0
 40
1.0
 10
4.7720965057
 20
18.9015557717
 30
0.0
 10
4.7720965319
 20
18.8833381554
 30
0.0
 10
4.7728627756
 20
18.8464813412
 30
0.0
 10
4.7763420483
 20
18.7916900201
 30
0.0
 10
4.7824340043
 20
18.7390850557
 30
0.0
 10
4.7907657334
 20
18.6920387308
 30
0.0
 10
4.7998986487
 20
18.6579261396
 30
0.0
 10
4.8083177161
 20
18.6358336625
 30
0.0
 10
4.8144056987
 20
18.6232426015
 30
0.0
 10
4.8206607662
 20
18.6135622653
 30
0.0
 10
4.8270135325
 20
18.6067138729
 30
0.0
 10
4.8334546838
 20
18.6025498114
 30
0.0
 10
4.8380050667
 20
18.6015557718
 30
0.0
 10
4.8400842566
 20
18.6015557717
 30
0.0
  0
SPLINE
  5
22A
100
AcDbEntity
  8
0
100
AcDbSpline
 62
7
  6
BYLAYER
 70
0
 71
3
 72
18
 73
14
 74
0
 42
0.0000001
 43
0.0000001
 44
0.0000000001
 40
0.0
 40
0.0
 40
0.0
 40
0.0
 40
0.1716661703
 40
0.3472663609
 40
0.517161487
 40
0.6704058281
 40
0.7971909497
 40
0.8491477824
 40
0.8929949974
 40
0.9287500384
 40
0.9573755133
 40
0.9804077288
 40
1.0
 40
1.0
 40
1.0
 40
1.0
 10
4.7720958956
 20
34.3015557717
 30
0.0
 10
4.7720958956
 20
34.3197734364
 30
0.0
 10
4.7728620902
 20
34.3566303331
 30
0.0
 10
4.7763412987
 20
34.4114217507
 30
0.0
 10
4.7824331987
 20
34.4640267545
 30
0.0
 10
4.7907648762
 20
34.5110730592
 30
0.0
 10
4.799897751
 20
34.5451856029
 30
0.0
 10
4.808316787
 20
34.567278025
 30
0.0
 10
4.8144047464
 20
34.5798690423
 30
0.0
 10
4.8206597913
 20
34.5895493394
 30
0.0
 10
4.8270125361
 20
34.5963977004
 30
0.0
 10
4.8334536673
 20
34.6005617394
 30
0.0
 10
4.8380040341
 20
34.6015557716
 30
0.0
 10
4.8400832173
 20
34.6015557717
 30
0.0
  0
SPLINE
  5
22B
100
AcDbEntity
  8
0
100
AcDbSpline
 62
7
  6
BYLAYER
 70
0
 71
3
 72
17
 73
13
 74
0
 42
0.0000001
 43
0.0000001
 44
0.0000000001
 40
0.0
 40
0.0
 40
0.0
 40
0.0
 40
0.1821964509
 40
0.3631089156
 40
0.5337721086
 40
0.6849489996
 40
0.8085368294
 40
0.9008029405
 40
0.9348586727
 40
0.9616716155
 40
0.9826477629
 40
1.0
 40
1.0
 40
1.0
 40
1.0
 10
4.5248208962
 20
34.2168847494
 30
0.0
 10
4.5150582194
 20
34.2300954988
 30
0.0
 10
4.4960130449
 20
34.2567304069
 30
0.0
 10
4.4693472483
 20
34.2968063908
 30
0.0
 10
4.4458443123
 20
34.3355776769
 30
0.0
 10
4.4267453461
 20
34.3709450451
 30
0.0
 10
4.4132583493
 20
34.4011780621
 30
0.0
 10
4.4062127011
 20
34.4227047815
 30
0.0
 10
4.4042326907
 20
34.4364101694
 30
0.0
 10
4.4043958469
 20
34.4438331398
 30
0.0
 10
4.4059705331
 20
34.4495852412
 30
0.0
 10
4.4081662958
 20
34.4524189311
 30
0.0
 10
4.4093995925
 20
34.4533814827
 30
0.0
  0
SPLINE
  5
22C
100
AcDbEntity
  8
0
100
AcDbSpline
 62
7
  6
BYLAYER
 70
0
 71
3
 72
15
 73
11
 74
0
 42
0.0000001
 43
0.0000001
 44
0.0000000001
 40
0.0
 40
0.0
 40
0.0
 40
0.0
 40
0.1674793956
 40
0.3252774801
 40
0.4699829066
 40
0.600426526
 40
0.7165714983
 40
0.819747958
 40
0.9127285578
 40
1.0
 40
1.0
 40
1.0
 40
1.0
 10
4.5248208962
 20
34.2168847494
 30
0.0
 10
4.4967643704
 20
34.208076292
 30
0.0
 10
4.4427806028
 20
34.189279211
 30
0.0
 10
4.3669421556
 20
34.1565231553
 30
0.0
 10
4.3000714812
 20
34.1201047918
 30
0.0
 10
4.2435788397
 20
34.0806955617
 30
0.0
 10
4.1984191827
 20
34.0387137619
 30
0.0
 10
4.1652336023
 20
33.994593653
 30
0.0
 10
4.1447936409
 20
33.9486811725
 30
0.0
 10
4.1400850902
 20
33.9168792709
 30
0.0
 10
4.1400832173
 20
33.9015557717
 30
0.0
  0
SPLINE
  5
22D
100
AcDbEntity
  8
0
100
AcDbSpline
 62
7
  6
BYLAYER
 70
0
 71
3
 72
15
 73
11
 74
0
 42
0.0000001
 43
0.0000001
 44
0.0000000001
 40
0.0
 40
0.0
 40
0.0
 40
0.0
 40
0.0872717663
 40
0.1802218051
 40
0.2833914389
 40
0.3995521119
 40
0.5300335993
 40
0.6747562714
 40
0.832532472
 40
1.0
 40
1.0
 40
1.0
 40
1.0
 10
4.1400832173
 20
19.3015557717
 30
0.0
 10
4.1400856572
 20
19.2862321786
 30
0.0
 10
4.1447857237
 20
19.254434498
 30
0.0
 10
4.1652260412
 20
19.2085281793
 30
0.0
 10
4.1984096425
 20
19.1644121238
 30
0.0
 10
4.243571264
 20
19.1224197731
 30
0.0
 10
4.3000775832
 20
19.0830076433
 30
0.0
 10
4.3669516871
 20
19.0465837809
 30
0.0
 10
4.4427862752
 20
19.0138249973
 30
0.0
 10
4.4967659248
 20
18.9950334833
 30
0.0
 10
4.5248208962
 20
18.986226794
 30
0.0
  0
SPLINE
  5
22E
100
AcDbEntity
  8
0
100
AcDbSpline
 62
7
  6
BYLAYER
 70
0
 71
3
 72
18
 73
14
 74
0
 42
0.0000001
 43
0.0000001
 44
0.0000000001
 40
0.0
 40
0.0
 40
0.0
 40
0.0
 40
0.1716661703
 40
0.3472663609
 40
0.517161487
 40
0.6704058281
 40
0.7971909497
 40
0.8491477824
 40
0.8929949974
 40
0.9287500384
 40
0.9573755133
 40
0.9804077288
 40
1.0
 40
1.0
 40
1.0
 40
1.0
 10
33.508070539
 20
18.9015557717
 30
0.0
 10
33.508070539
 20
18.883338107
 30
0.0
 10
33.5073043445
 20
18.8464812102
 30
0.0
 10
33.503825136
 20
18.7916897927
 30
0.0
 10
33.497733236
 20
18.7390847889
 30
0.0
 10
33.4894015585
 20
18.6920384841
 30
0.0
 10
33.4802686837
 20
18.6579259405
 30
0.0
 10
33.4718496476
 20
18.6358335183
 30
0.0
 10
33.4657616882
 20
18.623242501
 30
0.0
 10
33.4595066434
 20
18.613562204
 30
0.0
 10
33.4531538985
 20
18.6067138429
 30
0.0
 10
33.4467127673
 20
18.6025498039
 30
0.0
 10
33.4421624006
 20
18.6015557717
 30
0.0
 10
33.4400832173
 20
18.6015557717
 30
0.0
  0
SPLINE
  5
22F
100
AcDbEntity
  8
0
100
AcDbSpline
 62
7
  6
BYLAYER
 70
0
 71
3
 72
17
 73
13
 74
0
 42
0.0000001
 43
0.0000001
 44
0.0000000001
 40
0.0
 40
0.0
 40
0.0
 40
0.0
 40
0.1821964509
 40
0.3631089156
 40
0.5337721086
 40
0.6849489996
 40
0.8085368294
 40
0.9008029405
 40
0.9348586727
 40
0.9616716155
 40
0.9826477629
 40
1.0
 40
1.0
 40
1.0
 40
1.0
 10
33.7553455385
 20
18.986226794
 30
0.0
 10
33.7651082153
 20
18.9730160446
 30
0.0
 10
33.7841533898
 20
18.9463811365
 30
0.0
 10
33.8108191863
 20
18.9063051525
 30
0.0
 10
33.8343221223
 20
18.8675338664
 30
0.0
 10
33.8534210886
 20
18.8321664983
 30
0.0
 10
33.8669080853
 20
18.8019334813
 30
0.0
 10
33.8739537336
 20
18.7804067618
 30
0.0
 10
33.875933744
 20
18.766701374
 30
0.0
 10
33.8757705878
 20
18.7592784036
 30
0.0
 10
33.8741959016
 20
18.7535263022
 30
0.0
 10
33.8720001389
 20
18.7506926123
 30
0.0
 10
33.8707668421
 20
18.7497300607
 30
0.0
  0
SPLINE
  5
230
100
AcDbEntity
  8
0
100
AcDbSpline
 62
7
  6
BYLAYER
 70
0
 71
3
 72
9
 73
5
 74
0
 42
0.0000001
 43
0.0000001
 44
0.0000000001
 40
0.0
 40
0.0
 40
0.0
 40
0.0
 40
0.4995403653
 40
1.0
 40
1.0
 40
1.0
 40
1.0
 10
4.7720958956
 20
34.3015572245
 30
0.0
 10
4.7279859829
 20
34.3015562136
 30
0.0
 10
4.6391742289
 20
34.2864862536
 30
0.0
 10
4.5597199066
 20
34.2439940543
 30
0.0
 10
4.5248200438
 20
34.2168859084
 30
0.0
  0
SPLINE
  5
231
100
AcDbEntity
  8
0
100
AcDbSpline
 62
7
  6
BYLAYER
 70
0
 71
3
 72
15
 73
11
 74
0
 42
0.0000001
 43
0.0000001
 44
0.0000000001
 40
0.0
 40
0.0
 40
0.0
 40
0.0
 40
0.1674793644
 40
0.3252774649
 40
0.4699829497
 40
0.6004267751
 40
0.7165719648
 40
0.8197478193
 40
0.9127270744
 40
1.0
 40
1.0
 40
1.0
 40
1.0
 10
33.7553455385
 20
18.986226794
 30
0.0
 10
33.7834021503
 20
18.9950349585
 30
0.0
 10
33.8373860022
 20
19.0138318387
 30
0.0
 10
33.913224357
 20
19.0465881415
 30
0.0
 10
33.9800949385
 20
19.0830067768
 30
0.0
 10
34.0365875017
 20
19.1224162673
 30
0.0
 10
34.0817470437
 20
19.1643981203
 30
0.0
 10
34.114932695
 20
19.2085177492
 30
0.0
 10
34.1353729939
 20
19.2544300409
 30
0.0
 10
34.1400812798
 20
19.2862320121
 30
0.0
 10
34.1400832173
 20
19.3015557717
 30
0.0
  0
SPLINE
  5
232
100
AcDbEntity
  8
0
100
AcDbSpline
 62
7
  6
BYLAYER
 70
0
 71
3
 72
15
 73
11
 74
0
 42
0.0000001
 43
0.0000001
 44
0.0000000001
 40
0.0
 40
0.0
 40
0.0
 40
0.0
 40
0.0872731381
 40
0.1802219166
 40
0.283391006
 40
0.3995518708
 40
0.5300335459
 40
0.6747562797
 40
0.8325325027
 40
1.0
 40
1.0
 40
1.0
 40
1.0
 10
34.1400832173
 20
33.9015557717
 30
0.0
 10
34.1400807159
 20
33.9168796055
 30
0.0
 10
34.135380901
 20
33.9486773481
 30
0.0
 10
34.1149402688
 20
33.9945834914
 30
0.0
 10
34.0817566026
 20
34.0386991017
 30
0.0
 10
34.0365950726
 20
34.0806914864
 30
0.0
 10
33.9800888309
 20
34.1201038605
 30
0.0
 10
33.9132148227
 20
34.1565279957
 30
0.0
 10
33.8373803341
 20
34.1892870466
 30
0.0
 10
33.7834005993
 20
34.2080783633
 30
0.0
 10
33.7553455385
 20
34.2168847494
 30
0.0
  0
SPLINE
  5
233
100
AcDbEntity
  8
0
100
AcDbSpline
 62
7
  6
BYLAYER
 70
0
 71
3
 72
9
 73
5
 74
0
 42
0.0000001
 43
0.0000001
 44
0.0000000001
 40
0.0
 40
0.0
 40
0.0
 40
0.0
 40
0.4995403653
 40
1.0
 40
1.0
 40
1.0
 40
1.0
 10
33.5080705391
 20
18.9015543188
 30
0.0
 10
33.5521804517
 20
18.9015553298
 30
0.0
 10
33.6409922058
 20
18.9166252898
 30
0.0
 10
33.720446528
 20
18.959117489
 30
0.0
 10
33.7553463909
 20
18.9862256349
 30
0.0
  0
SPLINE
  5
234
100
AcDbEntity
  8
0
100
AcDbSpline
 62
7
  6
BYLAYER
 70
0
 71
3
 72
17
 73
13
 74
0
 42
0.0000001
 43
0.0000001
 44
0.0000000001
 40
0.0
 40
0.0
 40
0.0
 40
0.0
 40
0.1864823607
 40
0.3702105114
 40
0.5418166276
 40
0.6922535071
 40
0.8138584528
 40
0.9037644271
 40
0.9367824515
 40
0.9627500281
 40
0.9831022446
 40
1.0
 40
1.0
 40
1.0
 40
1.0
 10
33.7553455385
 20
34.2168847494
 30
0.0
 10
33.7653380461
 20
34.2304065034
 30
0.0
 10
33.7847448451
 20
34.2575711798
 30
0.0
 10
33.8117694121
 20
34.2982815243
 30
0.0
 10
33.8353336895
 20
34.3373354076
 30
0.0
 10
33.8542500892
 20
34.3726208598
 30
0.0
 10
33.8674177924
 20
34.4024955396
 30
0.0
 10
33.874167442
 20
34.4236104175
 30
0.0
 10
33.8759631767
 20
34.4369552005
 30
0.0
 10
33.8757216489
 20
34.4441498763
 30
0.0
 10
33.8741196429
 20
34.449711175
 30
0.0
 10
33.8719678579
 20
34.4524441256
 30
0.0
 10
33.8707668416
 20
34.4533814831
 30
0.0
  0
SPLINE
  5
235
100
AcDbEntity
  8
0
100
AcDbSpline
 62
7
  6
BYLAYER
 70
0
 71
3
 72
18
 73
14
 74
0
 42
0.0000001
 43
0.0000001
 44
0.0000000001
 40
0.0
 40
0.0
 40
0.0
 40
0.0
 40
0.1716656716
 40
0.3472655088
 40
0.5171604923
 40
0.6704049014
 40
0.7971902594
 40
0.8491472408
 40
0.8929946057
 40
0.9287497831
 40
0.9573753707
 40
0.9804076703
 40
1.0
 40
1.0
 40
1.0
 40
1.0
 10
33.5080699289
 20
34.3015557717
 30
0.0
 10
33.5080699027
 20
34.3197733879
 30
0.0
 10
33.5073036591
 20
34.3566302022
 30
0.0
 10
33.5038243863
 20
34.4114215232
 30
0.0
 10
33.4977324303
 20
34.4640264877
 30
0.0
 10
33.4894007012
 20
34.5110728125
 30
0.0
 10
33.480267786
 20
34.5451854037
 30
0.0
 10
33.4718487186
 20
34.5672778808
 30
0.0
 10
33.465760736
 20
34.5798689419
 30
0.0
 10
33.4595056685
 20
34.589549278
 30
0.0
 10
33.4531529021
 20
34.5963976704
 30
0.0
 10
33.4467117508
 20
34.600561732
 30
0.0
 10
33.442161368
 20
34.6015557716
 30
0.0
 10
33.440082178
 20
34.6015557717
 30
0.0
  0
ENDSEC
  0
SECTION
  2
OBJECTS
  0
DICTIONARY
  5
C
100
AcDbDictionary
280
0
281
1
  3
ACAD_GROUP
350
D
  3
ACAD_MLINESTYLE
350
17
  3
ACAD_LAYOUT
350
1A
  3
ACAD_PLOTSETTINGS
350
19
  3
ACAD_PLOTSTYLENAME
350
E
  0
DICTIONARY
  5
D
102
{ACAD_REACTORS
330
C
102
}
100
AcDbDictionary
280
0
281
1
  0
ACDBDICTIONARYWDFLT
  5
E
102
{ACAD_REACTORS
330
C
102
}
100
AcDbDictionary
281
1
  3
Normal
350
F
100
AcDbDictionaryWithDefault
340
F
  0
DICTIONARY
  5
17
102
{ACAD_REACTORS
330
C
102
}
100
AcDbDictionary
280
0
281
1
  3
Standard
350
18
  0
DICTIONARY
  5
19
102
{ACAD_REACTORS
330
C
102
}
100
AcDbDictionary
281
1
  0
DICTIONARY
  5
1A
102
{ACAD_REACTORS
330
C
102
}
100
AcDbDictionary
281
1
  3
Model
350
236
  3
Layout1
350
237
  0
ACDBPLACEHOLDER
  5
F
102
{ACAD_REACTORS
330
E
102
}
  0
MLINESTYLE
  5
18
102
{ACAD_REACTORS
330
17
102
}
100
AcDbMlineStyle
  2
STANDARD
 70
0
  3

 62
256
 51
90.0
 52
90.0
 71
2
 49
0.5
 62
256
  6
BYLAYER
 49
-0.5
 62
256
  6
BYLAYER
  0
LAYOUT
  5
236
102
{ACAD_REACTORS
330
1A
102
}
100
AcDbPlotSettings
  1

  2
none_device
  4

  6

 40
0.0
 41
0.0
 42
0.0
 43
0.0
 44
210.0
 45
297.0
 46
0.0
 47
0.0
 48
0.0
 49
0.0
140
0.0
141
0.0
142
1.0
143
1.0
 70
1024
 72
1
 73
0
 74
0
  7

 75
0
147
1.0
148
0.0
149
0.0
100
AcDbLayout
  1
Model
 70
0
 71
0
 10
0.0
 20
0.0
 11
210.0
 21
297.0
 12
0.0
 22
0.0
 32
0.0
 14
0.0
 24
0.0
 34
0.0
 15
0.0
 25
0.0
 35
0.0
146
0.0
 13
0.0
 23
0.0
 33
0.0
 16
1.0
 26
0.0
 36
0.0
 17
0.0
 27
1.0
 37
0.0
 76
0
330
210
345
0
346
0
  0
LAYOUT
  5
237
102
{ACAD_REACTORS
330
1A
102
}
100
AcDbPlotSettings
  1

  2
none_device
  4

  6

 40
0.0
 41
0.0
 42
0.0
 43
0.0
 44
210.0
 45
297.0
 46
0.0
 47
0.0
 48
0.0
 49
0.0
140
0.0
141
0.0
142
1.0
143
1.0
 70
0
 72
1
 73
0
 74
0
  7

 75
0
147
1.0
148
0.0
149
0.0
100
AcDbLayout
  1
Layout1
 70
0
 71
1
 10
0.0
 20
0.0
 11
210.0
 21
297.0
 12
0.0
 22
0.0
 32
0.0
 14
0.0
 24
0.0
 34
0.0
 15
0.0
 25
0.0
 35
0.0
146
0.0
 13
0.0
 23
0.0
 33
0.0
 16
1.0
 26
0.0
 36
0.0
 17
0.0
 27
1.0
 37
0.0
 76
0
330
211
345
0
346
0
  0
ENDSEC
  0
EOF
