999
DXF file: C:\Users\sesa63760\Dev\_Creo\CAD\MCADID0005537_3D-CAD\drw0001_7.dxf
999
Pro/ENGINEER 2019471 by Parametric Technology Corporation
  0
SECTION
  2
HEADER
  9
$ACADVER
  1
AC1024
  9
$DWGCODEPAGE
  3
ANSI_1252
  9
$EXTMAX
 10
38.2768001378
 20
54.1343316235
 30
0.0
  9
$EXTMIN
 10
0.0
 20
0.0
 30
0.0
  9
$LIMMIN
 10
0.0
 20
0.0
  9
$LIMMAX
 10
38.2768001378
 20
54.1343316235
  9
$VIEWCTR
 10
19.1384000689
 20
27.0671658117
  9
$VIEWSIZE
 40
54.1343316235
  9
$CLAYER
  8
0
  9
$LTSCALE
 40
3.5287564318
  9
$CELTYPE
  6
BYLAYER
  9
$DIMSCALE
 40
1.0
  9
$DIMASZ
 40
0.4556761921
  9
$DIMEXO
 40
1.0
  9
$DIMDLI
 40
2.4380498983
  9
$DIMEXE
 40
1.0
  9
$DIMCEN
 40
0.5774328707
  9
$DIMLFAC
 40
1.0
  9
$DIMBLK
  1
_FILLED
  9
$DIMALT
 70
0
  9
$DIMALTF
 40
0.0393700787
  9
$DIMTXT
 40
0.637946669
  9
$DIMTOL
 70
1
  9
$DIMLIM
 70
0
  9
$DIMTFAC
 40
1.0
  9
$DIMTP
 40
0.01
  9
$DIMTM
 40
0.01
  9
$DIMGAP
 40
0.625
  9
$DIMDSEP
 70
46
  9
$AUNITS
 70
0
  9
$PDMODE
 70
3
  9
$PDSIZE
 40
0.3125
  9
$HANDSEED
  5
2FC
  9
$TILEMODE
 70
1
  9
$MEASUREMENT
 70
1
  9
$INSUNITS
 70
4
  0
ENDSEC
  0
SECTION
  2
CLASSES
  0
CLASS
  1
ACDBDICTIONARYWDFLT
  2
AcDbDictionaryWithDefault
  3
AutoCAD 2000
 90
0
 91
1
280
0
281
0
  0
CLASS
  1
ACDBPLACEHOLDER
  2
AcDbPlaceHolder
  3
AutoCAD 2000
 90
0
 91
1
280
0
281
0
  0
CLASS
  1
LAYOUT
  2
AcDbLayout
  3
AutoCAD 2000
 90
0
 91
0
280
0
281
0
  0
ENDSEC
  0
SECTION
  2
TABLES
  0
TABLE
  2
VPORT
  5
8
100
AcDbSymbolTable
 70
2
  0
VPORT
  5
1F4
100
AcDbSymbolTableRecord
100
AcDbViewportTableRecord
  2
*ACTIVE
 70
0
 10
0.0
 20
0.0
 11
1.0
 21
1.0
 12
19.1384000689
 22
27.0671658117
 13
0.0
 23
0.0
 14
1.0
 24
1.0
 15
0.0
 25
0.0
 16
0.0
 26
0.0
 36
1.0
 17
0.0
 27
0.0
 37
0.0
 40
54.1343316235
 41
0.7070707071
 42
50.0
 43
0.0
 44
0.0
 50
0.0
 51
0.0
 71
0
 72
100
 73
1
 74
1
 75
0
 76
0
 77
0
 78
0
  0
ENDTAB
  0
TABLE
  2
LTYPE
  5
5
100
AcDbSymbolTable
 70
6
  0
LTYPE
  5
14
100
AcDbSymbolTableRecord
100
AcDbLinetypeTableRecord
  2
BYBLOCK
 70
0
  3

 72
65
 73
0
 40
0.0
  0
LTYPE
  5
15
100
AcDbSymbolTableRecord
100
AcDbLinetypeTableRecord
  2
BYLAYER
 70
0
  3

 72
65
 73
0
 40
0.0
  0
LTYPE
  5
16
100
AcDbSymbolTableRecord
100
AcDbLinetypeTableRecord
  2
CONTINUOUS
 70
64
  3
Solid line
 72
65
 73
0
 40
0.0
  0
LTYPE
  5
1F5
100
AcDbSymbolTableRecord
100
AcDbLinetypeTableRecord
  2
CENTER
 70
64
  3
____ _ ____ _ ____ _ ____ _ ____ _ ____ _ ____
 72
65
 73
4
 40
0.6
 49
0.375
 74
0
 49
-0.075
 74
0
 49
0.075
 74
0
 49
-0.075
 74
0
  0
LTYPE
  5
1F6
100
AcDbSymbolTableRecord
100
AcDbLinetypeTableRecord
  2
HIDDEN
 70
64
  3
- - - - - - - - - - - - - - - - - - - -
 72
65
 73
2
 40
0.2
 49
0.1
 74
0
 49
-0.1
 74
0
  0
LTYPE
  5
1F7
100
AcDbSymbolTableRecord
100
AcDbLinetypeTableRecord
  2
PHANTOM
 70
64
  3
_____ _ _ _____ _ _ _____ _ _ _____
 72
65
 73
6
 40
0.8
 49
0.45
 74
0
 49
-0.05
 74
0
 49
0.1
 74
0
 49
-0.05
 74
0
 49
0.1
 74
0
 49
-0.05
 74
0
  0
LTYPE
  5
1F8
100
AcDbSymbolTableRecord
100
AcDbLinetypeTableRecord
  2
DOT
 70
64
  3
. . . . . . . . . . . . . . . . . . . .
 72
65
 73
2
 40
0.2
 49
0.1
 74
0
 49
-0.1
 74
0
  0
LTYPE
  5
1F9
100
AcDbSymbolTableRecord
100
AcDbLinetypeTableRecord
  2
DASHED
 70
64
  3
- - - - - - - - - - - - - - - - - - - -
 72
65
 73
2
 40
0.2
 49
0.1
 74
0
 49
-0.1
 74
0
  0
ENDTAB
  0
TABLE
  2
LAYER
  5
2
100
AcDbSymbolTable
 70
36
  0
LAYER
  5
10
100
AcDbSymbolTableRecord
100
AcDbLayerTableRecord
  2
0
 70
0
 62
7
  6
CONTINUOUS
370
-3
390
F
  0
LAYER
  5
1FA
100
AcDbSymbolTableRecord
100
AcDbLayerTableRecord
  2
DEFAULT_1
 70
0
 62
7
  6
CENTER
370
-3
390
F
  0
LAYER
  5
1FB
100
AcDbSymbolTableRecord
100
AcDbLayerTableRecord
  2
DEFAULT_2
 70
0
 62
7
  6
HIDDEN
370
-3
390
F
  0
LAYER
  5
1FC
100
AcDbSymbolTableRecord
100
AcDbLayerTableRecord
  2
DEFAULT_3
 70
0
 62
7
  6
PHANTOM
370
-3
390
F
  0
LAYER
  5
1FD
100
AcDbSymbolTableRecord
100
AcDbLayerTableRecord
  2
00_COMPONENTS
 70
0
 62
7
  6
CONTINUOUS
370
-3
390
F
  0
LAYER
  5
1FE
100
AcDbSymbolTableRecord
100
AcDbLayerTableRecord
  2
01_1_DEFAULT_DATUMS
 70
0
 62
7
  6
CONTINUOUS
370
-3
390
F
  0
LAYER
  5
1FF
100
AcDbSymbolTableRecord
100
AcDbLayerTableRecord
  2
01_PLANES
 70
0
 62
7
  6
CONTINUOUS
370
-3
390
F
  0
LAYER
  5
200
100
AcDbSymbolTableRecord
100
AcDbLayerTableRecord
  2
02_COORD_SYS
 70
0
 62
7
  6
CONTINUOUS
370
-3
390
F
  0
LAYER
  5
201
100
AcDbSymbolTableRecord
100
AcDbLayerTableRecord
  2
03_AXES
 70
0
 62
7
  6
CONTINUOUS
370
-3
390
F
  0
LAYER
  5
202
100
AcDbSymbolTableRecord
100
AcDbLayerTableRecord
  2
04_POINTS
 70
0
 62
7
  6
CONTINUOUS
370
-3
390
F
  0
LAYER
  5
203
100
AcDbSymbolTableRecord
100
AcDbLayerTableRecord
  2
05_CURVES
 70
0
 62
7
  6
CONTINUOUS
370
-3
390
F
  0
LAYER
  5
204
100
AcDbSymbolTableRecord
100
AcDbLayerTableRecord
  2
06_SURFS
 70
0
 62
7
  6
CONTINUOUS
370
-3
390
F
  0
LAYER
  5
205
100
AcDbSymbolTableRecord
100
AcDbLayerTableRecord
  2
07_COSMETICS
 70
0
 62
7
  6
CONTINUOUS
370
-3
390
F
  0
LAYER
  5
206
100
AcDbSymbolTableRecord
100
AcDbLayerTableRecord
  2
10_NOTES
 70
0
 62
7
  6
CONTINUOUS
370
-3
390
F
  0
LAYER
  5
207
100
AcDbSymbolTableRecord
100
AcDbLayerTableRecord
  2
11_NOTES_PUB
 70
0
 62
7
  6
CONTINUOUS
370
-3
390
F
  0
LAYER
  5
208
100
AcDbSymbolTableRecord
100
AcDbLayerTableRecord
  2
13_REF_GTOL
 70
0
 62
7
  6
CONTINUOUS
370
-3
390
F
  0
LAYER
  5
209
100
AcDbSymbolTableRecord
100
AcDbLayerTableRecord
  2
16_MISC
 70
0
 62
7
  6
CONTINUOUS
370
-3
390
F
  0
LAYER
  5
20A
100
AcDbSymbolTableRecord
100
AcDbLayerTableRecord
  2
17_NO_PRINT
 70
0
 62
7
  6
CONTINUOUS
370
-3
390
F
  0
LAYER
  5
20B
100
AcDbSymbolTableRecord
100
AcDbLayerTableRecord
  2
18_DATUM_CAMS_JOINTS
 70
0
 62
7
  6
CONTINUOUS
370
-3
390
F
  0
LAYER
  5
20C
100
AcDbSymbolTableRecord
100
AcDbLayerTableRecord
  2
19_DATUM_FUNCTIONAL
 70
0
 62
7
  6
CONTINUOUS
370
-3
390
F
  0
LAYER
  5
20D
100
AcDbSymbolTableRecord
100
AcDbLayerTableRecord
  2
20_DATUM_KINEMATIC_SCHEME
 70
0
 62
7
  6
CONTINUOUS
370
-3
390
F
  0
ENDTAB
  0
TABLE
  2
STYLE
  5
3
100
AcDbSymbolTable
 70
1
  0
STYLE
  5
11
100
AcDbSymbolTableRecord
100
AcDbTextStyleTableRecord
  2
STANDARD
 70
0
 40
0.0
 41
1.0
 50
0.0
 71
0
 42
0.2
  3
ARIAL.TTF
  4

  0
STYLE
  5
20E
100
AcDbSymbolTableRecord
100
AcDbTextStyleTableRecord
  2
TEXTSTYLE_1
 70
0
 40
0.0
 41
0.8
 50
0.0
 71
0
 42
0.2
  3
gdt
  4

  0
ENDTAB
  0
TABLE
  2
VIEW
  5
6
100
AcDbSymbolTable
 70
0
  0
ENDTAB
  0
TABLE
  2
UCS
  5
7
100
AcDbSymbolTable
 70
0
  0
ENDTAB
  0
TABLE
  2
APPID
  5
9
100
AcDbSymbolTable
 70
1
  0
APPID
  5
20F
100
AcDbSymbolTableRecord
100
AcDbRegAppTableRecord
  2
ACAD
 70
0
  0
ENDTAB
  0
TABLE
  2
BLOCK_RECORD
  5
1
100
AcDbSymbolTable
 70
0
  0
BLOCK_RECORD
  5
210
100
AcDbSymbolTableRecord
100
AcDbBlockTableRecord
  2
*Model_Space
  0
BLOCK_RECORD
  5
211
100
AcDbSymbolTableRecord
100
AcDbBlockTableRecord
  2
*Paper_Space
  0
BLOCK_RECORD
  5
212
100
AcDbSymbolTableRecord
100
AcDbBlockTableRecord
  2
_FILLED
  0
ENDTAB
  0
TABLE
  2
DIMSTYLE
  5
A
100
AcDbSymbolTable
 70
1
100
AcDbDimStyleTable
 71
0
  0
DIMSTYLE
105
213
100
AcDbSymbolTableRecord
100
AcDbDimStyleTableRecord
  2
STANDARD
 70
0
  3

  4

 40
1.0
 41
0.4556761921
 42
1.0
 43
0.38
 44
1.0
 45
0.0
 46
0.0
 47
0.01
 48
0.01
140
0.637946669
141
0.09
142
0.0
143
25.4
144
1.0
145
0.0
146
1.0
147
0.625
 71
1
 72
0
 73
0
 74
0
 75
0
 76
0
 77
1
 78
8
 79
2
170
0
171
1
172
0
173
0
174
0
175
0
176
0
177
0
178
0
270
2
179
2
271
2
272
2
273
2
274
2
275
0
280
0
281
0
282
0
283
1
284
8
285
0
286
0
287
3
288
0
340
11
278
46
341
212
342
212
343
212
344
212
  0
ENDTAB
  0
ENDSEC
  0
SECTION
  2
BLOCKS
  0
BLOCK
  5
20
100
AcDbEntity
  8
0
100
AcDbBlockBegin
  2
*Model_Space
 70
0
 10
0.0
 20
0.0
 30
0.0
  3
*Model_Space
  1

  0
ENDBLK
  5
21
100
AcDbEntity
  8
0
100
AcDbBlockEnd
  0
BLOCK
  5
1C
100
AcDbEntity
  8
0
100
AcDbBlockBegin
  2
*Paper_Space
 70
0
 10
0.0
 20
0.0
 30
0.0
  3
*Paper_Space
  1

  0
ENDBLK
  5
1D
100
AcDbEntity
  8
0
100
AcDbBlockEnd
  0
BLOCK
  5
214
100
AcDbEntity
  8
0
100
AcDbBlockBegin
  2
_FILLED
 70
64
 10
0.0
 20
0.0
  3
_FILLED
  1

  0
SOLID
  5
215
100
AcDbEntity
  8
0
  6
BYBLOCK
 62
0
100
AcDbTrace
 10
0.0
 20
0.0
 11
-1.0
 21
0.25
 12
-1.0
 22
-0.25
 13
-1.0
 23
-0.25
  0
ENDBLK
  5
216
100
AcDbEntity
  8
0
  6
BYBLOCK
 62
0
100
AcDbBlockEnd
  0
ENDSEC
  0
SECTION
  2
ENTITIES
  0
LINE
  5
217
100
AcDbEntity
  8
0
100
AcDbLine
 62
7
  6
BYLAYER
 10
8.9556689341
 20
5.8115793693
 11
8.9271967452
 21
5.8217331783
  0
LINE
  5
218
100
AcDbEntity
  8
0
100
AcDbLine
 62
7
  6
BYLAYER
 10
8.9555047632
 20
5.8107330137
 11
8.9271967452
 21
5.8217331783
  0
LINE
  5
219
100
AcDbEntity
  8
0
100
AcDbLine
 62
7
  6
BYLAYER
 10
20.5065000849
 20
4.0261639381
 11
20.3310953938
 21
4.025333412
  0
LINE
  5
21A
100
AcDbEntity
  8
0
100
AcDbLine
 62
7
  6
BYLAYER
 10
20.3310953938
 20
4.025333412
 11
20.0531880982
 21
4.0235634642
  0
LINE
  5
21B
100
AcDbEntity
  8
0
100
AcDbLine
 62
7
  6
BYLAYER
 10
17.4359094723
 20
4.0412930787
 11
17.5066076892
 21
4.0388991782
  0
LINE
  5
21C
100
AcDbEntity
  8
0
100
AcDbLine
 62
7
  6
BYLAYER
 10
17.4359193547
 20
4.0418776371
 11
17.5066076892
 21
4.0388991782
  0
LINE
  5
21D
100
AcDbEntity
  8
0
100
AcDbLine
 62
7
  6
BYLAYER
 10
17.0695099359
 20
4.0573163288
 11
17.0372588603
 21
4.0587208747
  0
LINE
  5
21E
100
AcDbEntity
  8
0
100
AcDbLine
 62
7
  6
BYLAYER
 10
17.069485178
 20
4.0563480686
 11
17.0372404598
 21
4.058021709
  0
LINE
  5
21F
100
AcDbEntity
  8
0
100
AcDbLine
 62
7
  6
BYLAYER
 10
10.6902078753
 20
5.8091537939
 11
10.6562567933
 21
5.8217355049
  0
LINE
  5
220
100
AcDbEntity
  8
0
100
AcDbLine
 62
7
  6
BYLAYER
 10
10.6900975444
 20
5.8085848447
 11
10.6562567933
 21
5.8217355049
  0
LINE
  5
221
100
AcDbEntity
  8
0
100
AcDbLine
 62
7
  6
BYLAYER
 10
7.312140005
 20
5.8218314345
 11
8.9272159691
 21
5.8218314345
  0
LINE
  5
222
100
AcDbEntity
  8
0
100
AcDbLine
 62
7
  6
BYLAYER
 10
8.9593095904
 20
5.8218314345
 11
10.6562752726
 21
5.8218314345
  0
LINE
  5
223
100
AcDbEntity
  8
0
100
AcDbLine
 62
7
  6
BYLAYER
 10
10.6948884989
 20
5.8218314345
 11
13.1541173303
 21
5.8218314345
  0
LINE
  5
224
100
AcDbEntity
  8
0
100
AcDbLine
 62
7
  6
BYLAYER
 10
7.1467794546
 20
5.9400008794
 11
8.6915179103
 21
5.9400008794
  0
LINE
  5
225
100
AcDbEntity
  8
0
100
AcDbLine
 62
7
  6
BYLAYER
 10
8.7236850254
 20
5.9400008794
 11
10.4206505468
 21
5.9400008794
  0
LINE
  5
226
100
AcDbEntity
  8
0
100
AcDbLine
 62
7
  6
BYLAYER
 10
10.4591764528
 20
5.9400008794
 11
12.7534318221
 21
5.9400008794
  0
LINE
  5
227
100
AcDbEntity
  8
0
100
AcDbLine
 62
7
  6
BYLAYER
 10
12.4014389201
 20
6.3362745825
 11
10.3011186385
 21
6.3362745825
  0
LINE
  5
228
100
AcDbEntity
  8
0
100
AcDbLine
 62
7
  6
BYLAYER
 10
10.262578807
 20
6.3362745825
 11
8.5656668187
 21
6.3362745825
  0
LINE
  5
229
100
AcDbEntity
  8
0
100
AcDbLine
 62
7
  6
BYLAYER
 10
8.5334419889
 20
6.3362745825
 11
7.0857600548
 21
6.3362745825
  0
LINE
  5
22A
100
AcDbEntity
  8
0
100
AcDbLine
 62
7
  6
BYLAYER
 10
4.954659957
 20
29.0926477352
 11
4.954659957
 21
20.4065719131
  0
LINE
  5
22B
100
AcDbEntity
  8
0
100
AcDbLine
 62
7
  6
BYLAYER
 10
6.6046599607
 20
31.5426477352
 11
6.6046599607
 21
30.2926477352
  0
LINE
  5
22C
100
AcDbEntity
  8
0
100
AcDbLine
 62
7
  6
BYLAYER
 10
6.7296599607
 20
19.9926477978
 11
6.7296599607
 21
19.7626475278
  0
LINE
  5
22D
100
AcDbEntity
  8
0
100
AcDbLine
 62
7
  6
BYLAYER
 10
7.0811017926
 20
19.2587234556
 11
7.0811017926
 21
8.9437103199
  0
LINE
  5
22E
100
AcDbEntity
  8
0
100
AcDbLine
 62
7
  6
BYLAYER
 10
7.386016305
 20
19.2369147235
 11
7.386016305
 21
19.2587234556
  0
LINE
  5
22F
100
AcDbEntity
  8
0
100
AcDbLine
 62
7
  6
BYLAYER
 10
8.3296599607
 20
34.2406477352
 11
8.3296599607
 21
31.5426477352
  0
LINE
  5
230
100
AcDbEntity
  8
0
100
AcDbLine
 62
7
  6
BYLAYER
 10
7.9502257951
 20
19.2587234615
 11
7.9504028885
 21
19.7626474434
  0
LINE
  5
231
100
AcDbEntity
  8
0
100
AcDbLine
 62
7
  6
BYLAYER
 10
10.2614028397
 20
6.4026477352
 11
10.2626381356
 21
6.3361824124
  0
LINE
  5
232
100
AcDbEntity
  8
0
100
AcDbLine
 62
7
  6
BYLAYER
 10
8.680402556
 20
34.9016477352
 11
8.680402556
 21
43.1016477352
  0
LINE
  5
233
100
AcDbEntity
  8
0
100
AcDbLine
 62
7
  6
BYLAYER
 10
8.7046599607
 20
34.9016477352
 11
8.7046599607
 21
34.4906477352
  0
LINE
  5
234
100
AcDbEntity
  8
0
100
AcDbLine
 62
7
  6
BYLAYER
 10
8.8781763134
 20
46.6906727901
 11
8.8781763134
 21
45.7906477352
  0
LINE
  5
235
100
AcDbEntity
  8
0
100
AcDbLine
 62
7
  6
BYLAYER
 10
9.0066209336
 20
34.9016477352
 11
9.0066209336
 21
43.1016477352
  0
LINE
  5
236
100
AcDbEntity
  8
0
100
AcDbLine
 62
7
  6
BYLAYER
 10
9.3046599607
 20
38.2856652815
 11
9.3046599607
 21
39.2980373899
  0
LINE
  5
237
100
AcDbEntity
  8
0
100
AcDbLine
 62
7
  6
BYLAYER
 10
9.3781651426
 20
45.7906477352
 11
9.3781651426
 21
46.088916674
  0
LINE
  5
238
100
AcDbEntity
  8
0
100
AcDbLine
 62
7
  6
BYLAYER
 10
31.6796597238
 20
19.7626474434
 11
28.3192630346
 21
19.2623321864
  0
LINE
  5
239
100
AcDbEntity
  8
0
100
AcDbLine
 62
7
  6
BYLAYER
 10
8.325857726
 20
17.5026486173
 11
8.3581475013
 21
17.5026486173
  0
LINE
  5
23A
100
AcDbEntity
  8
0
100
AcDbLine
 62
7
  6
BYLAYER
 10
10.0551188879
 20
17.5026489277
 11
10.0935362021
 21
17.5026489277
  0
LINE
  5
23B
100
AcDbEntity
  8
0
100
AcDbLine
 62
7
  6
BYLAYER
 10
6.3446598272
 20
19.9926477978
 11
4.9546599607
 21
20.406571912
  0
LINE
  5
23C
100
AcDbEntity
  8
0
100
AcDbLine
 62
7
  6
BYLAYER
 10
10.5046599607
 20
49.1906477352
 11
10.5046599607
 21
43.1016477352
  0
LINE
  5
23D
100
AcDbEntity
  8
0
100
AcDbLine
 62
7
  6
BYLAYER
 10
10.9286969674
 20
32.3262982112
 11
10.9286619334
 21
31.5426477352
  0
LINE
  5
23E
100
AcDbEntity
  8
0
100
AcDbLine
 62
7
  6
BYLAYER
 10
11.2694312032
 20
19.2270289111
 11
11.2694312032
 21
19.2587234565
  0
LINE
  5
23F
100
AcDbEntity
  8
0
100
AcDbLine
 62
7
  6
BYLAYER
 10
9.5659106542
 20
19.1526477352
 11
9.5540714549
 21
19.1079993409
  0
LINE
  5
240
100
AcDbEntity
  8
0
100
AcDbLine
 62
7
  6
BYLAYER
 10
8.7257675332
 20
19.1026477619
 11
9.6112497973
 21
19.1026477619
  0
LINE
  5
241
100
AcDbEntity
  8
0
100
AcDbLine
 62
7
  6
BYLAYER
 10
9.5963795306
 20
19.1526477352
 11
8.7037016242
 21
19.1526477352
  0
LINE
  5
242
100
AcDbEntity
  8
0
100
AcDbLine
 62
7
  6
BYLAYER
 10
7.0811017926
 20
19.2587234575
 11
13.8216188943
 21
19.2587234579
  0
LINE
  5
243
100
AcDbEntity
  8
0
100
AcDbLine
 62
7
  6
BYLAYER
 10
30.4583870486
 20
19.2587234563
 11
31.3282182266
 21
19.2587234561
  0
LINE
  5
244
100
AcDbEntity
  8
0
100
AcDbLine
 62
7
  6
BYLAYER
 10
28.3192630346
 20
19.2623321864
 11
15.9338639526
 21
19.2623321864
  0
LINE
  5
245
100
AcDbEntity
  8
0
100
AcDbLine
 62
7
  6
BYLAYER
 10
31.6796597238
 20
19.7626474434
 11
13.8220082378
 21
19.7626474434
  0
LINE
  5
246
100
AcDbEntity
  8
0
100
AcDbLine
 62
7
  6
BYLAYER
 10
7.9502257951
 20
19.7626474434
 11
6.7296599607
 21
19.7626474434
  0
LINE
  5
247
100
AcDbEntity
  8
0
100
AcDbLine
 62
7
  6
BYLAYER
 10
7.6408878814
 20
19.9887234556
 11
13.8216188943
 21
19.9887234556
  0
LINE
  5
248
100
AcDbEntity
  8
0
100
AcDbLine
 62
7
  6
BYLAYER
 10
32.0646339422
 20
19.9926477978
 11
13.5773434748
 21
19.9926477978
  0
LINE
  5
249
100
AcDbEntity
  8
0
100
AcDbLine
 62
7
  6
BYLAYER
 10
7.6365923535
 20
19.9926477978
 11
6.3446859792
 21
19.9926477978
  0
LINE
  5
24A
100
AcDbEntity
  8
0
100
AcDbLine
 62
7
  6
BYLAYER
 10
12.20409674
 20
43.1016477352
 11
12.20409674
 21
34.9016477352
  0
LINE
  5
24B
100
AcDbEntity
  8
0
100
AcDbLine
 62
7
  6
BYLAYER
 10
12.2046599607
 20
48.9906477352
 11
12.2046599607
 21
45.7906477352
  0
LINE
  5
24C
100
AcDbEntity
  8
0
100
AcDbLine
 62
7
  6
BYLAYER
 10
12.3432738221
 20
45.7906477352
 11
12.3432738221
 21
47.5906477352
  0
LINE
  5
24D
100
AcDbEntity
  8
0
100
AcDbLine
 62
7
  6
BYLAYER
 10
12.355603357
 20
34.9016477352
 11
12.355603357
 21
43.1016477352
  0
LINE
  5
24E
100
AcDbEntity
  8
0
100
AcDbLine
 62
7
  6
BYLAYER
 10
13.7234266061
 20
5.6326688043
 11
13.7234266061
 21
19.2587234557
  0
LINE
  5
24F
100
AcDbEntity
  8
0
100
AcDbLine
 62
7
  6
BYLAYER
 10
13.8220082378
 20
19.9926477978
 11
13.8216188943
 21
19.2587234511
  0
LINE
  5
250
100
AcDbEntity
  8
0
100
AcDbLine
 62
7
  6
BYLAYER
 10
17.2046599607
 20
36.0916477352
 11
18.9312449644
 21
39.9151153008
  0
LINE
  5
251
100
AcDbEntity
  8
0
100
AcDbLine
 62
7
  6
BYLAYER
 10
33.4546599645
 20
20.406571912
 11
4.954659957
 21
20.406571912
  0
LINE
  5
252
100
AcDbEntity
  8
0
100
AcDbLine
 62
7
  6
BYLAYER
 10
14.3613373403
 20
31.5426477352
 11
14.3612889887
 21
32.3262982112
  0
LINE
  5
253
100
AcDbEntity
  8
0
100
AcDbLine
 62
7
  6
BYLAYER
 10
14.8469082468
 20
34.9016477352
 11
14.8469082468
 21
43.1016477352
  0
LINE
  5
254
100
AcDbEntity
  8
0
100
AcDbLine
 62
7
  6
BYLAYER
 10
14.9046599607
 20
48.8906477352
 11
14.9046599607
 21
49.1906477352
  0
LINE
  5
255
100
AcDbEntity
  8
0
100
AcDbLine
 62
7
  6
BYLAYER
 10
16.3341199419
 20
36.0916477352
 11
16.3341199419
 21
34.9016477352
  0
LINE
  5
256
100
AcDbEntity
  8
0
100
AcDbLine
 62
7
  6
BYLAYER
 10
16.3341199418
 20
45.7906477352
 11
16.3341199418
 21
47.5906477352
  0
LINE
  5
257
100
AcDbEntity
  8
0
100
AcDbLine
 62
7
  6
BYLAYER
 10
16.9546599607
 20
31.5426477352
 11
16.9546599607
 21
33.7926477352
  0
LINE
  5
258
100
AcDbEntity
  8
0
100
AcDbLine
 62
7
  6
BYLAYER
 10
4.9546620124
 20
29.0926477352
 11
4.9933968182
 21
29.0926477352
  0
LINE
  5
259
100
AcDbEntity
  8
0
100
AcDbLine
 62
7
  6
BYLAYER
 10
33.4159231033
 20
29.0926477352
 11
33.454657909
 21
29.0926477352
  0
LINE
  5
25A
100
AcDbEntity
  8
0
100
AcDbLine
 62
7
  6
BYLAYER
 10
21.4546599607
 20
33.7926477352
 11
21.4546599607
 21
31.5426477352
  0
LINE
  5
25B
100
AcDbEntity
  8
0
100
AcDbLine
 62
7
  6
BYLAYER
 10
22.0751999796
 20
47.5906477352
 11
22.0751999796
 21
45.7906477352
  0
LINE
  5
25C
100
AcDbEntity
  8
0
100
AcDbLine
 62
7
  6
BYLAYER
 10
22.0751999796
 20
34.9016477352
 11
22.0751999796
 21
36.0916477352
  0
LINE
  5
25D
100
AcDbEntity
  8
0
100
AcDbLine
 62
7
  6
BYLAYER
 10
5.0015449794
 20
30.2926475303
 11
33.4077749435
 21
30.2926475303
  0
LINE
  5
25E
100
AcDbEntity
  8
0
100
AcDbLine
 62
7
  6
BYLAYER
 10
23.5046599607
 20
49.1906477352
 11
23.5046599607
 21
48.8906477352
  0
LINE
  5
25F
100
AcDbEntity
  8
0
100
AcDbLine
 62
7
  6
BYLAYER
 10
23.5624116746
 20
43.1016477352
 11
23.5624116746
 21
34.9016477352
  0
LINE
  5
260
100
AcDbEntity
  8
0
100
AcDbLine
 62
7
  6
BYLAYER
 10
24.0480309328
 20
32.3262982112
 11
24.0479825812
 21
31.5426477352
  0
LINE
  5
261
100
AcDbEntity
  8
0
100
AcDbLine
 62
7
  6
BYLAYER
 10
6.6046599607
 20
31.5426477352
 11
31.8046599607
 21
31.5426477352
  0
LINE
  5
262
100
AcDbEntity
  8
0
100
AcDbLine
 62
7
  6
BYLAYER
 10
10.9287320024
 20
32.3262982112
 11
14.3612406274
 21
32.3262982112
  0
LINE
  5
263
100
AcDbEntity
  8
0
100
AcDbLine
 62
7
  6
BYLAYER
 10
24.0480792941
 20
32.3262982112
 11
27.4805879191
 21
32.3262982112
  0
LINE
  5
264
100
AcDbEntity
  8
0
100
AcDbLine
 62
7
  6
BYLAYER
 10
27.4400628139
 20
32.5253504254
 11
24.1037248489
 21
32.5253504254
  0
LINE
  5
265
100
AcDbEntity
  8
0
100
AcDbLine
 62
7
  6
BYLAYER
 10
14.3055950711
 20
32.5253504254
 11
10.9692571074
 21
32.5253504254
  0
LINE
  5
266
100
AcDbEntity
  8
0
100
AcDbLine
 62
7
  6
BYLAYER
 10
19.4780749571
 20
39.9151153008
 11
21.2046599607
 21
36.0916477352
  0
LINE
  5
267
100
AcDbEntity
  8
0
100
AcDbLine
 62
7
  6
BYLAYER
 10
26.0537165645
 20
34.9016477352
 11
26.0537165645
 21
43.1016477352
  0
LINE
  5
268
100
AcDbEntity
  8
0
100
AcDbLine
 62
7
  6
BYLAYER
 10
26.0660460993
 20
45.7906477352
 11
26.0660460993
 21
47.5906477352
  0
LINE
  5
269
100
AcDbEntity
  8
0
100
AcDbLine
 62
7
  6
BYLAYER
 10
26.2046599607
 20
45.7906477352
 11
26.2046599607
 21
48.9906477352
  0
LINE
  5
26A
100
AcDbEntity
  8
0
100
AcDbLine
 62
7
  6
BYLAYER
 10
26.2052231814
 20
34.9016477352
 11
26.2052231814
 21
43.1016477352
  0
LINE
  5
26B
100
AcDbEntity
  8
0
100
AcDbLine
 62
7
  6
BYLAYER
 10
21.4546599607
 20
33.7926477352
 11
16.9546599607
 21
33.7926477352
  0
LINE
  5
26C
100
AcDbEntity
  8
0
100
AcDbLine
 62
7
  6
BYLAYER
 10
26.0318391434
 20
34.1506477347
 11
25.7665120361
 21
34.1506477347
  0
LINE
  5
26D
100
AcDbEntity
  8
0
100
AcDbLine
 62
7
  6
BYLAYER
 10
12.6428066809
 20
34.1506477347
 11
12.3774796023
 21
34.1506477347
  0
LINE
  5
26E
100
AcDbEntity
  8
0
100
AcDbLine
 62
7
  6
BYLAYER
 10
8.3296599607
 20
34.2406477352
 11
30.0796599607
 21
34.2406477352
  0
LINE
  5
26F
100
AcDbEntity
  8
0
100
AcDbLine
 62
7
  6
BYLAYER
 10
8.5796599607
 20
34.4906477352
 11
29.8296599607
 21
34.4906477352
  0
LINE
  5
270
100
AcDbEntity
  8
0
100
AcDbLine
 62
7
  6
BYLAYER
 10
27.4806579881
 20
31.5426477352
 11
27.4806229541
 21
32.3262982112
  0
LINE
  5
271
100
AcDbEntity
  8
0
100
AcDbLine
 62
7
  6
BYLAYER
 10
27.9046599607
 20
43.1016477352
 11
27.9046599607
 21
49.1906477352
  0
LINE
  5
272
100
AcDbEntity
  8
0
100
AcDbLine
 62
7
  6
BYLAYER
 10
26.2052231814
 20
34.9016477352
 11
22.0751999796
 21
34.9016477352
  0
LINE
  5
273
100
AcDbEntity
  8
0
100
AcDbLine
 62
7
  6
BYLAYER
 10
16.3341199419
 20
34.9016477352
 11
12.20409674
 21
34.9016477352
  0
LINE
  5
274
100
AcDbEntity
  8
0
100
AcDbLine
 62
7
  6
BYLAYER
 10
8.680402556
 20
34.9016477352
 11
9.0066209336
 21
34.9016477352
  0
LINE
  5
275
100
AcDbEntity
  8
0
100
AcDbLine
 62
7
  6
BYLAYER
 10
29.4026989879
 20
34.9016477352
 11
29.7289173655
 21
34.9016477352
  0
LINE
  5
276
100
AcDbEntity
  8
0
100
AcDbLine
 62
7
  6
BYLAYER
 10
16.3341199419
 20
36.0916477352
 11
17.2046599607
 21
36.0916477352
  0
LINE
  5
277
100
AcDbEntity
  8
0
100
AcDbLine
 62
7
  6
BYLAYER
 10
21.2046599607
 20
36.0916477352
 11
22.0751999796
 21
36.0916477352
  0
LINE
  5
278
100
AcDbEntity
  8
0
100
AcDbLine
 62
7
  6
BYLAYER
 10
29.031154758
 20
46.0889166741
 11
29.031154758
 21
45.7906477352
  0
LINE
  5
279
100
AcDbEntity
  8
0
100
AcDbLine
 62
7
  6
BYLAYER
 10
29.1046599607
 20
39.3833245801
 11
29.1046599607
 21
38.1983014231
  0
LINE
  5
27A
100
AcDbEntity
  8
0
100
AcDbLine
 62
7
  6
BYLAYER
 10
29.4026989879
 20
34.9016477352
 11
29.4026989879
 21
43.1016477352
  0
LINE
  5
27B
100
AcDbEntity
  8
0
100
AcDbLine
 62
7
  6
BYLAYER
 10
29.5311666896
 20
45.7906477352
 11
29.5311666896
 21
46.6906209304
  0
LINE
  5
27C
100
AcDbEntity
  8
0
100
AcDbLine
 62
7
  6
BYLAYER
 10
29.7046599607
 20
34.4906477352
 11
29.7046599607
 21
34.9016477352
  0
LINE
  5
27D
100
AcDbEntity
  8
0
100
AcDbLine
 62
7
  6
BYLAYER
 10
29.7289173655
 20
43.1016477352
 11
29.7289173655
 21
34.9016477352
  0
LINE
  5
27E
100
AcDbEntity
  8
0
100
AcDbLine
 62
7
  6
BYLAYER
 10
30.0796599607
 20
31.5426477352
 11
30.0796599607
 21
34.2406477352
  0
LINE
  5
27F
100
AcDbEntity
  8
0
100
AcDbLine
 62
7
  6
BYLAYER
 10
32.0646600943
 20
19.9926477978
 11
33.4546599607
 21
20.406571912
  0
LINE
  5
280
100
AcDbEntity
  8
0
100
AcDbLine
 62
7
  6
BYLAYER
 10
30.4583870486
 20
19.2587234495
 11
30.4583870486
 21
19.5808173177
  0
LINE
  5
281
100
AcDbEntity
  8
0
100
AcDbLine
 62
7
  6
BYLAYER
 10
30.5935802083
 20
5.6330170056
 11
30.5935802083
 21
19.2587234495
  0
LINE
  5
282
100
AcDbEntity
  8
0
100
AcDbLine
 62
7
  6
BYLAYER
 10
31.3282182223
 20
8.9769170522
 11
31.3282182266
 21
19.2587234556
  0
LINE
  5
283
100
AcDbEntity
  8
0
100
AcDbLine
 62
7
  6
BYLAYER
 10
31.6796597238
 20
19.9926477978
 11
31.6796597238
 21
19.7626474434
  0
LINE
  5
284
100
AcDbEntity
  8
0
100
AcDbLine
 62
7
  6
BYLAYER
 10
31.8046599607
 20
30.2926477352
 11
31.8046599607
 21
31.5426477352
  0
LINE
  5
285
100
AcDbEntity
  8
0
100
AcDbLine
 62
7
  6
BYLAYER
 10
33.4546599645
 20
29.0926477352
 11
33.4546599645
 21
20.4065719131
  0
LINE
  5
286
100
AcDbEntity
  8
0
100
AcDbLine
 62
7
  6
BYLAYER
 10
8.680402556
 20
43.1016477352
 11
29.7289173655
 21
43.1016477352
  0
LINE
  5
287
100
AcDbEntity
  8
0
100
AcDbLine
 62
7
  6
BYLAYER
 10
29.5311666896
 20
45.7906477352
 11
27.9046599607
 21
45.7906477352
  0
LINE
  5
288
100
AcDbEntity
  8
0
100
AcDbLine
 62
7
  6
BYLAYER
 10
26.2046599607
 20
45.7906477352
 11
12.2046599607
 21
45.7906477352
  0
LINE
  5
289
100
AcDbEntity
  8
0
100
AcDbLine
 62
7
  6
BYLAYER
 10
10.5046599607
 20
45.7906477352
 11
8.8781763134
 21
45.7906477352
  0
LINE
  5
28A
100
AcDbEntity
  8
0
100
AcDbLine
 62
7
  6
BYLAYER
 10
9.3781651426
 20
46.088916674
 11
10.5046599607
 21
46.088916674
  0
LINE
  5
28B
100
AcDbEntity
  8
0
100
AcDbLine
 62
7
  6
BYLAYER
 10
27.9046599607
 20
46.0889166741
 11
29.031154758
 21
46.0889166741
  0
LINE
  5
28C
100
AcDbEntity
  8
0
100
AcDbLine
 62
7
  6
BYLAYER
 10
29.3075950618
 20
46.2739971551
 11
27.9046599607
 21
46.2739971551
  0
LINE
  5
28D
100
AcDbEntity
  8
0
100
AcDbLine
 62
7
  6
BYLAYER
 10
10.5046599607
 20
46.2739971551
 11
9.1017841631
 21
46.2739971551
  0
LINE
  5
28E
100
AcDbEntity
  8
0
100
AcDbLine
 62
7
  6
BYLAYER
 10
12.3432738221
 20
47.5906477352
 11
16.3341199418
 21
47.5906477352
  0
LINE
  5
28F
100
AcDbEntity
  8
0
100
AcDbLine
 62
7
  6
BYLAYER
 10
22.0751999796
 20
47.5906477352
 11
26.0660460993
 21
47.5906477352
  0
LINE
  5
290
100
AcDbEntity
  8
0
100
AcDbLine
 62
7
  6
BYLAYER
 10
14.9046599607
 20
48.8906477352
 11
23.5046599607
 21
48.8906477352
  0
LINE
  5
291
100
AcDbEntity
  8
0
100
AcDbLine
 62
7
  6
BYLAYER
 10
10.5046599607
 20
48.9906477352
 11
12.2046599607
 21
48.9906477352
  0
LINE
  5
292
100
AcDbEntity
  8
0
100
AcDbLine
 62
7
  6
BYLAYER
 10
26.2046599607
 20
48.9906477352
 11
27.9046599607
 21
48.9906477352
  0
LINE
  5
293
100
AcDbEntity
  8
0
100
AcDbLine
 62
7
  6
BYLAYER
 10
10.1183858191
 20
49.1906477352
 11
14.9046599607
 21
49.1906477352
  0
LINE
  5
294
100
AcDbEntity
  8
0
100
AcDbLine
 62
7
  6
BYLAYER
 10
23.5046599607
 20
49.1906477352
 11
28.2858266478
 21
49.1906477352
  0
LINE
  5
295
100
AcDbEntity
  8
0
100
AcDbLine
 62
7
  6
BYLAYER
 10
11.166602293
 20
50.3906477352
 11
13.4660718064
 21
50.3906477352
  0
LINE
  5
296
100
AcDbEntity
  8
0
100
AcDbLine
 62
7
  6
BYLAYER
 10
24.9432472085
 20
50.3906477352
 11
27.2427176285
 21
50.3906477352
  0
ARC
  5
297
100
AcDbEntity
  8
0
100
AcDbCircle
 62
7
  6
BYLAYER
 10
-714.721613345
 20
9.0212535639
 40
746.0498328848
100
AcDbArc
 50
359.7937761569
 51
359.9965950063
  0
ARC
  5
298
100
AcDbEntity
  8
0
100
AcDbCircle
 62
7
  6
BYLAYER
 10
751.4836843017
 20
8.9821725102
 40
744.4025834989
100
AcDbArc
 50
180.0029545786
 51
180.2036725838
  0
ARC
  5
299
100
AcDbEntity
  8
0
100
AcDbCircle
 62
7
  6
BYLAYER
 10
19.1838007185
 20
54.1622274931
 40
50.1535083753
100
AcDbArc
 50
270.0238297702
 51
271.0943704662
  0
ARC
  5
29A
100
AcDbEntity
  8
0
100
AcDbCircle
 62
7
  6
BYLAYER
 10
19.225519203
 20
54.1622274931
 40
50.1535083753
100
AcDbArc
 50
268.0358842058
 51
269.9761702298
  0
ARC
  5
29B
100
AcDbEntity
  8
0
100
AcDbCircle
 62
7
  6
BYLAYER
 10
19.225519203
 20
54.1622274931
 40
50.1535083753
100
AcDbArc
 50
264.5938384513
 51
267.4942439093
  0
ARC
  5
29C
100
AcDbEntity
  8
0
100
AcDbCircle
 62
7
  6
BYLAYER
 10
19.1838007185
 20
54.1622274931
 40
50.1535083753
100
AcDbArc
 50
271.5112376413
 51
275.4037143615
  0
ARC
  5
29D
100
AcDbEntity
  8
0
100
AcDbCircle
 62
7
  6
BYLAYER
 10
18.4177569595
 20
29.5497382955
 40
25.5293309093
100
AcDbArc
 50
260.8612623455
 51
261.2033913392
  0
ARC
  5
29E
100
AcDbEntity
  8
0
100
AcDbCircle
 62
7
  6
BYLAYER
 10
18.3466868752
 20
29.2930331199
 40
25.2689552909
100
AcDbArc
 50
261.2748103426
 51
267.0295823183
  0
ARC
  5
29F
100
AcDbEntity
  8
0
100
AcDbCircle
 62
7
  6
BYLAYER
 10
20.0422364963
 20
28.7553123126
 40
24.7314081059
100
AcDbArc
 50
264.1440462394
 51
270.0253723337
  0
ARC
  5
2A0
100
AcDbEntity
  8
0
100
AcDbCircle
 62
7
  6
BYLAYER
 10
10.0900568869
 20
30.7976402775
 40
11.5353080911
100
AcDbArc
 50
253.0633606013
 51
259.215669074
  0
ARC
  5
2A1
100
AcDbEntity
  8
0
100
AcDbCircle
 62
7
  6
BYLAYER
 10
9.3730297275
 20
6.9949983601
 40
1.2559917579
100
AcDbArc
 50
237.1179832493
 51
241.2233845783
  0
ARC
  5
2A2
100
AcDbEntity
  8
0
100
AcDbCircle
 62
7
  6
BYLAYER
 10
11.0998680047
 20
6.9904799675
 40
1.250934982
100
AcDbArc
 50
237.1097377797
 51
241.2150948722
  0
ARC
  5
2A3
100
AcDbEntity
  8
0
100
AcDbCircle
 62
7
  6
BYLAYER
 10
9.3438076599
 20
6.9435378767
 40
1.1968193873
100
AcDbArc
 50
241.2636157727
 51
245.4770374923
  0
ARC
  5
2A4
100
AcDbEntity
  8
0
100
AcDbCircle
 62
7
  6
BYLAYER
 10
11.0723278534
 20
6.9420218899
 40
1.1952037556
100
AcDbArc
 50
241.2536104594
 51
245.4715538954
  0
ARC
  5
2A5
100
AcDbEntity
  8
0
100
AcDbCircle
 62
7
  6
BYLAYER
 10
9.316048256
 20
6.8815701515
 40
1.1289197966
100
AcDbArc
 50
245.4534462594
 51
249.8520402643
  0
ARC
  5
2A6
100
AcDbEntity
  8
0
100
AcDbCircle
 62
7
  6
BYLAYER
 10
11.0451229309
 20
6.8812577527
 40
1.1286293752
100
AcDbArc
 50
245.4473840899
 51
249.8458398585
  0
ARC
  5
2A7
100
AcDbEntity
  8
0
100
AcDbCircle
 62
7
  6
BYLAYER
 10
11.385757833
 20
32.3369304566
 40
0.4571465538
100
AcDbArc
 50
155.6401969106
 51
180.0137802891
  0
ARC
  5
2A8
100
AcDbEntity
  8
0
100
AcDbCircle
 62
7
  6
BYLAYER
 10
27.023562243
 20
32.3369304824
 40
0.4571463994
100
AcDbArc
 50
359.9862164802
 51
24.3598380304
  0
ARC
  5
2A9
100
AcDbEntity
  8
0
100
AcDbCircle
 62
7
  6
BYLAYER
 10
19.2046599607
 20
39.7901260637
 40
0.3006294557
100
AcDbArc
 50
24.567088894
 51
155.432911106
  0
ARC
  5
2AA
100
AcDbEntity
  8
0
100
AcDbCircle
 62
7
  6
BYLAYER
 10
8.5796599607
 20
34.2406477352
 40
0.25
100
AcDbArc
 50
90.0
 51
180.0
  0
ARC
  5
2AB
100
AcDbEntity
  8
0
100
AcDbCircle
 62
7
  6
BYLAYER
 10
29.8296599607
 20
34.2406477352
 40
0.25
100
AcDbArc
 50
0.0
 51
90.0
  0
SPLINE
  5
2AC
100
AcDbEntity
  8
0
100
AcDbSpline
 62
7
  6
BYLAYER
 70
0
 71
3
 72
10
 73
6
 74
0
 42
0.0000001
 43
0.0000001
 44
0.0000000001
 40
0.0
 40
0.0
 40
0.0
 40
0.0
 40
0.5534763564
 40
0.7913639378
 40
1.0
 40
1.0
 40
1.0
 40
1.0
 10
30.5935802083
 20
5.6330170056
 30
0.0
 10
30.688099816
 20
5.6630935626
 30
0.0
 10
30.8225056548
 20
5.7086253413
 30
0.0
 10
30.9894130214
 20
5.7739530077
 30
0.0
 10
31.0627947535
 20
5.8059529493
 30
0.0
 10
31.096645737
 20
5.8218314345
 30
0.0
  0
SPLINE
  5
2AD
100
AcDbEntity
  8
0
100
AcDbSpline
 62
7
  6
BYLAYER
 70
0
 71
3
 72
9
 73
5
 74
0
 42
0.0000001
 43
0.0000001
 44
0.0000000001
 40
0.0
 40
0.0
 40
0.0
 40
0.0
 40
0.2781894365
 40
1.0
 40
1.0
 40
1.0
 40
1.0
 10
31.096645737
 20
5.8218314345
 30
0.0
 10
31.1139866629
 20
5.8294673683
 30
0.0
 10
31.1749295153
 20
5.8597647454
 30
0.0
 10
31.2304145112
 20
5.9024734972
 30
0.0
 10
31.2621746003
 20
5.9400008794
 30
0.0
  0
SPLINE
  5
2AE
100
AcDbEntity
  8
0
100
AcDbSpline
 62
7
  6
BYLAYER
 70
0
 71
3
 72
11
 73
7
 74
0
 42
0.0000001
 43
0.0000001
 44
0.0000000001
 40
0.0
 40
0.0
 40
0.0
 40
0.0
 40
0.1812609098
 40
0.4013604162
 40
0.6728976901
 40
1.0
 40
1.0
 40
1.0
 40
1.0
 10
31.2621746003
 20
5.9400008794
 30
0.0
 10
31.2744852195
 20
5.9611047291
 30
0.0
 10
31.2947514687
 20
6.0118944593
 30
0.0
 10
31.3124330821
 20
6.1010983093
 30
0.0
 10
31.3214826468
 20
6.2112309091
 30
0.0
 10
31.3231518375
 20
6.2919240935
 30
0.0
 10
31.323387062
 20
6.3360133452
 30
0.0
  0
LINE
  5
2AF
100
AcDbEntity
  8
0
100
AcDbLine
 62
7
  6
BYLAYER
 10
7.6410537632
 20
19.990683693
 11
7.6355227356
 21
19.9927311255
  0
SPLINE
  5
2B0
100
AcDbEntity
  8
0
100
AcDbSpline
 62
7
  6
BYLAYER
 70
0
 71
3
 72
17
 73
13
 74
0
 42
0.0000001
 43
0.0000001
 44
0.0000000001
 40
0.0
 40
0.0
 40
0.0
 40
0.0
 40
0.2011710328
 40
0.382682642
 40
0.5430767525
 40
0.6809477722
 40
0.7950362219
 40
0.8430296707
 40
0.8850349673
 40
0.9212272434
 40
0.9519775762
 40
1.0
 40
1.0
 40
1.0
 40
1.0
 10
7.6355227356
 20
19.9927311255
 30
0.0
 10
7.5942659605
 20
20.0080147733
 30
0.0
 10
7.5159356157
 20
20.0375040505
 30
0.0
 10
7.405906138
 20
20.0823049596
 30
0.0
 10
7.3107221225
 20
20.1265946833
 30
0.0
 10
7.2311897799
 20
20.1691972633
 30
0.0
 10
7.1754783195
 20
20.2040116777
 30
0.0
 10
7.1397397311
 20
20.2308086793
 30
0.0
 10
7.1188890954
 20
20.2489133403
 30
0.0
 10
7.1024442461
 20
20.2662928002
 30
0.0
 10
7.0877021099
 20
20.2865453232
 30
0.0
 10
7.0811017926
 20
20.3035685599
 30
0.0
 10
7.0811017926
 20
20.3140712109
 30
0.0
  0
LINE
  5
2B1
100
AcDbEntity
  8
0
100
AcDbLine
 62
7
  6
BYLAYER
 10
10.0935362236
 20
17.5026486173
 11
10.3011168916
 21
6.3363682719
  0
SPLINE
  5
2B2
100
AcDbEntity
  8
0
100
AcDbSpline
 62
7
  6
BYLAYER
 70
0
 71
3
 72
10
 73
6
 74
0
 42
0.0000001
 43
0.0000001
 44
0.0000000001
 40
0.0
 40
0.0
 40
0.0
 40
0.0
 40
0.252816447
 40
0.5035725752
 40
1.0
 40
1.0
 40
1.0
 40
1.0
 10
8.9592908121
 20
5.8217354392
 30
0.0
 10
9.3999099748
 20
5.6501740621
 30
0.0
 10
10.2865731781
 20
5.330950321
 30
0.0
 10
12.0773360439
 20
4.7895916173
 30
0.0
 10
13.4463654008
 20
4.4919234936
 30
0.0
 10
14.3630451202
 20
4.3444601066
 30
0.0
  0
SPLINE
  5
2B3
100
AcDbEntity
  8
0
100
AcDbSpline
 62
7
  6
BYLAYER
 70
0
 71
3
 72
11
 73
7
 74
0
 42
0.0000001
 43
0.0000001
 44
0.0000000001
 40
0.0
 40
0.0
 40
0.0
 40
0.0
 40
0.2505739293
 40
0.5006965454
 40
0.7504724641
 40
1.0
 40
1.0
 40
1.0
 40
1.0
 10
14.5136242215
 20
4.3206978016
 30
0.0
 10
14.7560665476
 20
4.2831806158
 30
0.0
 10
15.2416252715
 20
4.2152059014
 30
0.0
 10
15.9720371518
 20
4.1344313565
 30
0.0
 10
16.7034659649
 20
4.0751777111
 30
0.0
 10
17.1917454987
 20
4.049548619
 30
0.0
 10
17.4359094723
 20
4.0412930787
 30
0.0
  0
SPLINE
  5
2B4
100
AcDbEntity
  8
0
100
AcDbSpline
 62
7
  6
BYLAYER
 70
0
 71
3
 72
9
 73
5
 74
0
 42
0.0000001
 43
0.0000001
 44
0.0000000001
 40
0.0
 40
0.0
 40
0.0
 40
0.0
 40
0.2457105735
 40
1.0
 40
1.0
 40
1.0
 40
1.0
 10
8.9592908121
 20
5.8217354392
 30
0.0
 10
8.9389801609
 20
5.8291593385
 30
0.0
 10
8.8572720557
 20
5.8619373832
 30
0.0
 10
8.7793546537
 20
5.9040182186
 30
0.0
 10
8.7236024009
 20
5.9400546659
 30
0.0
  0
SPLINE
  5
2B5
100
AcDbEntity
  8
0
100
AcDbSpline
 62
7
  6
BYLAYER
 70
0
 71
3
 72
10
 73
6
 74
0
 42
0.0000001
 43
0.0000001
 44
0.0000000001
 40
0.0
 40
0.0
 40
0.0
 40
0.0
 40
0.4708520397
 40
0.7312896564
 40
1.0
 40
1.0
 40
1.0
 40
1.0
 10
8.7236024009
 20
5.9400546659
 30
0.0
 10
8.6737725194
 20
5.9867834669
 30
0.0
 10
8.6158306321
 20
6.0808889226
 30
0.0
 10
8.5754793223
 20
6.2204073025
 30
0.0
 10
8.5667812855
 20
6.2972128533
 30
0.0
 10
8.5656685401
 20
6.3361822014
 30
0.0
  0
LINE
  5
2B6
100
AcDbEntity
  8
0
100
AcDbLine
 62
7
  6
BYLAYER
 10
8.3581475382
 20
17.5026486173
 11
8.5656685401
 21
6.3361822014
  0
SPLINE
  5
2B7
100
AcDbEntity
  8
0
100
AcDbSpline
 62
7
  6
BYLAYER
 70
0
 71
3
 72
9
 73
5
 74
0
 42
0.0000001
 43
0.0000001
 44
0.0000000001
 40
0.0
 40
0.0
 40
0.0
 40
0.0
 40
0.2457089685
 40
1.0
 40
1.0
 40
1.0
 40
1.0
 10
10.6948696108
 20
5.8217332406
 30
0.0
 10
10.6745268753
 20
5.8291663607
 30
0.0
 10
10.5926899203
 20
5.8619899886
 30
0.0
 10
10.5146573938
 20
5.9041444114
 30
0.0
 10
10.4588135266
 20
5.9402284953
 30
0.0
  0
SPLINE
  5
2B8
100
AcDbEntity
  8
0
100
AcDbSpline
 62
7
  6
BYLAYER
 70
0
 71
3
 72
11
 73
7
 74
0
 42
0.0000001
 43
0.0000001
 44
0.0000000001
 40
0.0
 40
0.0
 40
0.0
 40
0.0
 40
0.2271721427
 40
0.472446156
 40
0.7320465924
 40
1.0
 40
1.0
 40
1.0
 40
1.0
 10
10.4588135266
 20
5.9402284953
 30
0.0
 10
10.4347070099
 20
5.9628275317
 30
0.0
 10
10.3908817345
 20
6.0167445462
 30
0.0
 10
10.3422909895
 20
6.1122043699
 30
0.0
 10
10.3107614034
 20
6.2207261383
 30
0.0
 10
10.3022296844
 20
6.2974093671
 30
0.0
 10
10.3011168916
 20
6.3363682719
 30
0.0
  0
SPLINE
  5
2B9
100
AcDbEntity
  8
0
100
AcDbSpline
 62
7
  6
BYLAYER
 70
0
 71
3
 72
10
 73
6
 74
0
 42
0.0000001
 43
0.0000001
 44
0.0000000001
 40
0.0
 40
0.0
 40
0.0
 40
0.0
 40
0.5535855568
 40
0.7914494053
 40
1.0
 40
1.0
 40
1.0
 40
1.0
 10
7.8157397123
 20
5.6327907394
 30
0.0
 10
7.7210984094
 20
5.662903018
 30
0.0
 10
7.5865318573
 20
5.7084870696
 30
0.0
 10
7.4194483597
 20
5.7738964798
 30
0.0
 10
7.3460099425
 20
5.8059343048
 30
0.0
 10
7.312140005
 20
5.8218314345
 30
0.0
  0
SPLINE
  5
2BA
100
AcDbEntity
  8
0
100
AcDbSpline
 62
7
  6
BYLAYER
 70
0
 71
3
 72
9
 73
5
 74
0
 42
0.0000001
 43
0.0000001
 44
0.0000000001
 40
0.0
 40
0.0
 40
0.0
 40
0.0
 40
0.2782517624
 40
1.0
 40
1.0
 40
1.0
 40
1.0
 10
7.312140005
 20
5.8218314345
 30
0.0
 10
7.2948083702
 20
5.8294679625
 30
0.0
 10
7.2339144162
 20
5.8597616602
 30
0.0
 10
7.1784811905
 20
5.9024722053
 30
0.0
 10
7.1467794546
 20
5.9400008794
 30
0.0
  0
SPLINE
  5
2BB
100
AcDbEntity
  8
0
100
AcDbSpline
 62
7
  6
BYLAYER
 70
0
 71
3
 72
11
 73
7
 74
0
 42
0.0000001
 43
0.0000001
 44
0.0000000001
 40
0.0
 40
0.0
 40
0.0
 40
0.0
 40
0.1811775458
 40
0.401214314
 40
0.6727476841
 40
1.0
 40
1.0
 40
1.0
 40
1.0
 10
7.1467794546
 20
5.9400008794
 30
0.0
 10
7.1344933151
 20
5.9611022588
 30
0.0
 10
7.114279641
 20
6.0118835794
 30
0.0
 10
7.0966701885
 20
6.1010681157
 30
0.0
 10
7.0876839278
 20
6.2112018755
 30
0.0
 10
7.086036542
 20
6.2919039898
 30
0.0
 10
7.0858040445
 20
6.3360076525
 30
0.0
  0
SPLINE
  5
2BC
100
AcDbEntity
  8
0
100
AcDbSpline
 62
7
  6
BYLAYER
 70
0
 71
3
 72
9
 73
5
 74
0
 42
0.0000001
 43
0.0000001
 44
0.0000000001
 40
0.0
 40
0.0
 40
0.0
 40
0.0
 40
0.5132927233
 40
1.0
 40
1.0
 40
1.0
 40
1.0
 10
7.8157397123
 20
5.6327907394
 30
0.0
 10
8.9310182738
 20
5.2784614328
 30
0.0
 10
11.1377191533
 20
4.689374741
 30
0.0
 10
13.3956248622
 20
4.336350087
 30
0.0
 10
14.5002910551
 20
4.2318085299
 30
0.0
  0
SPLINE
  5
2BD
100
AcDbEntity
  8
0
100
AcDbSpline
 62
7
  6
BYLAYER
 70
0
 71
3
 72
12
 73
8
 74
0
 42
0.0000001
 43
0.0000001
 44
0.0000000001
 40
0.0
 40
0.0
 40
0.0
 40
0.0
 40
0.126969687
 40
0.2532549356
 40
0.5039760099
 40
0.7527091045
 40
1.0
 40
1.0
 40
1.0
 40
1.0
 10
10.6948696108
 20
5.8217332406
 30
0.0
 10
10.9727222533
 20
5.713583808
 30
0.0
 10
11.5305037216
 20
5.5069077049
 30
0.0
 10
12.6531277646
 20
5.1318281931
 30
0.0
 10
14.0692967272
 20
4.7353973464
 30
0.0
 10
15.7871078398
 20
4.3770159653
 30
0.0
 10
16.9419993026
 20
4.2172933141
 30
0.0
 10
17.5196307357
 20
4.1576326933
 30
0.0
  0
SPLINE
  5
2BE
100
AcDbEntity
  8
0
100
AcDbSpline
 62
7
  6
BYLAYER
 70
0
 71
3
 72
15
 73
11
 74
0
 42
0.0000001
 43
0.0000001
 44
0.0000000001
 40
0.0
 40
0.0
 40
0.0
 40
0.0
 40
0.2502880255
 40
0.5003250966
 40
0.6252788174
 40
0.7502018528
 40
0.812655262
 40
0.8751052927
 40
0.937553118
 40
1.0
 40
1.0
 40
1.0
 40
1.0
 10
17.5196307357
 20
4.1576326933
 30
0.0
 10
17.7375959491
 20
4.135120172
 30
0.0
 10
18.1739136716
 20
4.0957879544
 30
0.0
 10
18.7202911361
 20
4.0608919351
 30
0.0
 10
19.1575457986
 20
4.0415955721
 30
0.0
 10
19.4308647423
 20
4.0331151679
 30
0.0
 10
19.6495393639
 20
4.0285137016
 30
0.0
 10
19.8135471228
 20
4.0262764337
 30
0.0
 10
19.9775619159
 20
4.0243676768
 30
0.0
 10
20.086904937
 20
4.0255861294
 30
0.0
 10
20.1415764458
 20
4.0257048237
 30
0.0
  0
SPLINE
  5
2BF
100
AcDbEntity
  8
0
100
AcDbSpline
 62
7
  6
BYLAYER
 70
0
 71
3
 72
9
 73
5
 74
0
 42
0.0000001
 43
0.0000001
 44
0.0000000001
 40
0.0
 40
0.0
 40
0.0
 40
0.0
 40
0.5132959398
 40
1.0
 40
1.0
 40
1.0
 40
1.0
 10
30.5935802083
 20
5.6330170056
 30
0.0
 10
29.4779493409
 20
5.2785379775
 30
0.0
 10
27.270550507
 20
4.6892270272
 30
0.0
 10
25.0119127756
 20
4.3361333091
 30
0.0
 10
23.9068965892
 20
4.2316062363
 30
0.0
  0
SPLINE
  5
2C0
100
AcDbEntity
  8
0
100
AcDbSpline
 62
7
  6
BYLAYER
 70
0
 71
3
 72
31
 73
27
 74
0
 42
0.0000001
 43
0.0000001
 44
0.0000000001
 40
0.0
 40
0.0
 40
0.0
 40
0.0
 40
0.0120617163
 40
0.0265770638
 40
0.0439323074
 40
0.064288555
 40
0.0876616181
 40
0.1139961912
 40
0.1750920845
 40
0.2095416036
 40
0.246330272
 40
0.3258554176
 40
0.4113582553
 40
0.499999961
 40
0.5886399495
 40
0.6741393623
 40
0.7536652404
 40
0.7904556909
 40
0.8249072679
 40
0.8860076171
 40
0.91234292
 40
0.9357154439
 40
0.9560708159
 40
0.9734247602
 40
0.9879387512
 40
1.0
 40
1.0
 40
1.0
 40
1.0
 10
9.0066209336
 20
37.5456541558
 30
0.0
 10
9.0168077156
 20
37.5489891714
 30
0.0
 10
9.0379411392
 20
37.5603362641
 30
0.0
 10
9.0674549109
 20
37.5861642745
 30
0.0
 10
9.097369891
 20
37.6218337469
 30
0.0
 10
9.1273831057
 20
37.6671628469
 30
0.0
 10
9.1572281869
 20
37.72187687
 30
0.0
 10
9.1983401953
 20
37.8114146765
 30
0.0
 10
9.2347276481
 20
37.9136675554
 30
0.0
 10
9.2671255755
 20
38.0267313781
 30
0.0
 10
9.2986371
 20
38.1569903665
 30
0.0
 10
9.3303979982
 20
38.3336912556
 30
0.0
 10
9.3539808556
 20
38.5580700271
 30
0.0
 10
9.3620612048
 20
38.7916471847
 30
0.0
 10
9.3539818699
 20
39.0252212996
 30
0.0
 10
9.3304005115
 20
39.2495963496
 30
0.0
 10
9.2986381057
 20
39.4262961272
 30
0.0
 10
9.2671263675
 20
39.5565592416
 30
0.0
 10
9.2347249897
 20
39.669629792
 30
0.0
 10
9.1983343538
 20
39.7718882325
 30
0.0
 10
9.157223043
 20
39.8614308756
 30
0.0
 10
9.1273797503
 20
39.9161451731
 30
0.0
 10
9.0973689062
 20
39.9614730016
 30
0.0
 10
9.0674548126
 20
39.9971392828
 30
0.0
 10
9.0379402488
 20
40.0229624663
 30
0.0
 10
9.0168073208
 20
40.0343064283
 30
0.0
 10
9.0066209336
 20
40.0376413147
 30
0.0
  0
SPLINE
  5
2C1
100
AcDbEntity
  8
0
100
AcDbSpline
 62
7
  6
BYLAYER
 70
0
 71
3
 72
19
 73
15
 74
0
 42
0.0000001
 43
0.0000001
 44
0.0000000001
 40
0.0
 40
0.0
 40
0.0
 40
0.0
 40
0.0241286672
 40
0.0531559482
 40
0.0878606002
 40
0.1285614198
 40
0.1752959432
 40
0.2279695376
 40
0.3501614961
 40
0.419079809
 40
0.4926454438
 40
0.6516830101
 40
0.8227567165
 40
1.0
 40
1.0
 40
1.0
 40
1.0
 10
29.4026989879
 20
40.0376413147
 30
0.0
 10
29.3925100049
 20
40.0343055785
 30
0.0
 10
29.3713741214
 20
40.0229617729
 30
0.0
 10
29.3418611312
 20
39.9971343835
 30
0.0
 10
29.3119620025
 20
39.9614635304
 30
0.0
 10
29.2819668225
 20
39.9161384405
 30
0.0
 10
29.2521289059
 20
39.8614305085
 30
0.0
 10
29.2109974478
 20
39.7719061141
 30
0.0
 10
29.1745428792
 20
39.6696653052
 30
0.0
 10
29.1421456631
 20
39.5565972017
 30
0.0
 10
29.1106429262
 20
39.4263378384
 30
0.0
 10
29.0790632692
 20
39.2495816329
 30
0.0
 10
29.05542147
 20
39.0252239668
 30
0.0
 10
29.0498364447
 20
38.8704024917
 30
0.0
 10
29.0498364447
 20
38.7916477352
 30
0.0
  0
SPLINE
  5
2C2
100
AcDbEntity
  8
0
100
AcDbSpline
 62
7
  6
BYLAYER
 70
0
 71
3
 72
18
 73
14
 74
0
 42
0.0000001
 43
0.0000001
 44
0.0000000001
 40
0.0
 40
0.0
 40
0.0
 40
0.0
 40
0.1772562302
 40
0.3483455936
 40
0.5073886043
 40
0.6498423162
 40
0.7720341818
 40
0.8247067474
 40
0.8714381165
 40
0.9121358942
 40
0.9468402375
 40
0.9758693921
 40
1.0
 40
1.0
 40
1.0
 40
1.0
 10
29.0498364447
 20
38.7916477352
 30
0.0
 10
29.0498364447
 20
38.7128895406
 30
0.0
 10
29.0554181681
 20
38.558060882
 30
0.0
 10
29.0790666927
 20
38.3336902333
 30
0.0
 10
29.1160496835
 20
38.126785231
 30
0.0
 10
29.163566007
 20
37.9444330892
 30
0.0
 10
29.2110064954
 20
37.8113766675
 30
0.0
 10
29.2521364197
 20
37.7218544631
 30
0.0
 10
29.2819668788
 20
37.6671487323
 30
0.0
 10
29.3119561173
 20
37.6218248655
 30
0.0
 10
29.3418551951
 20
37.5861562854
 30
0.0
 10
29.3713720375
 20
37.5603324719
 30
0.0
 10
29.3925094848
 20
37.5489900622
 30
0.0
 10
29.4026989879
 20
37.5456541558
 30
0.0
  0
SPLINE
  5
2C3
100
AcDbEntity
  8
0
100
AcDbSpline
 62
7
  6
BYLAYER
 70
0
 71
3
 72
19
 73
15
 74
0
 42
0.0000001
 43
0.0000001
 44
0.0000000001
 40
0.0
 40
0.0
 40
0.0
 40
0.0
 40
0.1192143603
 40
0.1827757502
 40
0.2482137724
 40
0.3150200422
 40
0.3826969489
 40
0.5186000811
 40
0.6518354717
 40
0.7162649531
 40
0.7786524587
 40
0.8386041662
 40
0.8957238464
 40
1.0
 40
1.0
 40
1.0
 40
1.0
 10
11.2695593144
 20
20.4000277818
 30
0.0
 10
11.3630854721
 20
20.3999969865
 30
0.0
 10
11.5064683221
 20
20.3940719446
 30
0.0
 10
11.7007026425
 20
20.3803218997
 30
0.0
 10
11.8537405039
 20
20.3669000409
 30
0.0
 10
12.0097022457
 20
20.3502041337
 30
0.0
 10
12.220102165
 20
20.3230978009
 30
0.0
 10
12.4810798914
 20
20.2812800329
 30
0.0
 10
12.7378452353
 20
20.2303714818
 30
0.0
 10
12.9365952522
 20
20.1842458255
 30
0.0
 10
13.0785761838
 20
20.1480012773
 30
0.0
 10
13.2142577384
 20
20.1103717725
 30
0.0
 10
13.3806508887
 20
20.0607225109
 30
0.0
 10
13.5007949911
 20
20.0203384711
 30
0.0
 10
13.5770377033
 20
19.9906836952
 30
0.0
  0
SPLINE
  5
2C4
100
AcDbEntity
  8
0
100
AcDbSpline
 62
7
  6
BYLAYER
 70
0
 71
3
 72
16
 73
12
 74
0
 42
0.0000001
 43
0.0000001
 44
0.0000000001
 40
0.0
 40
0.0
 40
0.0
 40
0.0
 40
0.0294605643
 40
0.0591706985
 40
0.125497243
 40
0.20940501
 40
0.3162330563
 40
0.44842384
 40
0.6068177507
 40
0.7909694028
 40
1.0
 40
1.0
 40
1.0
 40
1.0
 10
7.0811017926
 20
20.3140712109
 30
0.0
 10
7.0811017926
 20
20.3173628136
 30
0.0
 10
7.0819049973
 20
20.3240076825
 30
0.0
 10
7.0871390906
 20
20.3371739593
 30
0.0
 10
7.1012781178
 20
20.3523250447
 30
0.0
 10
7.1266923146
 20
20.3662019727
 30
0.0
 10
7.1611042649
 20
20.3774451183
 30
0.0
 10
7.204621379
 20
20.3865033536
 30
0.0
 10
7.2571848841
 20
20.3938291535
 30
0.0
 10
7.3186335794
 20
20.3989016727
 30
0.0
 10
7.3625752361
 20
20.4000603761
 30
0.0
 10
7.3859300371
 20
20.4000706599
 30
0.0
  0
SPLINE
  5
2C5
100
AcDbEntity
  8
0
100
AcDbSpline
 62
7
  6
BYLAYER
 70
0
 71
3
 72
16
 73
12
 74
0
 42
0.0000001
 43
0.0000001
 44
0.0000000001
 40
0.0
 40
0.0
 40
0.0
 40
0.0
 40
0.2101478691
 40
0.3949425271
 40
0.5536001774
 40
0.6861691723
 40
0.7934958895
 40
0.8773679221
 40
0.9425496789
 40
0.9713922192
 40
1.0
 40
1.0
 40
1.0
 40
1.0
 10
7.3859300371
 20
20.4000706599
 30
0.0
 10
7.3625877927
 20
20.4000636577
 30
0.0
 10
7.3187167082
 20
20.3997189995
 30
0.0
 10
7.2572571539
 20
20.3972436422
 30
0.0
 10
7.2045951818
 20
20.3919625716
 30
0.0
 10
7.1610668629
 20
20.38346313
 30
0.0
 10
7.1267673723
 20
20.3722275035
 30
0.0
 10
7.1014786959
 20
20.3587455416
 30
0.0
 10
7.0871934174
 20
20.3442286962
 30
0.0
 10
7.0819024656
 20
20.3315074419
 30
0.0
 10
7.0811017926
 20
20.3250900109
 30
0.0
 10
7.0811017926
 20
20.321912392
 30
0.0
  0
SPLINE
  5
2C6
100
AcDbEntity
  8
0
100
AcDbSpline
 62
7
  6
BYLAYER
 70
0
 71
3
 72
15
 73
11
 74
0
 42
0.0000001
 43
0.0000001
 44
0.0000000001
 40
0.0
 40
0.0
 40
0.0
 40
0.0
 40
0.1157580597
 40
0.2347351961
 40
0.3572665951
 40
0.4826512896
 40
0.6101207851
 40
0.739080301
 40
0.8691406587
 40
1.0
 40
1.0
 40
1.0
 40
1.0
 10
12.3774796023
 20
34.1506477347
 30
0.0
 10
12.2933814942
 20
34.135412771
 30
0.0
 10
12.1277797798
 20
34.0741405271
 30
0.0
 10
11.9107206901
 20
33.9213529155
 30
0.0
 10
11.7176086721
 20
33.7301937473
 30
0.0
 10
11.5434058264
 20
33.5141449189
 30
0.0
 10
11.3839728118
 20
33.2814143378
 30
0.0
 10
11.2362122327
 20
33.0371636993
 30
0.0
 10
11.0980613934
 20
32.7845452826
 30
0.0
 10
11.0115113938
 20
32.6123999989
 30
0.0
 10
10.9693095476
 20
32.5254876026
 30
0.0
  0
SPLINE
  5
2C7
100
AcDbEntity
  8
0
100
AcDbSpline
 62
7
  6
BYLAYER
 70
0
 71
3
 72
9
 73
5
 74
0
 42
0.0000001
 43
0.0000001
 44
0.0000000001
 40
0.0
 40
0.0
 40
0.0
 40
0.0
 40
0.5043750705
 40
1.0
 40
1.0
 40
1.0
 40
1.0
 10
14.3614072325
 20
32.3368205077
 30
0.0
 10
14.3614072325
 20
32.370228002
 30
0.0
 10
14.351149498
 20
32.43682375
 30
0.0
 10
14.3227965236
 20
32.4975824588
 30
0.0
 10
14.3055059608
 20
32.5254878186
 30
0.0
  0
SPLINE
  5
2C8
100
AcDbEntity
  8
0
100
AcDbSpline
 62
7
  6
BYLAYER
 70
0
 71
3
 72
14
 73
10
 74
0
 42
0.0000001
 43
0.0000001
 44
0.0000000001
 40
0.0
 40
0.0
 40
0.0
 40
0.0
 40
0.2123233286
 40
0.3286338888
 40
0.4513170935
 40
0.5801043216
 40
0.7147222657
 40
0.8548205063
 40
1.0
 40
1.0
 40
1.0
 40
1.0
 10
7.386016305
 20
19.2374471755
 30
0.0
 10
7.6608626225
 20
19.2383729202
 30
0.0
 10
8.0862741467
 20
19.2358733732
 30
0.0
 10
8.6704828496
 20
19.2325898107
 30
0.0
 10
9.1465651821
 20
19.2309264233
 30
0.0
 10
9.6463473524
 20
19.2299905363
 30
0.0
 10
10.168673794
 20
19.2300304204
 30
0.0
 10
10.7122195194
 20
19.229836743
 30
0.0
 10
11.081504258
 20
19.2283600854
 30
0.0
 10
11.2694312032
 20
19.2270289111
 30
0.0
  0
SPLINE
  5
2C9
100
AcDbEntity
  8
0
100
AcDbSpline
 62
7
  6
BYLAYER
 70
0
 71
3
 72
45
 73
41
 74
0
 42
0.0000001
 43
0.0000001
 44
0.0000000001
 40
0.0
 40
0.0
 40
0.0
 40
0.0
 40
0.1251909042
 40
0.1877865434
 40
0.2503821991
 40
0.3129777572
 40
0.3755730617
 40
0.4381678859
 40
0.5007618972
 40
0.5633545859
 40
0.6259451435
 40
0.6572392651
 40
0.6885322854
 40
0.7198238601
 40
0.7511135033
 40
0.7824005004
 40
0.8136837589
 40
0.8449614946
 40
0.8605974529
 40
0.8762306934
 40
0.8918603402
 40
0.907485062
 40
0.9231027227
 40
0.9387095754
 40
0.9465070234
 40
0.9542985437
 40
0.962081645
 40
0.9698520056
 40
0.9776011001
 40
0.9814626758
 40
0.9853096758
 40
0.9891327464
 40
0.9910300916
 40
0.992911889
 40
0.9947700722
 40
0.9965877426
 40
0.9974745137
 40
0.9983429371
 40
0.9991814981
 40
1.0
 40
1.0
 40
1.0
 40
1.0
 10
12.4014007664
 20
6.3362760405
 30
0.0
 10
12.3757385302
 20
6.8775503228
 30
0.0
 10
12.3360350566
 20
7.6894060654
 30
0.0
 10
12.280387028
 20
8.771743127
 30
0.0
 10
12.2370887763
 20
9.5834152258
 30
0.0
 10
12.1920783059
 20
10.3949928122
 30
0.0
 10
12.145128693
 20
11.206457138
 30
0.0
 10
12.0959710824
 20
12.0177842491
 30
0.0
 10
12.044256926
 20
12.8289415439
 30
0.0
 10
11.9895261618
 20
13.6398828459
 30
0.0
 10
11.9408851926
 20
14.3154413207
 30
0.0
 10
11.8996990468
 20
14.8556995508
 30
0.0
 10
11.8675158925
 20
15.260772993
 30
0.0
 10
11.8338488122
 20
15.6657066018
 30
0.0
 10
11.7984519567
 20
16.0704668846
 30
0.0
 10
11.7610008399
 20
16.4750068481
 30
0.0
 10
11.7210506742
 20
16.8792566235
 30
0.0
 10
11.6851495573
 20
17.2158238107
 30
0.0
 10
11.6543694515
 20
17.4848007976
 30
0.0
 10
11.6300740447
 20
17.6863423763
 30
0.0
 10
11.6043357273
 20
17.8876563128
 30
0.0
 10
11.5768344662
 20
18.0886702991
 30
0.0
 10
11.5471100716
 20
18.2892691767
 30
0.0
 10
11.5199062023
 20
18.4559785892
 30
0.0
 10
11.4960835687
 20
18.5888928969
 30
0.0
 10
11.4769507411
 20
18.6882353752
 30
0.0
 10
11.4562165598
 20
18.7871392372
 30
0.0
 10
11.4333677144
 20
18.8853900918
 30
0.0
 10
11.4118585681
 20
18.9665009583
 30
0.0
 10
11.3923346814
 20
19.0305066244
 30
0.0
 10
11.3761776296
 20
19.0777439576
 30
0.0
 10
11.3609273875
 20
19.1162779635
 30
0.0
 10
11.3470862666
 20
19.1461413805
 30
0.0
 10
11.3356846931
 20
19.1677343495
 30
0.0
 10
11.3229206182
 20
19.188148595
 30
0.0
 10
11.3106107705
 20
19.2037079041
 30
0.0
 10
11.299305726
 20
19.2143024815
 30
0.0
 10
11.2902028299
 20
19.2209452149
 30
0.0
 10
11.2801553274
 20
19.225540167
 30
0.0
 10
11.2729703631
 20
19.2266119033
 30
0.0
 10
11.2694312032
 20
19.2267733984
 30
0.0
  0
LINE
  5
2CA
100
AcDbEntity
  8
0
100
AcDbLine
 62
7
  6
BYLAYER
 10
10.9286112924
 20
32.3368205077
 11
10.9286969674
 21
32.3262982112
  0
SPLINE
  5
2CB
100
AcDbEntity
  8
0
100
AcDbSpline
 62
7
  6
BYLAYER
 70
0
 71
3
 72
9
 73
5
 74
0
 42
0.0000001
 43
0.0000001
 44
0.0000000001
 40
0.0
 40
0.0
 40
0.0
 40
0.0
 40
0.2259063041
 40
1.0
 40
1.0
 40
1.0
 40
1.0
 10
7.386016305
 20
19.2369147235
 30
0.0
 10
7.3842447751
 20
19.2368068464
 30
0.0
 10
7.3764663231
 20
19.2349806164
 30
0.0
 10
7.3703239604
 20
19.2292303691
 30
0.0
 10
7.3664270535
 20
19.224561333
 30
0.0
  0
SPLINE
  5
2CC
100
AcDbEntity
  8
0
100
AcDbSpline
 62
7
  6
BYLAYER
 70
0
 71
3
 72
39
 73
35
 74
0
 42
0.0000001
 43
0.0000001
 44
0.0000000001
 40
0.0
 40
0.0
 40
0.0
 40
0.0
 40
0.0014849313
 40
0.003102273
 40
0.0065470659
 40
0.0101440836
 40
0.0138169068
 40
0.0212828778
 40
0.0288563148
 40
0.0364890477
 40
0.0441610562
 40
0.0518617622
 40
0.0595827688
 40
0.075067362
 40
0.0905945387
 40
0.1061514998
 40
0.1217287426
 40
0.1373228371
 40
0.1529306385
 40
0.1841766289
 40
0.2154523961
 40
0.2467510378
 40
0.278066777
 40
0.3093963024
 40
0.3407374564
 40
0.3720882988
 40
0.4348124368
 40
0.4975599147
 40
0.5603264318
 40
0.6231084782
 40
0.6859030565
 40
0.7487075824
 40
0.8743404209
 40
1.0
 40
1.0
 40
1.0
 40
1.0
 10
7.3664270535
 20
19.224561333
 30
0.0
 10
7.363161159
 20
19.2206483374
 30
0.0
 10
7.357338855
 20
19.2116423806
 30
0.0
 10
7.3478076277
 20
19.1912687171
 30
0.0
 10
7.3381269723
 20
19.1630972976
 30
0.0
 10
7.3286580023
 20
19.1275540475
 30
0.0
 10
7.3175151692
 20
19.0782086217
 30
0.0
 10
7.3056847087
 20
19.0150601312
 30
0.0
 10
7.2940112622
 20
18.9381133183
 30
0.0
 10
7.2837687494
 20
18.8602545435
 30
0.0
 10
7.2746693312
 20
18.7818150112
 30
0.0
 10
7.266483521
 20
18.70297138
 30
0.0
 10
7.2564824673
 20
18.597361204
 30
0.0
 10
7.2453698756
 20
18.4648775536
 30
0.0
 10
7.2337560079
 20
18.3054570206
 30
0.0
 10
7.223449838
 20
18.1456288585
 30
0.0
 10
7.2140888032
 20
17.9855129986
 30
0.0
 10
7.2055907305
 20
17.8251743773
 30
0.0
 10
7.1952195943
 20
17.6110810872
 30
0.0
 10
7.1837583813
 20
17.3431550044
 30
0.0
 10
7.1717919885
 20
17.0213505465
 30
0.0
 10
7.1613172885
 20
16.6992548409
 30
0.0
 10
7.1520191035
 20
16.3769387996
 30
0.0
 10
7.1437302239
 20
16.0544493783
 30
0.0
 10
7.1363189498
 20
15.7318181888
 30
0.0
 10
7.1274528605
 20
15.3014355435
 30
0.0
 10
7.118008996
 20
14.7632455352
 30
0.0
 10
7.1087575748
 20
14.117209385
 30
0.0
 10
7.1012677463
 20
13.4709518141
 30
0.0
 10
7.0952590466
 20
12.8245173211
 30
0.0
 10
7.0905150026
 20
12.1779419578
 30
0.0
 10
7.0856435202
 20
11.3156362787
 30
0.0
 10
7.0819607913
 20
10.237546552
 30
0.0
 10
7.0811017926
 20
9.3750195539
 30
0.0
 10
7.0811017926
 20
8.9437103199
 30
0.0
  0
SPLINE
  5
2CD
100
AcDbEntity
  8
0
100
AcDbSpline
 62
7
  6
BYLAYER
 70
0
 71
3
 72
9
 73
5
 74
0
 42
0.0000001
 43
0.0000001
 44
0.0000000001
 40
0.0
 40
0.0
 40
0.0
 40
0.0
 40
0.4956275395
 40
1.0
 40
1.0
 40
1.0
 40
1.0
 10
24.1038138223
 20
32.5254876026
 30
0.0
 10
24.0865231902
 20
32.4975821317
 30
0.0
 10
24.0581703574
 20
32.4368234354
 30
0.0
 10
24.047912689
 20
32.3702277865
 30
0.0
 10
24.047912689
 20
32.3368205077
 30
0.0
  0
LINE
  5
2CE
100
AcDbEntity
  8
0
100
AcDbLine
 62
7
  6
BYLAYER
 10
8.5334402517
 20
6.3363682731
 11
8.325857708
 21
17.5026486173
  0
LINE
  5
2CF
100
AcDbEntity
  8
0
100
AcDbLine
 62
7
  6
BYLAYER
 10
14.3612889887
 20
32.3262982112
 11
14.3614072325
 21
32.3368205077
  0
SPLINE
  5
2D0
100
AcDbEntity
  8
0
100
AcDbSpline
 62
7
  6
BYLAYER
 70
0
 71
3
 72
9
 73
5
 74
0
 42
0.0000001
 43
0.0000001
 44
0.0000000001
 40
0.0
 40
0.0
 40
0.0
 40
0.0
 40
0.2593769703
 40
1.0
 40
1.0
 40
1.0
 40
1.0
 10
10.2626381356
 20
6.3361824124
 30
0.0
 10
10.2633824842
 20
6.310114422
 30
0.0
 10
10.2719018742
 20
6.2099521086
 30
0.0
 10
10.3024931665
 20
6.1109011287
 30
0.0
 10
10.3389667023
 20
6.0459806406
 30
0.0
  0
SPLINE
  5
2D1
100
AcDbEntity
  8
0
100
AcDbSpline
 62
7
  6
BYLAYER
 70
0
 71
3
 72
9
 73
5
 74
0
 42
0.0000001
 43
0.0000001
 44
0.0000000001
 40
0.0
 40
0.0
 40
0.0
 40
0.0
 40
0.2605869976
 40
1.0
 40
1.0
 40
1.0
 40
1.0
 10
10.3389667023
 20
6.0459806406
 30
0.0
 10
10.3446677336
 20
6.0358331809
 30
0.0
 10
10.3678687279
 20
5.9976702004
 30
0.0
 10
10.3964799772
 20
5.9626462309
 30
0.0
 10
10.4205706005
 20
5.9400546413
 30
0.0
  0
SPLINE
  5
2D2
100
AcDbEntity
  8
0
100
AcDbSpline
 62
7
  6
BYLAYER
 70
0
 71
3
 72
12
 73
8
 74
0
 42
0.0000001
 43
0.0000001
 44
0.0000000001
 40
0.0
 40
0.0
 40
0.0
 40
0.0
 40
0.2473052551
 40
0.4960423558
 40
0.7467581723
 40
0.8730377572
 40
1.0
 40
1.0
 40
1.0
 40
1.0
 10
17.5189326243
 20
4.1528464634
 30
0.0
 10
16.9410204213
 20
4.2117302763
 30
0.0
 10
15.7855374261
 20
4.3699303727
 30
0.0
 10
14.0667323296
 20
4.7261581203
 30
0.0
 10
12.6496660663
 20
5.1208890113
 30
0.0
 10
11.5263050129
 20
5.4946945997
 30
0.0
 10
10.9681440979
 20
5.7007470087
 30
0.0
 10
10.6900975444
 20
5.8085848447
 30
0.0
  0
SPLINE
  5
2D3
100
AcDbEntity
  8
0
100
AcDbSpline
 62
7
  6
BYLAYER
 70
0
 71
3
 72
11
 73
7
 74
0
 42
0.0000001
 43
0.0000001
 44
0.0000000001
 40
0.0
 40
0.0
 40
0.0
 40
0.0
 40
0.24999358
 40
0.5000014989
 40
0.7500071615
 40
1.0
 40
1.0
 40
1.0
 40
1.0
 10
19.2046599607
 20
47.9906477352
 30
0.0
 10
19.4468618074
 20
47.9906477352
 30
0.0
 10
19.9314579887
 20
47.9733088804
 30
0.0
 10
20.6545065437
 20
47.8956982796
 30
0.0
 10
21.3705273407
 20
47.7689844053
 30
0.0
 10
21.8415721302
 20
47.6545180296
 30
0.0
 10
22.0751999796
 20
47.5906477352
 30
0.0
  0
SPLINE
  5
2D4
100
AcDbEntity
  8
0
100
AcDbSpline
 62
7
  6
BYLAYER
 70
0
 71
3
 72
11
 73
7
 74
0
 42
0.0000001
 43
0.0000001
 44
0.0000000001
 40
0.0
 40
0.0
 40
0.0
 40
0.0
 40
0.2499928716
 40
0.499998569
 40
0.7500064527
 40
1.0
 40
1.0
 40
1.0
 40
1.0
 10
16.3341199418
 20
47.5906477352
 30
0.0
 10
16.5677478222
 20
47.6545180381
 30
0.0
 10
17.0387926802
 20
47.7689844142
 30
0.0
 10
17.7548135097
 20
47.8956982754
 30
0.0
 10
18.4778620271
 20
47.9733089429
 30
0.0
 10
18.9624581457
 20
47.9906477352
 30
0.0
 10
19.2046599607
 20
47.9906477352
 30
0.0
  0
LINE
  5
2D5
100
AcDbEntity
  8
0
100
AcDbLine
 62
7
  6
BYLAYER
 10
10.2614028917
 20
6.4026477352
 11
10.0551188879
 21
17.5026489277
  0
SPLINE
  5
2D6
100
AcDbEntity
  8
0
100
AcDbSpline
 62
7
  6
BYLAYER
 70
0
 71
3
 72
14
 73
10
 74
0
 42
0.0000001
 43
0.0000001
 44
0.0000000001
 40
0.0
 40
0.0
 40
0.0
 40
0.0
 40
0.2401146243
 40
0.3537441717
 40
0.466685933
 40
0.5830548368
 40
0.7081900617
 40
0.8465913403
 40
1.0
 40
1.0
 40
1.0
 40
1.0
 10
26.2046599607
 20
47.724847266
 30
0.0
 10
26.2046599607
 20
47.7073236656
 30
0.0
 10
26.2015283288
 20
47.6811105278
 30
0.0
 10
26.1879814622
 20
47.6496269076
 30
0.0
 10
26.1731870645
 20
47.6291599331
 30
0.0
 10
26.1533002937
 20
47.6122192372
 30
0.0
 10
26.1282618874
 20
47.5997388961
 30
0.0
 10
26.0985906296
 20
47.5922062768
 30
0.0
 10
26.0772418858
 20
47.5906477352
 30
0.0
 10
26.0660460993
 20
47.5906477352
 30
0.0
  0
SPLINE
  5
2D7
100
AcDbEntity
  8
0
100
AcDbSpline
 62
7
  6
BYLAYER
 70
0
 71
3
 72
14
 73
10
 74
0
 42
0.0000001
 43
0.0000001
 44
0.0000000001
 40
0.0
 40
0.0
 40
0.0
 40
0.0
 40
0.1534058907
 40
0.2918301426
 40
0.4170072671
 40
0.5333686278
 40
0.6462989954
 40
0.7599209618
 40
1.0
 40
1.0
 40
1.0
 40
1.0
 10
12.3432738221
 20
47.5906477352
 30
0.0
 10
12.3320782735
 20
47.5906477352
 30
0.0
 10
12.3107278315
 20
47.5922087718
 30
0.0
 10
12.2810546396
 20
47.5997479753
 30
0.0
 10
12.2560077886
 20
47.6122204812
 30
0.0
 10
12.2361208076
 20
47.6291652817
 30
0.0
 10
12.2213356464
 20
47.6496361614
 30
0.0
 10
12.207792897
 20
47.6811163721
 30
0.0
 10
12.2046599952
 20
47.7073259593
 30
0.0
 10
12.2046599607
 20
47.7248469067
 30
0.0
  0
SPLINE
  5
2D8
100
AcDbEntity
  8
0
100
AcDbSpline
 62
7
  6
BYLAYER
 70
0
 71
3
 72
13
 73
9
 74
0
 42
0.0000001
 43
0.0000001
 44
0.0000000001
 40
0.0
 40
0.0
 40
0.0
 40
0.0
 40
0.1259896835
 40
0.251976982
 40
0.377873622
 40
0.5035367575
 40
0.7532446881
 40
1.0
 40
1.0
 40
1.0
 40
1.0
 10
12.4014007664
 20
6.3362760405
 30
0.0
 10
12.4030868211
 20
6.3131284624
 30
0.0
 10
12.4123469375
 20
6.2670950504
 30
0.0
 10
12.4410988715
 20
6.2032271293
 30
0.0
 10
12.4803981291
 20
6.145505598
 30
0.0
 10
12.5424713379
 20
6.0768561726
 30
0.0
 10
12.6325607556
 20
6.0048689065
 30
0.0
 10
12.7124022662
 20
5.9595655177
 30
0.0
 10
12.7534318221
 20
5.9400008794
 30
0.0
  0
SPLINE
  5
2D9
100
AcDbEntity
  8
0
100
AcDbSpline
 62
7
  6
BYLAYER
 70
0
 71
3
 72
9
 73
5
 74
0
 42
0.0000001
 43
0.0000001
 44
0.0000000001
 40
0.0
 40
0.0
 40
0.0
 40
0.0
 40
0.5119763152
 40
1.0
 40
1.0
 40
1.0
 40
1.0
 10
12.7534318221
 20
5.9400008794
 30
0.0
 10
12.8211712905
 20
5.9177369629
 30
0.0
 10
12.9539181301
 20
5.8755597799
 30
0.0
 10
13.0881413482
 20
5.8381678947
 30
0.0
 10
13.1541173303
 20
5.8218314345
 30
0.0
  0
SPLINE
  5
2DA
100
AcDbEntity
  8
0
100
AcDbSpline
 62
7
  6
BYLAYER
 70
0
 71
3
 72
10
 73
6
 74
0
 42
0.0000001
 43
0.0000001
 44
0.0000000001
 40
0.0
 40
0.0
 40
0.0
 40
0.0
 40
0.5418651352
 40
0.7825077403
 40
1.0
 40
1.0
 40
1.0
 40
1.0
 10
13.1541173303
 20
5.8218314345
 30
0.0
 10
13.2589720311
 20
5.794174254
 30
0.0
 10
13.4094801364
 20
5.7504039149
 30
0.0
 10
13.5983228521
 20
5.6840448283
 30
0.0
 10
13.6834852432
 20
5.6499654363
 30
0.0
 10
13.7234266061
 20
5.6326688043
 30
0.0
  0
SPLINE
  5
2DB
100
AcDbEntity
  8
0
100
AcDbSpline
 62
7
  6
BYLAYER
 70
0
 71
3
 72
11
 73
7
 74
0
 42
0.0000001
 43
0.0000001
 44
0.0000000001
 40
0.0
 40
0.0
 40
0.0
 40
0.0
 40
0.2599479696
 40
0.5162807945
 40
0.7647728041
 40
1.0
 40
1.0
 40
1.0
 40
1.0
 10
9.3781651426
 20
46.0884633501
 30
0.0
 10
9.3545964243
 20
46.105101413
 30
0.0
 10
9.3075225583
 20
46.1377693775
 30
0.0
 10
9.2378987871
 20
46.1863167289
 30
0.0
 10
9.1696978731
 20
46.2320894787
 30
0.0
 10
9.1242538368
 20
46.2607062889
 30
0.0
 10
9.1017841631
 20
46.2739971551
 30
0.0
  0
LINE
  5
2DC
100
AcDbEntity
  8
0
100
AcDbLine
 62
7
  6
BYLAYER
 10
27.4806229541
 20
32.3262982112
 11
27.4807086291
 21
32.3368205077
  0
SPLINE
  5
2DD
100
AcDbEntity
  8
0
100
AcDbSpline
 62
7
  6
BYLAYER
 70
0
 71
3
 72
12
 73
8
 74
0
 42
0.0000001
 43
0.0000001
 44
0.0000000001
 40
0.0
 40
0.0
 40
0.0
 40
0.0
 40
0.1404541801
 40
0.27455696
 40
0.5272822011
 40
0.7667598079
 40
1.0
 40
1.0
 40
1.0
 40
1.0
 10
29.3075950618
 20
46.2739971551
 30
0.0
 10
29.3267462657
 20
46.2867577192
 30
0.0
 10
29.3625993695
 20
46.3142146295
 30
0.0
 10
29.423549674
 20
46.3757256572
 30
0.0
 10
29.4813470776
 20
46.4619416044
 30
0.0
 10
29.5222047649
 20
46.5746566145
 30
0.0
 10
29.5311666896
 20
46.6524051302
 30
0.0
 10
29.5311666896
 20
46.6906209304
 30
0.0
  0
SPLINE
  5
2DE
100
AcDbEntity
  8
0
100
AcDbSpline
 62
7
  6
BYLAYER
 70
0
 71
3
 72
15
 73
11
 74
0
 42
0.0000001
 43
0.0000001
 44
0.0000000001
 40
0.0
 40
0.0
 40
0.0
 40
0.0
 40
0.2353046993
 40
0.358253596
 40
0.4837786383
 40
0.6112325009
 40
0.7400739972
 40
0.8048637625
 40
0.869817373
 40
1.0
 40
1.0
 40
1.0
 40
1.0
 10
29.307635342
 20
46.2739971551
 30
0.0
 10
29.28519753
 20
46.2606667346
 30
0.0
 10
29.251488925
 20
46.2396001938
 30
0.0
 10
29.2067570614
 20
46.2099638153
 30
0.0
 10
29.1722089129
 20
46.1866167373
 30
0.0
 10
29.1373722968
 20
46.1625352717
 30
0.0
 10
29.1080909585
 20
46.1422626749
 30
0.0
 10
29.084710755
 20
46.1256508328
 30
0.0
 10
29.0612168282
 20
46.1089379848
 30
0.0
 10
29.0429900119
 20
46.0972442948
 30
0.0
 10
29.0311940986
 20
46.0889166741
 30
0.0
  0
LINE
  5
2DF
100
AcDbEntity
  8
0
100
AcDbLine
 62
7
  6
BYLAYER
 10
24.047912689
 20
32.3368205077
 11
24.0480309328
 21
32.3262982112
  0
SPLINE
  5
2E0
100
AcDbEntity
  8
0
100
AcDbSpline
 62
7
  6
BYLAYER
 70
0
 71
3
 72
9
 73
5
 74
0
 42
0.0000001
 43
0.0000001
 44
0.0000000001
 40
0.0
 40
0.0
 40
0.0
 40
0.0
 40
0.4999539716
 40
1.0
 40
1.0
 40
1.0
 40
1.0
 10
17.4358989974
 20
4.0413599538
 30
0.0
 10
17.3748228512
 20
4.0435407514
 30
0.0
 10
17.2526487269
 20
4.0476273741
 30
0.0
 10
17.1305317263
 20
4.0532262013
 30
0.0
 10
17.069485178
 20
4.0563480686
 30
0.0
  0
SPLINE
  5
2E1
100
AcDbEntity
  8
0
100
AcDbSpline
 62
7
  6
BYLAYER
 70
0
 71
3
 72
9
 73
5
 74
0
 42
0.0000001
 43
0.0000001
 44
0.0000000001
 40
0.0
 40
0.0
 40
0.0
 40
0.0
 40
0.4964666545
 40
1.0
 40
1.0
 40
1.0
 40
1.0
 10
14.5135023633
 20
4.3165048681
 30
0.0
 10
13.5706548851
 20
4.4610610366
 30
0.0
 10
11.6865354819
 20
4.8593503743
 30
0.0
 10
9.8574516217
 20
5.4608246875
 30
0.0
 10
8.9555047632
 20
5.8107330137
 30
0.0
  0
SPLINE
  5
2E2
100
AcDbEntity
  8
0
100
AcDbSpline
 62
7
  6
BYLAYER
 70
0
 71
3
 72
9
 73
5
 74
0
 42
0.0000001
 43
0.0000001
 44
0.0000000001
 40
0.0
 40
0.0
 40
0.0
 40
0.0
 40
0.5135341956
 40
1.0
 40
1.0
 40
1.0
 40
1.0
 10
8.5334402517
 20
6.3363682731
 30
0.0
 10
8.5349109196
 20
6.2848806259
 30
0.0
 10
8.5486290312
 20
6.1845947994
 30
0.0
 10
8.5853083343
 20
6.089926264
 30
0.0
 10
8.6090792889
 20
6.0473145331
 30
0.0
  0
SPLINE
  5
2E3
100
AcDbEntity
  8
0
100
AcDbSpline
 62
7
  6
BYLAYER
 70
0
 71
3
 72
9
 73
5
 74
0
 42
0.0000001
 43
0.0000001
 44
0.0000000001
 40
0.0
 40
0.0
 40
0.0
 40
0.0
 40
0.2607162369
 40
1.0
 40
1.0
 40
1.0
 40
1.0
 10
8.6090792889
 20
6.0473145331
 30
0.0
 10
8.6148033835
 20
6.037053541
 30
0.0
 10
8.6380830097
 20
5.9984730964
 30
0.0
 10
8.6668315793
 20
5.9630149891
 30
0.0
 10
8.6911381189
 20
5.9402286553
 30
0.0
  0
SPLINE
  5
2E4
100
AcDbEntity
  8
0
100
AcDbSpline
 62
7
  6
BYLAYER
 70
0
 71
3
 72
21
 73
17
 74
0
 42
0.0000001
 43
0.0000001
 44
0.0000000001
 40
0.0
 40
0.0
 40
0.0
 40
0.0
 40
0.0341638756
 40
0.0681146009
 40
0.1018532052
 40
0.1353816133
 40
0.2018109034
 40
0.2674167846
 40
0.3322159928
 40
0.3962290665
 40
0.4594799319
 40
0.5219951829
 40
0.6449307765
 40
0.7653401333
 40
0.8835649168
 40
1.0
 40
1.0
 40
1.0
 40
1.0
 10
23.9068965892
 20
4.2316062363
 30
0.0
 10
23.7891170237
 20
4.2204650858
 30
0.0
 10
23.5541600471
 20
4.1996149768
 30
0.0
 10
23.2024219626
 20
4.1733564876
 30
0.0
 10
22.8525469071
 20
4.152173149
 30
0.0
 10
22.3900887549
 20
4.1301177514
 30
0.0
 10
21.8168928367
 20
4.1144607116
 30
0.0
 10
21.13518978
 20
4.115516888
 30
0.0
 10
20.4621485757
 20
4.1356254385
 30
0.0
 10
19.7981466495
 20
4.1753976627
 30
0.0
 10
19.1435320325
 20
4.2346440399
 30
0.0
 10
18.2885013278
 20
4.3386584258
 30
0.0
 10
17.2435439189
 20
4.5163424012
 30
0.0
 10
16.0248423595
 20
4.8075610362
 30
0.0
 10
14.8504176308
 20
5.1748226991
 30
0.0
 10
14.0931801293
 20
5.4718802501
 30
0.0
 10
13.7234266061
 20
5.6326688043
 30
0.0
  0
SPLINE
  5
2E5
100
AcDbEntity
  8
0
100
AcDbSpline
 62
7
  6
BYLAYER
 70
0
 71
3
 72
15
 73
11
 74
0
 42
0.0000001
 43
0.0000001
 44
0.0000000001
 40
0.0
 40
0.0
 40
0.0
 40
0.0
 40
0.112595095
 40
0.2308613475
 40
0.3536309475
 40
0.4795698228
 40
0.6077050013
 40
0.7373968768
 40
0.8682553521
 40
1.0
 40
1.0
 40
1.0
 40
1.0
 10
25.7665120361
 20
34.1506477347
 30
0.0
 10
25.6787538937
 20
34.1351297486
 30
0.0
 10
25.5039325635
 20
34.0726858014
 30
0.0
 10
25.2674269243
 20
33.92068088
 30
0.0
 10
25.0474731514
 20
33.7299537131
 30
0.0
 10
24.8412713515
 20
33.514061522
 30
0.0
 10
24.645816696
 20
33.2813611264
 30
0.0
 10
24.4586489445
 20
33.0371086041
 30
0.0
 10
24.2780671902
 20
32.7844653027
 30
0.0
 10
24.1614814586
 20
32.6123670697
 30
0.0
 10
24.1038138223
 20
32.5254876026
 30
0.0
  0
SPLINE
  5
2E6
100
AcDbEntity
  8
0
100
AcDbSpline
 62
7
  6
BYLAYER
 70
0
 71
3
 72
15
 73
11
 74
0
 42
0.0000001
 43
0.0000001
 44
0.0000000001
 40
0.0
 40
0.0
 40
0.0
 40
0.0
 40
0.1308588961
 40
0.2609187999
 40
0.3898776906
 40
0.5173466669
 40
0.6427312125
 40
0.7652627036
 40
0.8842404487
 40
1.0
 40
1.0
 40
1.0
 40
1.0
 10
27.4400102727
 20
32.5254878186
 30
0.0
 10
27.3978085594
 20
32.6123999413
 30
0.0
 10
27.311258568
 20
32.7845445318
 30
0.0
 10
27.1731087483
 20
33.0371623238
 30
0.0
 10
27.025347827
 20
33.2814114433
 30
0.0
 10
26.8659154336
 20
33.5141414385
 30
0.0
 10
26.6917132332
 20
33.7301899912
 30
0.0
 10
26.498604204
 20
33.9213534999
 30
0.0
 10
26.2815401397
 20
34.0741365846
 30
0.0
 10
26.1159383785
 20
34.135412692
 30
0.0
 10
26.0318391434
 20
34.1506477347
 30
0.0
  0
SPLINE
  5
2E7
100
AcDbEntity
  8
0
100
AcDbSpline
 62
7
  6
BYLAYER
 70
0
 71
3
 72
15
 73
11
 74
0
 42
0.0000001
 43
0.0000001
 44
0.0000000001
 40
0.0
 40
0.0
 40
0.0
 40
0.0
 40
0.1317442045
 40
0.2626022306
 40
0.392293522
 40
0.5204282013
 40
0.6463668855
 40
0.7691365257
 40
0.8874034021
 40
1.0
 40
1.0
 40
1.0
 40
1.0
 10
14.3055059608
 20
32.5254878186
 30
0.0
 10
14.2478385049
 20
32.6123670163
 30
0.0
 10
14.1312529125
 20
32.7844645474
 30
0.0
 10
13.9506722068
 20
33.0371072744
 30
0.0
 10
13.7635042693
 20
33.281358209
 30
0.0
 10
13.5680502527
 20
33.5140579814
 30
0.0
 10
13.3618491698
 20
33.729949936
 30
0.0
 10
13.1418981204
 20
33.9206815338
 30
0.0
 10
12.9053876659
 20
34.0726818707
 30
0.0
 10
12.7305660384
 20
34.1351296578
 30
0.0
 10
12.6428066809
 20
34.1506477347
 30
0.0
  0
SPLINE
  5
2E8
100
AcDbEntity
  8
0
100
AcDbSpline
 62
7
  6
BYLAYER
 70
0
 71
3
 72
19
 73
15
 74
0
 42
0.0000001
 43
0.0000001
 44
0.0000000001
 40
0.0
 40
0.0
 40
0.0
 40
0.0
 40
0.1046078646
 40
0.161781119
 40
0.2217036745
 40
0.2840321917
 40
0.3484067007
 40
0.4815613476
 40
0.6174220686
 40
0.6851019621
 40
0.7519122903
 40
0.8173285121
 40
0.8808388233
 40
1.0
 40
1.0
 40
1.0
 40
1.0
 10
13.5770377033
 20
19.9906836952
 30
0.0
 10
13.5010772429
 20
20.0219664521
 30
0.0
 10
13.3819446861
 20
20.066438635
 30
0.0
 10
13.2160878167
 20
20.1194698758
 30
0.0
 10
13.0804962349
 20
20.1578875446
 30
0.0
 10
12.9384345788
 20
20.1939763994
 30
0.0
 10
12.7395284915
 20
20.2396512194
 30
0.0
 10
12.4825556065
 20
20.2902070336
 30
0.0
 10
12.2211382662
 20
20.3303722613
 30
0.0
 10
12.0104654365
 20
20.3567584433
 30
0.0
 10
11.8543479083
 20
20.3733756817
 30
0.0
 10
11.7011608059
 20
20.3862957752
 30
0.0
 10
11.5066298789
 20
20.3974157389
 30
0.0
 10
11.3631380902
 20
20.4000089796
 30
0.0
 10
11.2695593144
 20
20.4000277818
 30
0.0
  0
SPLINE
  5
2E9
100
AcDbEntity
  8
0
100
AcDbSpline
 62
7
  6
BYLAYER
 70
0
 71
3
 72
11
 73
7
 74
0
 42
0.0000001
 43
0.0000001
 44
0.0000000001
 40
0.0
 40
0.0
 40
0.0
 40
0.0
 40
0.252315236
 40
0.5015350767
 40
0.7500100119
 40
1.0
 40
1.0
 40
1.0
 40
1.0
 10
13.8218905716
 20
19.7626474434
 30
0.0
 10
13.9862191909
 20
19.6795432085
 30
0.0
 10
14.3227830544
 20
19.5331170274
 30
0.0
 10
14.8483502354
 20
19.3756716367
 30
0.0
 10
15.3872507245
 20
19.2823206992
 30
0.0
 10
15.7514140218
 20
19.2623385617
 30
0.0
 10
15.9338642339
 20
19.262333104
 30
0.0
  0
ELLIPSE
  5
2EA
100
AcDbEntity
  8
0
100
AcDbEllipse
 62
7
  6
BYLAYER
 10
13.9067894198
 20
64.1292983359
 30
0.0
 11
-0.0
 21
28.7445147379
 31
0.0
 40
0.0174550649
 41
-4.2140612684
 42
-4.1658840692
  0
ELLIPSE
  5
2EB
100
AcDbEntity
  8
0
100
AcDbEllipse
 62
7
  6
BYLAYER
 10
18.4962701684
 20
23.505598463
 30
0.0
 11
-10.8244235791
 21
38.1649578147
 31
0.0
 40
0.2460158605
 41
-4.6680250813
 42
-4.6244924347
  0
ELLIPSE
  5
2EC
100
AcDbEntity
  8
0
100
AcDbEllipse
 62
7
  6
BYLAYER
 10
19.9128813532
 20
23.3754010978
 30
0.0
 11
10.8218513724
 21
38.1558851298
 31
0.0
 40
0.2460158779
 41
-4.5307828036
 42
-4.4885751645
  0
ELLIPSE
  5
2ED
100
AcDbEntity
  8
0
100
AcDbEllipse
 62
7
  6
BYLAYER
 10
19.2046599607
 20
17.0926477352
 30
0.0
 11
-0.0
 21
162.8571428998
 31
0.0
 40
0.0875
 41
1.4896546856
 42
1.4970452765
  0
ELLIPSE
  5
2EE
100
AcDbEntity
  8
0
100
AcDbEllipse
 62
7
  6
BYLAYER
 10
19.2046599607
 20
17.0926477352
 30
0.0
 11
-0.0
 21
162.8571428998
 31
0.0
 40
0.0875
 41
-1.4970452765
 42
-1.4896546856
  0
ELLIPSE
  5
2EF
100
AcDbEntity
  8
0
100
AcDbEllipse
 62
7
  6
BYLAYER
 10
19.2046599607
 20
-168.5112064615
 30
0.0
 11
-0.0
 21
509.8806585133
 31
0.0
 40
0.0174550649
 41
1.1270568421
 42
1.1296610962
  0
ELLIPSE
  5
2F0
100
AcDbEntity
  8
0
100
AcDbEllipse
 62
7
  6
BYLAYER
 10
19.2021062335
 20
42.9920567025
 30
0.0
 11
10.9971135921
 21
-0.0
 31
0.0
 40
1.0
 41
2.5427871874
 42
2.7815134241
  0
ELLIPSE
  5
2F1
100
AcDbEntity
  8
0
100
AcDbEllipse
 62
7
  6
BYLAYER
 10
29.031193493
 20
46.6906209304
 30
0.0
 11
0.4999731966
 21
0.0
 31
0.0
 40
1.0
 41
0.0
 42
0.2182628097
  0
ELLIPSE
  5
2F2
100
AcDbEntity
  8
0
100
AcDbEllipse
 62
7
  6
BYLAYER
 10
19.2021062335
 20
42.9920567025
 30
0.0
 11
10.9971135921
 21
0.0
 31
0.0
 40
1.0
 41
0.3534812045
 42
0.5988054662
  0
ELLIPSE
  5
2F3
100
AcDbEntity
  8
0
100
AcDbEllipse
 62
7
  6
BYLAYER
 10
19.2046599607
 20
-168.5112064615
 30
0.0
 11
-0.0
 21
509.8806585133
 31
0.0
 40
0.0174550649
 41
-1.1296610962
 42
-1.1270568421
  0
ELLIPSE
  5
2F4
100
AcDbEntity
  8
0
100
AcDbEllipse
 62
7
  6
BYLAYER
 10
24.5025213488
 20
64.1295279096
 30
0.0
 11
-0.0
 21
28.7450394449
 31
0.0
 40
0.0174550649
 41
-2.1172994822
 42
-2.0691231986
  0
ELLIPSE
  5
2F5
100
AcDbEntity
  8
0
100
AcDbEllipse
 62
7
  6
BYLAYER
 10
19.9130546531
 20
23.5093881763
 30
0.0
 11
10.8244984526
 21
38.165221805
 31
0.0
 40
0.2460158605
 41
1.7545843694
 42
1.7981173043
  0
ELLIPSE
  5
2F6
100
AcDbEntity
  8
0
100
AcDbEllipse
 62
7
  6
BYLAYER
 10
18.4964434683
 20
23.3716113849
 30
0.0
 11
-10.8217764989
 21
38.1556211395
 31
0.0
 40
0.2460158779
 41
-4.6702069846
 42
-4.6279996211
  0
ELLIPSE
  5
2F7
100
AcDbEntity
  8
0
100
AcDbEllipse
 62
7
  6
BYLAYER
 10
19.2046599607
 20
392.9304175177
 30
0.0
 11
-0.0
 21
509.8806585107
 31
0.0
 40
0.0174550649
 41
-3.9757476901
 42
-3.9725658298
  0
ELLIPSE
  5
2F8
100
AcDbEntity
  8
0
100
AcDbEllipse
 62
7
  6
BYLAYER
 10
9.3782013696
 20
46.6906727901
 30
0.0
 11
0.5000250562
 21
-0.0
 31
0.0
 40
1.0
 41
9.0646643648
 42
10.4098456489
  0
ELLIPSE
  5
2F9
100
AcDbEntity
  8
0
100
AcDbEllipse
 62
7
  6
BYLAYER
 10
19.2046599607
 20
392.9304175177
 30
0.0
 11
-0.0
 21
509.8806585107
 31
0.0
 40
0.0174550649
 41
-2.3106194774
 42
-2.3074376171
  0
ENDSEC
  0
SECTION
  2
OBJECTS
  0
DICTIONARY
  5
C
100
AcDbDictionary
280
0
281
1
  3
ACAD_GROUP
350
D
  3
ACAD_MLINESTYLE
350
17
  3
ACAD_LAYOUT
350
1A
  3
ACAD_PLOTSETTINGS
350
19
  3
ACAD_PLOTSTYLENAME
350
E
  0
DICTIONARY
  5
D
102
{ACAD_REACTORS
330
C
102
}
100
AcDbDictionary
280
0
281
1
  0
ACDBDICTIONARYWDFLT
  5
E
102
{ACAD_REACTORS
330
C
102
}
100
AcDbDictionary
281
1
  3
Normal
350
F
100
AcDbDictionaryWithDefault
340
F
  0
DICTIONARY
  5
17
102
{ACAD_REACTORS
330
C
102
}
100
AcDbDictionary
280
0
281
1
  3
Standard
350
18
  0
DICTIONARY
  5
19
102
{ACAD_REACTORS
330
C
102
}
100
AcDbDictionary
281
1
  0
DICTIONARY
  5
1A
102
{ACAD_REACTORS
330
C
102
}
100
AcDbDictionary
281
1
  3
Model
350
2FA
  3
Layout1
350
2FB
  0
ACDBPLACEHOLDER
  5
F
102
{ACAD_REACTORS
330
E
102
}
  0
MLINESTYLE
  5
18
102
{ACAD_REACTORS
330
17
102
}
100
AcDbMlineStyle
  2
STANDARD
 70
0
  3

 62
256
 51
90.0
 52
90.0
 71
2
 49
0.5
 62
256
  6
BYLAYER
 49
-0.5
 62
256
  6
BYLAYER
  0
LAYOUT
  5
2FA
102
{ACAD_REACTORS
330
1A
102
}
100
AcDbPlotSettings
  1

  2
none_device
  4

  6

 40
0.0
 41
0.0
 42
0.0
 43
0.0
 44
210.0
 45
297.0
 46
0.0
 47
0.0
 48
0.0
 49
0.0
140
0.0
141
0.0
142
1.0
143
1.0
 70
1024
 72
1
 73
0
 74
0
  7

 75
0
147
1.0
148
0.0
149
0.0
100
AcDbLayout
  1
Model
 70
0
 71
0
 10
0.0
 20
0.0
 11
210.0
 21
297.0
 12
0.0
 22
0.0
 32
0.0
 14
0.0
 24
0.0
 34
0.0
 15
0.0
 25
0.0
 35
0.0
146
0.0
 13
0.0
 23
0.0
 33
0.0
 16
1.0
 26
0.0
 36
0.0
 17
0.0
 27
1.0
 37
0.0
 76
0
330
210
345
0
346
0
  0
LAYOUT
  5
2FB
102
{ACAD_REACTORS
330
1A
102
}
100
AcDbPlotSettings
  1

  2
none_device
  4

  6

 40
0.0
 41
0.0
 42
0.0
 43
0.0
 44
210.0
 45
297.0
 46
0.0
 47
0.0
 48
0.0
 49
0.0
140
0.0
141
0.0
142
1.0
143
1.0
 70
0
 72
1
 73
0
 74
0
  7

 75
0
147
1.0
148
0.0
149
0.0
100
AcDbLayout
  1
Layout1
 70
0
 71
1
 10
0.0
 20
0.0
 11
210.0
 21
297.0
 12
0.0
 22
0.0
 32
0.0
 14
0.0
 24
0.0
 34
0.0
 15
0.0
 25
0.0
 35
0.0
146
0.0
 13
0.0
 23
0.0
 33
0.0
 16
1.0
 26
0.0
 36
0.0
 17
0.0
 27
1.0
 37
0.0
 76
0
330
211
345
0
346
0
  0
ENDSEC
  0
EOF
