999
DXF file: C:\Users\sesa63760\Dev\_Creo\CAD\MCADID0004821_3D-CAD\drw0001_5.dxf
999
Pro/ENGINEER 2019471 by Parametric Technology Corporation
  0
SECTION
  2
HEADER
  9
$ACADVER
  1
AC1024
  9
$DWGCODEPAGE
  3
ANSI_1252
  9
$EXTMAX
 10
64.7931352857
 20
91.6360056183
 30
0.0
  9
$EXTMIN
 10
0.0
 20
0.0
 30
0.0
  9
$LIMMIN
 10
0.0
 20
0.0
  9
$LIMMAX
 10
64.7931352857
 20
91.6360056183
  9
$VIEWCTR
 10
32.3965676428
 20
45.8180028092
  9
$VIEWSIZE
 40
91.6360056183
  9
$CLAYER
  8
0
  9
$LTSCALE
 40
5.9733099959
  9
$CELTYPE
  6
BYLAYER
  9
$DIMSCALE
 40
1.0
  9
$DIMASZ
 40
0.7713468486
  9
$DIMEXO
 40
1.0
  9
$DIMDLI
 40
4.127014179
  9
$DIMEXE
 40
1.0
  9
$DIMCEN
 40
0.9774507266
  9
$DIMLFAC
 40
1.0
  9
$DIMBLK
  1
_FILLED
  9
$DIMALT
 70
0
  9
$DIMALTF
 40
0.0393700787
  9
$DIMTXT
 40
1.0798855881
  9
$DIMTOL
 70
1
  9
$DIMLIM
 70
0
  9
$DIMTFAC
 40
1.0
  9
$DIMTP
 40
0.01
  9
$DIMTM
 40
0.01
  9
$DIMGAP
 40
0.625
  9
$DIMDSEP
 70
46
  9
$AUNITS
 70
0
  9
$PDMODE
 70
3
  9
$PDSIZE
 40
0.3125
  9
$HANDSEED
  5
2F6
  9
$TILEMODE
 70
1
  9
$MEASUREMENT
 70
1
  9
$INSUNITS
 70
4
  0
ENDSEC
  0
SECTION
  2
CLASSES
  0
CLASS
  1
ACDBDICTIONARYWDFLT
  2
AcDbDictionaryWithDefault
  3
AutoCAD 2000
 90
0
 91
1
280
0
281
0
  0
CLASS
  1
ACDBPLACEHOLDER
  2
AcDbPlaceHolder
  3
AutoCAD 2000
 90
0
 91
1
280
0
281
0
  0
CLASS
  1
LAYOUT
  2
AcDbLayout
  3
AutoCAD 2000
 90
0
 91
0
280
0
281
0
  0
ENDSEC
  0
SECTION
  2
TABLES
  0
TABLE
  2
VPORT
  5
8
100
AcDbSymbolTable
 70
2
  0
VPORT
  5
1F4
100
AcDbSymbolTableRecord
100
AcDbViewportTableRecord
  2
*ACTIVE
 70
0
 10
0.0
 20
0.0
 11
1.0
 21
1.0
 12
32.3965676428
 22
45.8180028092
 13
0.0
 23
0.0
 14
1.0
 24
1.0
 15
0.0
 25
0.0
 16
0.0
 26
0.0
 36
1.0
 17
0.0
 27
0.0
 37
0.0
 40
91.6360056183
 41
0.7070707071
 42
50.0
 43
0.0
 44
0.0
 50
0.0
 51
0.0
 71
0
 72
100
 73
1
 74
1
 75
0
 76
0
 77
0
 78
0
  0
ENDTAB
  0
TABLE
  2
LTYPE
  5
5
100
AcDbSymbolTable
 70
6
  0
LTYPE
  5
14
100
AcDbSymbolTableRecord
100
AcDbLinetypeTableRecord
  2
BYBLOCK
 70
0
  3

 72
65
 73
0
 40
0.0
  0
LTYPE
  5
15
100
AcDbSymbolTableRecord
100
AcDbLinetypeTableRecord
  2
BYLAYER
 70
0
  3

 72
65
 73
0
 40
0.0
  0
LTYPE
  5
16
100
AcDbSymbolTableRecord
100
AcDbLinetypeTableRecord
  2
CONTINUOUS
 70
64
  3
Solid line
 72
65
 73
0
 40
0.0
  0
LTYPE
  5
1F5
100
AcDbSymbolTableRecord
100
AcDbLinetypeTableRecord
  2
CENTER
 70
64
  3
____ _ ____ _ ____ _ ____ _ ____ _ ____ _ ____
 72
65
 73
4
 40
0.6
 49
0.375
 74
0
 49
-0.075
 74
0
 49
0.075
 74
0
 49
-0.075
 74
0
  0
LTYPE
  5
1F6
100
AcDbSymbolTableRecord
100
AcDbLinetypeTableRecord
  2
HIDDEN
 70
64
  3
- - - - - - - - - - - - - - - - - - - -
 72
65
 73
2
 40
0.2
 49
0.1
 74
0
 49
-0.1
 74
0
  0
LTYPE
  5
1F7
100
AcDbSymbolTableRecord
100
AcDbLinetypeTableRecord
  2
PHANTOM
 70
64
  3
_____ _ _ _____ _ _ _____ _ _ _____
 72
65
 73
6
 40
0.8
 49
0.45
 74
0
 49
-0.05
 74
0
 49
0.1
 74
0
 49
-0.05
 74
0
 49
0.1
 74
0
 49
-0.05
 74
0
  0
LTYPE
  5
1F8
100
AcDbSymbolTableRecord
100
AcDbLinetypeTableRecord
  2
DOT
 70
64
  3
. . . . . . . . . . . . . . . . . . . .
 72
65
 73
2
 40
0.2
 49
0.1
 74
0
 49
-0.1
 74
0
  0
LTYPE
  5
1F9
100
AcDbSymbolTableRecord
100
AcDbLinetypeTableRecord
  2
DASHED
 70
64
  3
- - - - - - - - - - - - - - - - - - - -
 72
65
 73
2
 40
0.2
 49
0.1
 74
0
 49
-0.1
 74
0
  0
ENDTAB
  0
TABLE
  2
LAYER
  5
2
100
AcDbSymbolTable
 70
36
  0
LAYER
  5
10
100
AcDbSymbolTableRecord
100
AcDbLayerTableRecord
  2
0
 70
0
 62
7
  6
CONTINUOUS
370
-3
390
F
  0
LAYER
  5
1FA
100
AcDbSymbolTableRecord
100
AcDbLayerTableRecord
  2
DEFAULT_1
 70
0
 62
7
  6
CENTER
370
-3
390
F
  0
LAYER
  5
1FB
100
AcDbSymbolTableRecord
100
AcDbLayerTableRecord
  2
DEFAULT_2
 70
0
 62
7
  6
HIDDEN
370
-3
390
F
  0
LAYER
  5
1FC
100
AcDbSymbolTableRecord
100
AcDbLayerTableRecord
  2
DEFAULT_3
 70
0
 62
7
  6
PHANTOM
370
-3
390
F
  0
LAYER
  5
1FD
100
AcDbSymbolTableRecord
100
AcDbLayerTableRecord
  2
00_COMPONENTS
 70
0
 62
7
  6
CONTINUOUS
370
-3
390
F
  0
LAYER
  5
1FE
100
AcDbSymbolTableRecord
100
AcDbLayerTableRecord
  2
01_1_DEFAULT_DATUMS
 70
0
 62
7
  6
CONTINUOUS
370
-3
390
F
  0
LAYER
  5
1FF
100
AcDbSymbolTableRecord
100
AcDbLayerTableRecord
  2
01_PLANES
 70
0
 62
7
  6
CONTINUOUS
370
-3
390
F
  0
LAYER
  5
200
100
AcDbSymbolTableRecord
100
AcDbLayerTableRecord
  2
02_COORD_SYS
 70
0
 62
7
  6
CONTINUOUS
370
-3
390
F
  0
LAYER
  5
201
100
AcDbSymbolTableRecord
100
AcDbLayerTableRecord
  2
03_AXES
 70
0
 62
7
  6
CONTINUOUS
370
-3
390
F
  0
LAYER
  5
202
100
AcDbSymbolTableRecord
100
AcDbLayerTableRecord
  2
04_POINTS
 70
0
 62
7
  6
CONTINUOUS
370
-3
390
F
  0
LAYER
  5
203
100
AcDbSymbolTableRecord
100
AcDbLayerTableRecord
  2
05_CURVES
 70
0
 62
7
  6
CONTINUOUS
370
-3
390
F
  0
LAYER
  5
204
100
AcDbSymbolTableRecord
100
AcDbLayerTableRecord
  2
06_SURFS
 70
0
 62
7
  6
CONTINUOUS
370
-3
390
F
  0
LAYER
  5
205
100
AcDbSymbolTableRecord
100
AcDbLayerTableRecord
  2
07_COSMETICS
 70
0
 62
7
  6
CONTINUOUS
370
-3
390
F
  0
LAYER
  5
206
100
AcDbSymbolTableRecord
100
AcDbLayerTableRecord
  2
10_NOTES
 70
0
 62
7
  6
CONTINUOUS
370
-3
390
F
  0
LAYER
  5
207
100
AcDbSymbolTableRecord
100
AcDbLayerTableRecord
  2
11_NOTES_PUB
 70
0
 62
7
  6
CONTINUOUS
370
-3
390
F
  0
LAYER
  5
208
100
AcDbSymbolTableRecord
100
AcDbLayerTableRecord
  2
13_REF_GTOL
 70
0
 62
7
  6
CONTINUOUS
370
-3
390
F
  0
LAYER
  5
209
100
AcDbSymbolTableRecord
100
AcDbLayerTableRecord
  2
16_MISC
 70
0
 62
7
  6
CONTINUOUS
370
-3
390
F
  0
LAYER
  5
20A
100
AcDbSymbolTableRecord
100
AcDbLayerTableRecord
  2
17_NO_PRINT
 70
0
 62
7
  6
CONTINUOUS
370
-3
390
F
  0
LAYER
  5
20B
100
AcDbSymbolTableRecord
100
AcDbLayerTableRecord
  2
18_DATUM_CAMS_JOINTS
 70
0
 62
7
  6
CONTINUOUS
370
-3
390
F
  0
LAYER
  5
20C
100
AcDbSymbolTableRecord
100
AcDbLayerTableRecord
  2
19_DATUM_FUNCTIONAL
 70
0
 62
7
  6
CONTINUOUS
370
-3
390
F
  0
LAYER
  5
20D
100
AcDbSymbolTableRecord
100
AcDbLayerTableRecord
  2
20_DATUM_KINEMATIC_SCHEME
 70
0
 62
7
  6
CONTINUOUS
370
-3
390
F
  0
ENDTAB
  0
TABLE
  2
STYLE
  5
3
100
AcDbSymbolTable
 70
1
  0
STYLE
  5
11
100
AcDbSymbolTableRecord
100
AcDbTextStyleTableRecord
  2
STANDARD
 70
0
 40
0.0
 41
1.0
 50
0.0
 71
0
 42
0.2
  3
ARIAL.TTF
  4

  0
STYLE
  5
20E
100
AcDbSymbolTableRecord
100
AcDbTextStyleTableRecord
  2
TEXTSTYLE_1
 70
0
 40
0.0
 41
0.8
 50
0.0
 71
0
 42
0.2
  3
gdt
  4

  0
ENDTAB
  0
TABLE
  2
VIEW
  5
6
100
AcDbSymbolTable
 70
0
  0
ENDTAB
  0
TABLE
  2
UCS
  5
7
100
AcDbSymbolTable
 70
0
  0
ENDTAB
  0
TABLE
  2
APPID
  5
9
100
AcDbSymbolTable
 70
1
  0
APPID
  5
20F
100
AcDbSymbolTableRecord
100
AcDbRegAppTableRecord
  2
ACAD
 70
0
  0
ENDTAB
  0
TABLE
  2
BLOCK_RECORD
  5
1
100
AcDbSymbolTable
 70
0
  0
BLOCK_RECORD
  5
210
100
AcDbSymbolTableRecord
100
AcDbBlockTableRecord
  2
*Model_Space
  0
BLOCK_RECORD
  5
211
100
AcDbSymbolTableRecord
100
AcDbBlockTableRecord
  2
*Paper_Space
  0
BLOCK_RECORD
  5
212
100
AcDbSymbolTableRecord
100
AcDbBlockTableRecord
  2
_FILLED
  0
ENDTAB
  0
TABLE
  2
DIMSTYLE
  5
A
100
AcDbSymbolTable
 70
1
100
AcDbDimStyleTable
 71
0
  0
DIMSTYLE
105
213
100
AcDbSymbolTableRecord
100
AcDbDimStyleTableRecord
  2
STANDARD
 70
0
  3

  4

 40
1.0
 41
0.7713468486
 42
1.0
 43
0.38
 44
1.0
 45
0.0
 46
0.0
 47
0.01
 48
0.01
140
1.0798855881
141
0.09
142
0.0
143
25.4
144
1.0
145
0.0
146
1.0
147
0.625
 71
1
 72
0
 73
0
 74
0
 75
0
 76
0
 77
1
 78
8
 79
2
170
0
171
1
172
0
173
0
174
0
175
0
176
0
177
0
178
0
270
2
179
2
271
2
272
2
273
2
274
2
275
0
280
0
281
0
282
0
283
1
284
8
285
0
286
0
287
3
288
0
340
11
278
46
341
212
342
212
343
212
344
212
  0
ENDTAB
  0
ENDSEC
  0
SECTION
  2
BLOCKS
  0
BLOCK
  5
20
100
AcDbEntity
  8
0
100
AcDbBlockBegin
  2
*Model_Space
 70
0
 10
0.0
 20
0.0
 30
0.0
  3
*Model_Space
  1

  0
ENDBLK
  5
21
100
AcDbEntity
  8
0
100
AcDbBlockEnd
  0
BLOCK
  5
1C
100
AcDbEntity
  8
0
100
AcDbBlockBegin
  2
*Paper_Space
 70
0
 10
0.0
 20
0.0
 30
0.0
  3
*Paper_Space
  1

  0
ENDBLK
  5
1D
100
AcDbEntity
  8
0
100
AcDbBlockEnd
  0
BLOCK
  5
214
100
AcDbEntity
  8
0
100
AcDbBlockBegin
  2
_FILLED
 70
64
 10
0.0
 20
0.0
  3
_FILLED
  1

  0
SOLID
  5
215
100
AcDbEntity
  8
0
  6
BYBLOCK
 62
0
100
AcDbTrace
 10
0.0
 20
0.0
 11
-1.0
 21
0.25
 12
-1.0
 22
-0.25
 13
-1.0
 23
-0.25
  0
ENDBLK
  5
216
100
AcDbEntity
  8
0
  6
BYBLOCK
 62
0
100
AcDbBlockEnd
  0
ENDSEC
  0
SECTION
  2
ENTITIES
  0
LINE
  5
217
100
AcDbEntity
  8
0
100
AcDbLine
 62
7
  6
BYLAYER
 10
7.5527790939
 20
38.1301703043
 11
7.5527790939
 21
54.1300372805
  0
LINE
  5
218
100
AcDbEntity
  8
0
100
AcDbLine
 62
7
  6
BYLAYER
 10
8.4777790939
 20
38.1301149089
 11
8.4777790939
 21
54.1300926759
  0
LINE
  5
219
100
AcDbEntity
  8
0
100
AcDbLine
 62
7
  6
BYLAYER
 10
9.4951303244
 20
38.0301037924
 11
9.4951303244
 21
37.7301037924
  0
LINE
  5
21A
100
AcDbEntity
  8
0
100
AcDbLine
 62
7
  6
BYLAYER
 10
9.6214989494
 20
37.7301037924
 11
9.6214989494
 21
38.0301037924
  0
LINE
  5
21B
100
AcDbEntity
  8
0
100
AcDbLine
 62
7
  6
BYLAYER
 10
10.1953638127
 20
53.7454327197
 11
10.1953638127
 21
38.5147748994
  0
LINE
  5
21C
100
AcDbEntity
  8
0
100
AcDbLine
 62
7
  6
BYLAYER
 10
10.6818970173
 20
38.8301038046
 11
10.6818970061
 21
53.430103927
  0
LINE
  5
21D
100
AcDbEntity
  8
0
100
AcDbLine
 62
7
  6
BYLAYER
 10
18.4777795974
 20
38.142496639
 11
18.4777796091
 21
38.1371744687
  0
LINE
  5
21E
100
AcDbEntity
  8
0
100
AcDbLine
 62
7
  6
BYLAYER
 10
18.4777785783
 20
54.1176984969
 11
18.4777785649
 21
54.1230196886
  0
LINE
  5
21F
100
AcDbEntity
  8
0
100
AcDbLine
 62
7
  6
BYLAYER
 10
8.4774975454
 20
38.146244813
 11
7.5527790939
 21
38.1301037924
  0
LWPOLYLINE
  5
220
100
AcDbEntity
  8
0
100
AcDbPolyline
 62
7
  6
BYLAYER
 90
4
 70
0
 10
17.6711405381
 20
38.1300805987
 10
17.9035316447
 20
38.1317972045
 10
18.2411642646
 20
38.1360100027
 10
18.4777792392
 20
38.1371838345
  0
LINE
  5
221
100
AcDbEntity
  8
0
100
AcDbLine
 62
7
  6
BYLAYER
 10
9.0994447382
 20
37.7301037924
 11
14.2933800418
 21
37.7301037924
  0
LINE
  5
222
100
AcDbEntity
  8
0
100
AcDbLine
 62
7
  6
BYLAYER
 10
9.0994447382
 20
38.0301037924
 11
13.9643328146
 21
38.0301037924
  0
LINE
  5
223
100
AcDbEntity
  8
0
100
AcDbLine
 62
7
  6
BYLAYER
 10
8.4777790939
 20
38.1301037924
 11
17.6711679228
 21
38.1301037924
  0
LINE
  5
224
100
AcDbEntity
  8
0
100
AcDbLine
 62
7
  6
BYLAYER
 10
17.7514909466
 20
38.1301037924
 11
58.1777515578
 21
38.1301037924
  0
LINE
  5
225
100
AcDbEntity
  8
0
100
AcDbLine
 62
7
  6
BYLAYER
 10
10.1373058947
 20
38.4301037924
 11
8.5249350921
 21
38.4301037924
  0
LINE
  5
226
100
AcDbEntity
  8
0
100
AcDbLine
 62
7
  6
BYLAYER
 10
53.4777689963
 20
38.8301031806
 11
10.6818970173
 21
38.8301038046
  0
LWPOLYLINE
  5
227
100
AcDbEntity
  8
0
100
AcDbPolyline
 62
7
  6
BYLAYER
 90
4
 70
0
 10
18.4777796091
 20
38.1371744689
 10
18.7055883486
 20
38.1360954715
 10
19.0431902384
 20
38.1319061778
 10
19.2844200427
 20
38.1300754592
  0
LINE
  5
228
100
AcDbEntity
  8
0
100
AcDbLine
 62
7
  6
BYLAYER
 10
52.9135477175
 20
39.2568987118
 11
58.2635486094
 21
39.2568987117
  0
LINE
  5
229
100
AcDbEntity
  8
0
100
AcDbLine
 62
7
  6
BYLAYER
 10
58.4635486094
 20
39.4568987117
 11
55.2135486094
 21
39.4568987117
  0
LINE
  5
22A
100
AcDbEntity
  8
0
100
AcDbLine
 62
7
  6
BYLAYER
 10
54.8527790939
 20
39.6301037924
 11
53.3527790939
 21
39.6301037924
  0
LINE
  5
22B
100
AcDbEntity
  8
0
100
AcDbLine
 62
7
  6
BYLAYER
 10
51.3879302182
 20
39.6301037924
 11
47.0527790939
 21
39.6301037924
  0
LINE
  5
22C
100
AcDbEntity
  8
0
100
AcDbLine
 62
7
  6
BYLAYER
 10
47.0527790939
 20
39.8801037924
 11
46.9527753583
 21
39.8801037924
  0
LINE
  5
22D
100
AcDbEntity
  8
0
100
AcDbLine
 62
7
  6
BYLAYER
 10
54.9610706464
 20
40.2468987117
 11
55.7135486094
 21
40.2468987117
  0
LINE
  5
22E
100
AcDbEntity
  8
0
100
AcDbLine
 62
7
  6
BYLAYER
 10
55.9135486094
 20
40.4468987117
 11
55.3705402427
 21
40.4468987117
  0
LINE
  5
22F
100
AcDbEntity
  8
0
100
AcDbLine
 62
7
  6
BYLAYER
 10
58.4777790939
 20
39.0847250476
 11
46.9277790939
 21
39.125042317
  0
LINE
  5
230
100
AcDbEntity
  8
0
100
AcDbLine
 62
7
  6
BYLAYER
 10
51.2927790939
 20
43.8801308196
 11
50.9221542111
 21
43.8613646719
  0
LINE
  5
231
100
AcDbEntity
  8
0
100
AcDbLine
 62
7
  6
BYLAYER
 10
52.0430648317
 20
43.8801037924
 11
52.9027520667
 21
43.8801037924
  0
LINE
  5
232
100
AcDbEntity
  8
0
100
AcDbLine
 62
7
  6
BYLAYER
 10
51.2927790939
 20
43.8801308196
 11
50.9254541146
 21
43.8801308196
  0
LINE
  5
233
100
AcDbEntity
  8
0
100
AcDbLine
 62
7
  6
BYLAYER
 10
52.8127790939
 20
43.9301308196
 11
52.0430648317
 21
43.9301308196
  0
LINE
  5
234
100
AcDbEntity
  8
0
100
AcDbLine
 62
7
  6
BYLAYER
 10
53.1135486091
 20
44.0068987117
 11
54.0829497622
 21
44.0068987117
  0
LINE
  5
235
100
AcDbEntity
  8
0
100
AcDbLine
 62
7
  6
BYLAYER
 10
50.7829062967
 20
44.1301037924
 11
49.8382394982
 21
44.1301037924
  0
LINE
  5
236
100
AcDbEntity
  8
0
100
AcDbLine
 62
7
  6
BYLAYER
 10
54.1635486094
 20
44.2068987117
 11
53.3515676407
 21
44.2068998001
  0
LINE
  5
237
100
AcDbEntity
  8
0
100
AcDbLine
 62
7
  6
BYLAYER
 10
48.8059778832
 20
44.7301037924
 11
48.9163058711
 21
44.7301037924
  0
LINE
  5
238
100
AcDbEntity
  8
0
100
AcDbLine
 62
7
  6
BYLAYER
 10
49.3843948815
 20
44.7301037924
 11
49.4528061212
 21
44.7301037924
  0
LINE
  5
239
100
AcDbEntity
  8
0
100
AcDbLine
 62
7
  6
BYLAYER
 10
49.4528061212
 20
44.7701037924
 11
50.5481954088
 21
44.7701037924
  0
LINE
  5
23A
100
AcDbEntity
  8
0
100
AcDbLine
 62
7
  6
BYLAYER
 10
49.4528061212
 20
45.4301037924
 11
49.0240610599
 21
45.4301037924
  0
LINE
  5
23B
100
AcDbEntity
  8
0
100
AcDbLine
 62
7
  6
BYLAYER
 10
52.8127790939
 20
45.4301308196
 11
50.9528061212
 21
45.4301308196
  0
LINE
  5
23C
100
AcDbEntity
  8
0
100
AcDbLine
 62
7
  6
BYLAYER
 10
52.4527790939
 20
45.5301037924
 11
52.7135486094
 21
45.5301037924
  0
LINE
  5
23D
100
AcDbEntity
  8
0
100
AcDbLine
 62
7
  6
BYLAYER
 10
52.7135486094
 20
46.0154773554
 11
53.1983962829
 21
46.0154773554
  0
LINE
  5
23E
100
AcDbEntity
  8
0
100
AcDbLine
 62
7
  6
BYLAYER
 10
53.3833666572
 20
46.2983200679
 11
52.7384950515
 21
46.2983200679
  0
LINE
  5
23F
100
AcDbEntity
  8
0
100
AcDbLine
 62
7
  6
BYLAYER
 10
50.8527790939
 20
46.3533270971
 11
51.3430068364
 21
46.3533270971
  0
LINE
  5
240
100
AcDbEntity
  8
0
100
AcDbLine
 62
7
  6
BYLAYER
 10
51.3417757298
 20
46.7068804877
 11
50.8527790939
 21
46.7068804877
  0
LINE
  5
241
100
AcDbEntity
  8
0
100
AcDbLine
 62
7
  6
BYLAYER
 10
52.7135486094
 20
47.2983200679
 11
53.1527520667
 21
47.2983200679
  0
LINE
  5
242
100
AcDbEntity
  8
0
100
AcDbLine
 62
7
  6
BYLAYER
 10
53.1527520667
 20
47.4397414241
 11
52.7135486094
 21
47.4397414241
  0
LINE
  5
243
100
AcDbEntity
  8
0
100
AcDbLine
 62
7
  6
BYLAYER
 10
52.4527790939
 20
47.5301037924
 11
52.7135486094
 21
47.5301037924
  0
LINE
  5
244
100
AcDbEntity
  8
0
100
AcDbLine
 62
7
  6
BYLAYER
 10
52.6788044977
 20
47.6300767652
 11
50.9528061212
 21
47.6300767652
  0
LINE
  5
245
100
AcDbEntity
  8
0
100
AcDbLine
 62
7
  6
BYLAYER
 10
49.0236196409
 20
47.6301037924
 11
49.4528061212
 21
47.6301037924
  0
LINE
  5
246
100
AcDbEntity
  8
0
100
AcDbLine
 62
7
  6
BYLAYER
 10
50.5481954088
 20
48.2901037924
 11
49.4528061212
 21
48.2901037924
  0
LINE
  5
247
100
AcDbEntity
  8
0
100
AcDbLine
 62
7
  6
BYLAYER
 10
49.4528061212
 20
48.3301037924
 11
49.3841710646
 21
48.3301037924
  0
LINE
  5
248
100
AcDbEntity
  8
0
100
AcDbLine
 62
7
  6
BYLAYER
 10
48.9164250282
 20
48.3301037924
 11
48.8000877737
 21
48.3301037924
  0
LINE
  5
249
100
AcDbEntity
  8
0
100
AcDbLine
 62
7
  6
BYLAYER
 10
53.5267351319
 20
48.506897858
 11
54.1635486094
 21
48.5068987117
  0
LINE
  5
24A
100
AcDbEntity
  8
0
100
AcDbLine
 62
7
  6
BYLAYER
 10
54.1635486094
 20
48.7068987117
 11
53.4565809879
 21
48.7068987117
  0
LINE
  5
24B
100
AcDbEntity
  8
0
100
AcDbLine
 62
7
  6
BYLAYER
 10
49.8365940381
 20
48.9301037924
 11
50.7829062967
 21
48.9301037924
  0
LINE
  5
24C
100
AcDbEntity
  8
0
100
AcDbLine
 62
7
  6
BYLAYER
 10
53.3226518911
 20
48.9301037924
 11
54.1635486094
 21
48.9301037924
  0
LINE
  5
24D
100
AcDbEntity
  8
0
100
AcDbLine
 62
7
  6
BYLAYER
 10
52.8127790939
 20
49.1300767652
 11
52.0418175379
 21
49.1300767652
  0
LINE
  5
24E
100
AcDbEntity
  8
0
100
AcDbLine
 62
7
  6
BYLAYER
 10
50.9254541146
 20
49.1800767652
 11
51.2932445706
 21
49.1800767652
  0
LINE
  5
24F
100
AcDbEntity
  8
0
100
AcDbLine
 62
7
  6
BYLAYER
 10
52.0418175379
 20
49.1801037924
 11
52.9027520667
 21
49.1801037924
  0
LINE
  5
250
100
AcDbEntity
  8
0
100
AcDbLine
 62
7
  6
BYLAYER
 10
51.29324482
 20
49.1800531837
 11
50.9221542111
 21
49.198842913
  0
LINE
  5
251
100
AcDbEntity
  8
0
100
AcDbLine
 62
7
  6
BYLAYER
 10
46.9527772224
 20
39.880105664
 11
46.9277790939
 21
39.9051037924
  0
LINE
  5
252
100
AcDbEntity
  8
0
100
AcDbLine
 62
7
  6
BYLAYER
 10
58.4777790939
 20
53.1754825373
 11
54.2362175359
 21
53.1606766342
  0
LINE
  5
253
100
AcDbEntity
  8
0
100
AcDbLine
 62
7
  6
BYLAYER
 10
46.9277790939
 20
53.1351652678
 11
49.8241387681
 21
53.1452755114
  0
LINE
  5
254
100
AcDbEntity
  8
0
100
AcDbLine
 62
7
  6
BYLAYER
 10
55.2135486094
 20
52.8568987117
 11
58.4635486094
 21
52.8568987117
  0
LINE
  5
255
100
AcDbEntity
  8
0
100
AcDbLine
 62
7
  6
BYLAYER
 10
54.8527790939
 20
53.0568987117
 11
58.2635486094
 21
53.0568987117
  0
LWPOLYLINE
  5
256
100
AcDbEntity
  8
0
100
AcDbPolyline
 62
7
  6
BYLAYER
 90
4
 70
0
 10
19.2844176203
 20
54.1301322396
 10
19.0522469364
 20
54.1284089501
 10
18.7146144452
 20
54.1241945404
 10
18.4777788294
 20
54.1230317824
  0
LINE
  5
257
100
AcDbEntity
  8
0
100
AcDbLine
 62
7
  6
BYLAYER
 10
10.6818970061
 20
53.430103927
 11
51.3715849335
 21
53.4301037924
  0
LINE
  5
258
100
AcDbEntity
  8
0
100
AcDbLine
 62
7
  6
BYLAYER
 10
53.3527790939
 20
53.430104582
 11
53.4777793257
 21
53.4301045839
  0
LINE
  5
259
100
AcDbEntity
  8
0
100
AcDbLine
 62
7
  6
BYLAYER
 10
8.5249350921
 20
53.8301037924
 11
10.1373057449
 21
53.8301037924
  0
LINE
  5
25A
100
AcDbEntity
  8
0
100
AcDbLine
 62
7
  6
BYLAYER
 10
8.4777790939
 20
54.1301037924
 11
17.6711655285
 21
54.1301037924
  0
LINE
  5
25B
100
AcDbEntity
  8
0
100
AcDbLine
 62
7
  6
BYLAYER
 10
17.6759761033
 20
54.1301037924
 11
19.2427910761
 21
54.1301037924
  0
LINE
  5
25C
100
AcDbEntity
  8
0
100
AcDbLine
 62
7
  6
BYLAYER
 10
19.2843933258
 20
54.1301037924
 11
58.1777515506
 21
54.1301037924
  0
LWPOLYLINE
  5
25D
100
AcDbEntity
  8
0
100
AcDbPolyline
 62
7
  6
BYLAYER
 90
4
 70
0
 10
18.4777785649
 20
54.1230196886
 10
18.2503800574
 20
54.124105607
 10
17.9127788391
 20
54.1282881595
 10
17.6711377581
 20
54.1301408894
  0
LINE
  5
25E
100
AcDbEntity
  8
0
100
AcDbLine
 62
7
  6
BYLAYER
 10
8.4774973514
 20
54.1139627752
 11
7.5527790939
 21
54.1301037924
  0
LINE
  5
25F
100
AcDbEntity
  8
0
100
AcDbLine
 62
7
  6
BYLAYER
 10
52.7135486092
 20
39.4568976718
 11
52.9135477175
 21
39.2568987118
  0
LINE
  5
260
100
AcDbEntity
  8
0
100
AcDbLine
 62
7
  6
BYLAYER
 10
46.9277790939
 20
53.1351652678
 11
46.9277790939
 21
51.2139696491
  0
LINE
  5
261
100
AcDbEntity
  8
0
100
AcDbLine
 62
7
  6
BYLAYER
 10
46.9277790939
 20
41.8412999329
 11
46.9277790939
 21
39.125042317
  0
LINE
  5
262
100
AcDbEntity
  8
0
100
AcDbLine
 62
7
  6
BYLAYER
 10
46.9527772224
 20
39.8801037998
 11
46.9527772239
 21
41.8181767425
  0
LINE
  5
263
100
AcDbEntity
  8
0
100
AcDbLine
 62
7
  6
BYLAYER
 10
46.9527772314
 20
51.2373953091
 11
46.9527772329
 21
53.1351652678
  0
LINE
  5
264
100
AcDbEntity
  8
0
100
AcDbLine
 62
7
  6
BYLAYER
 10
47.0527790939
 20
39.6301037924
 11
47.0527790939
 21
41.7256753319
  0
LINE
  5
265
100
AcDbEntity
  8
0
100
AcDbLine
 62
7
  6
BYLAYER
 10
47.0527790939
 20
51.3311066759
 11
47.0527790939
 21
53.4301037924
  0
LINE
  5
266
100
AcDbEntity
  8
0
100
AcDbLine
 62
7
  6
BYLAYER
 10
49.4528061212
 20
44.6396615083
 11
49.4528061212
 21
45.7701037924
  0
LINE
  5
267
100
AcDbEntity
  8
0
100
AcDbLine
 62
7
  6
BYLAYER
 10
49.4528061212
 20
47.2901037924
 11
49.4528061212
 21
48.4211270966
  0
LINE
  5
268
100
AcDbEntity
  8
0
100
AcDbLine
 62
7
  6
BYLAYER
 10
49.5527790939
 20
46.1432080062
 11
49.5527790939
 21
46.9169995786
  0
LINE
  5
269
100
AcDbEntity
  8
0
100
AcDbLine
 62
7
  6
BYLAYER
 10
50.8527790939
 20
46.1434097401
 11
50.8527790939
 21
46.9167978447
  0
LINE
  5
26A
100
AcDbEntity
  8
0
100
AcDbLine
 62
7
  6
BYLAYER
 10
50.9528061212
 20
47.7115572234
 11
50.9528061212
 21
47.2901037924
  0
LINE
  5
26B
100
AcDbEntity
  8
0
100
AcDbLine
 62
7
  6
BYLAYER
 10
50.9528061212
 20
45.3486503615
 11
50.9528061212
 21
45.7701037924
  0
LINE
  5
26C
100
AcDbEntity
  8
0
100
AcDbLine
 62
7
  6
BYLAYER
 10
52.0430648317
 20
43.885807936
 11
52.04277778
 21
43.8944651176
  0
LINE
  5
26D
100
AcDbEntity
  8
0
100
AcDbLine
 62
7
  6
BYLAYER
 10
51.8127790939
 20
47.858511891
 11
51.8127790939
 21
47.6300767652
  0
LINE
  5
26E
100
AcDbEntity
  8
0
100
AcDbLine
 62
7
  6
BYLAYER
 10
51.8127790939
 20
45.4301308196
 11
51.8127790939
 21
45.2002322093
  0
LINE
  5
26F
100
AcDbEntity
  8
0
100
AcDbLine
 62
7
  6
BYLAYER
 10
51.9135486094
 20
50.1540853261
 11
51.9135486094
 21
50.2356540865
  0
LINE
  5
270
100
AcDbEntity
  8
0
100
AcDbLine
 62
7
  6
BYLAYER
 10
52.0427790939
 20
49.1465009396
 11
52.0427790939
 21
48.3800767652
  0
LINE
  5
271
100
AcDbEntity
  8
0
100
AcDbLine
 62
7
  6
BYLAYER
 10
52.0427790939
 20
43.8943798024
 11
52.0427790939
 21
44.6801308196
  0
LINE
  5
272
100
AcDbEntity
  8
0
100
AcDbLine
 62
7
  6
BYLAYER
 10
52.2527790939
 20
47.6301037924
 11
52.2527790939
 21
47.2511187869
  0
LINE
  5
273
100
AcDbEntity
  8
0
100
AcDbLine
 62
7
  6
BYLAYER
 10
52.2527790939
 20
45.8089634978
 11
52.2527790939
 21
45.4301037924
  0
LINE
  5
274
100
AcDbEntity
  8
0
100
AcDbLine
 62
7
  6
BYLAYER
 10
52.2527790939
 20
43.8801037924
 11
52.2527790939
 21
43.9301308196
  0
LINE
  5
275
100
AcDbEntity
  8
0
100
AcDbLine
 62
7
  6
BYLAYER
 10
52.2527790939
 20
49.1300767652
 11
52.2527790939
 21
49.1801037924
  0
LINE
  5
276
100
AcDbEntity
  8
0
100
AcDbLine
 62
7
  6
BYLAYER
 10
52.4527790939
 20
45.5301037924
 11
52.4527790939
 21
45.9314515688
  0
LINE
  5
277
100
AcDbEntity
  8
0
100
AcDbLine
 62
7
  6
BYLAYER
 10
52.4527790939
 20
47.1279839416
 11
52.4527790939
 21
47.5301037924
  0
LINE
  5
278
100
AcDbEntity
  8
0
100
AcDbLine
 62
7
  6
BYLAYER
 10
52.7135486094
 20
49.1801037924
 11
52.7135486094
 21
49.1300767652
  0
LINE
  5
279
100
AcDbEntity
  8
0
100
AcDbLine
 62
7
  6
BYLAYER
 10
52.7135486094
 20
43.9301308196
 11
52.7135486094
 21
43.8801037924
  0
LINE
  5
27A
100
AcDbEntity
  8
0
100
AcDbLine
 62
7
  6
BYLAYER
 10
52.7135486094
 20
45.4301308196
 11
52.7135486094
 21
46.2440547296
  0
LINE
  5
27B
100
AcDbEntity
  8
0
100
AcDbLine
 62
7
  6
BYLAYER
 10
52.7135486094
 20
46.8156113563
 11
52.7135486094
 21
47.6300767652
  0
LINE
  5
27C
100
AcDbEntity
  8
0
100
AcDbLine
 62
7
  6
BYLAYER
 10
52.7135486094
 20
50.1389512347
 11
52.7135486094
 21
50.3616574078
  0
LINE
  5
27D
100
AcDbEntity
  8
0
100
AcDbLine
 62
7
  6
BYLAYER
 10
52.9027520667
 20
49.6412606396
 11
52.9027520667
 21
49.1801037924
  0
LINE
  5
27E
100
AcDbEntity
  8
0
100
AcDbLine
 62
7
  6
BYLAYER
 10
52.9027520667
 20
43.8801037924
 11
52.9027520667
 21
43.4197395602
  0
LINE
  5
27F
100
AcDbEntity
  8
0
100
AcDbLine
 62
7
  6
BYLAYER
 10
53.1527520667
 20
47.5716732662
 11
53.1527520667
 21
47.2901037924
  0
LINE
  5
280
100
AcDbEntity
  8
0
100
AcDbLine
 62
7
  6
BYLAYER
 10
53.1527520667
 20
45.3486503615
 11
53.1527520667
 21
45.7701037924
  0
LINE
  5
281
100
AcDbEntity
  8
0
100
AcDbLine
 62
7
  6
BYLAYER
 10
52.0260505203
 20
43.6505520754
 11
52.0430648317
 21
43.885807936
  0
LWPOLYLINE
  5
282
100
AcDbEntity
  8
0
100
AcDbPolyline
 62
7
  6
BYLAYER
 90
4
 70
0
 10
52.0260505203
 20
43.6505520754
 10
52.0303924279
 20
43.6767985073
 10
52.0439059555
 20
43.8013616074
 10
52.0430648317
 20
43.885807936
  0
LINE
  5
283
100
AcDbEntity
  8
0
100
AcDbLine
 62
7
  6
BYLAYER
 10
53.4777731258
 20
39.1021784317
 11
53.4777689963
 21
38.8301031806
  0
LINE
  5
284
100
AcDbEntity
  8
0
100
AcDbLine
 62
7
  6
BYLAYER
 10
54.1656921552
 20
44.0582826503
 11
54.1656921552
 21
45.1060136446
  0
LINE
  5
285
100
AcDbEntity
  8
0
100
AcDbLine
 62
7
  6
BYLAYER
 10
54.1656921552
 20
46.433523435
 11
54.1656921552
 21
46.6260136446
  0
LINE
  5
286
100
AcDbEntity
  8
0
100
AcDbLine
 62
7
  6
BYLAYER
 10
54.1656921552
 20
47.953523435
 11
54.1656921552
 21
49.0032523374
  0
LINE
  5
287
100
AcDbEntity
  8
0
100
AcDbLine
 62
7
  6
BYLAYER
 10
54.8527790939
 20
53.1628288488
 11
54.8527790939
 21
52.8644591846
  0
LINE
  5
288
100
AcDbEntity
  8
0
100
AcDbLine
 62
7
  6
BYLAYER
 10
54.8527790939
 20
40.1940051374
 11
54.8527790939
 21
39.6301037924
  0
LINE
  5
289
100
AcDbEntity
  8
0
100
AcDbLine
 62
7
  6
BYLAYER
 10
55.2135486094
 20
39.2568987117
 11
55.2135486094
 21
40.2468987117
  0
LINE
  5
28A
100
AcDbEntity
  8
0
100
AcDbLine
 62
7
  6
BYLAYER
 10
55.2135486094
 20
52.8568987117
 11
55.2135486094
 21
53.0568987117
  0
LINE
  5
28B
100
AcDbEntity
  8
0
100
AcDbLine
 62
7
  6
BYLAYER
 10
55.7135486094
 20
40.6144366045
 11
55.7135486094
 21
40.2468987117
  0
LINE
  5
28C
100
AcDbEntity
  8
0
100
AcDbLine
 62
7
  6
BYLAYER
 10
55.9135486094
 20
40.4468987117
 11
55.9135486094
 21
40.7121239551
  0
LINE
  5
28D
100
AcDbEntity
  8
0
100
AcDbLine
 62
7
  6
BYLAYER
 10
56.9277790939
 20
53.1701172104
 11
56.9277790939
 21
53.0568987117
  0
LINE
  5
28E
100
AcDbEntity
  8
0
100
AcDbLine
 62
7
  6
BYLAYER
 10
56.9277790939
 20
39.2568987117
 11
56.9277790939
 21
39.0900904803
  0
LINE
  5
28F
100
AcDbEntity
  8
0
100
AcDbLine
 62
7
  6
BYLAYER
 10
58.4635486094
 20
39.4568987117
 11
58.4635486094
 21
43.7967217089
  0
LINE
  5
290
100
AcDbEntity
  8
0
100
AcDbLine
 62
7
  6
BYLAYER
 10
58.4635486094
 20
49.2742140794
 11
58.4635486094
 21
52.8568987117
  0
LINE
  5
291
100
AcDbEntity
  8
0
100
AcDbLine
 62
7
  6
BYLAYER
 10
58.4777790939
 20
38.4301037924
 11
58.4777790939
 21
39.0847250476
  0
LINE
  5
292
100
AcDbEntity
  8
0
100
AcDbLine
 62
7
  6
BYLAYER
 10
58.4777790939
 20
53.1754825373
 11
58.4777790939
 21
53.8301037924
  0
LINE
  5
293
100
AcDbEntity
  8
0
100
AcDbLine
 62
7
  6
BYLAYER
 10
58.5527790939
 20
43.9528272763
 11
58.5527790939
 21
43.5187413495
  0
ARC
  5
294
100
AcDbEntity
  8
0
100
AcDbCircle
 62
7
  6
BYLAYER
 10
-57.0229835119
 20
45.8636594741
 40
66.0302496466
100
AcDbArc
 50
6.7740367397
 51
6.929525354
  0
ARC
  5
295
100
AcDbEntity
  8
0
100
AcDbCircle
 62
7
  6
BYLAYER
 10
-56.224592231
 20
45.9607314116
 40
65.2259819017
100
AcDbArc
 50
5.2815647708
 51
6.7720859109
  0
ARC
  5
296
100
AcDbEntity
  8
0
100
AcDbCircle
 62
7
  6
BYLAYER
 10
-56.1850846193
 20
46.2959077113
 40
65.1863292596
100
AcDbArc
 50
353.0694322827
 51
353.2269022655
  0
ARC
  5
297
100
AcDbEntity
  8
0
100
AcDbCircle
 62
7
  6
BYLAYER
 10
-56.0307661269
 20
46.27900132
 40
65.031093871
100
AcDbArc
 50
353.2256585985
 51
354.7206148861
  0
ARC
  5
298
100
AcDbEntity
  8
0
100
AcDbCircle
 62
7
  6
BYLAYER
 10
-55.2923447907
 20
46.0505184901
 40
64.2894276231
100
AcDbArc
 50
4.2094138581
 51
5.2783632463
  0
ARC
  5
299
100
AcDbEntity
  8
0
100
AcDbCircle
 62
7
  6
BYLAYER
 10
-55.0968090301
 20
46.1934754834
 40
64.0932293169
100
AcDbArc
 50
354.7199242815
 51
355.792420713
  0
ARC
  5
29A
100
AcDbEntity
  8
0
100
AcDbCircle
 62
7
  6
BYLAYER
 10
-54.3133500993
 20
46.1211828799
 40
63.3078869415
100
AcDbArc
 50
0.0080737277
 51
4.2106686487
  0
ARC
  5
29B
100
AcDbEntity
  8
0
100
AcDbCircle
 62
7
  6
BYLAYER
 10
-54.1336293286
 20
46.1324047545
 40
63.1281655842
100
AcDbArc
 50
355.7835601801
 51
359.9979116228
  0
ARC
  5
29C
100
AcDbEntity
  8
0
100
AcDbCircle
 62
7
  6
BYLAYER
 10
46.6937236328
 20
-56.2804020968
 40
95.3334645097
100
AcDbArc
 50
84.3803186934
 51
85.2789040692
  0
ARC
  5
29D
100
AcDbEntity
  8
0
100
AcDbCircle
 62
7
  6
BYLAYER
 10
49.2028061212
 20
44.1301037924
 40
1.75
100
AcDbArc
 50
335.5887901498
 51
356.1827862659
  0
CIRCLE
  5
29E
100
AcDbEntity
  8
0
100
AcDbCircle
 62
7
  6
BYLAYER
 10
51.2927790939
 20
44.6801308196
 40
0.75
  0
CIRCLE
  5
29F
100
AcDbEntity
  8
0
100
AcDbCircle
 62
7
  6
BYLAYER
 10
52.8127790939
 20
44.6801308196
 40
0.75
  0
ARC
  5
2A0
100
AcDbEntity
  8
0
100
AcDbCircle
 62
7
  6
BYLAYER
 10
52.4527790939
 20
45.1301037924
 40
0.4
100
AcDbArc
 50
90.0
 51
119.3898493955
  0
ARC
  5
2A1
100
AcDbEntity
  8
0
100
AcDbCircle
 62
7
  6
BYLAYER
 10
58.2527790939
 20
43.5187384072
 40
0.3
100
AcDbArc
 50
313.7243540988
 51
360.0
  0
ARC
  5
2A2
100
AcDbEntity
  8
0
100
AcDbCircle
 62
7
  6
BYLAYER
 10
58.1777790939
 20
38.4301037924
 40
0.3
100
AcDbArc
 50
269.9969733807
 51
360.0
  0
ARC
  5
2A3
100
AcDbEntity
  8
0
100
AcDbCircle
 62
7
  6
BYLAYER
 10
49.2028061212
 20
44.1301037924
 40
0.25
100
AcDbArc
 50
299.9563249583
 51
324.5369180348
  0
ARC
  5
2A4
100
AcDbEntity
  8
0
100
AcDbCircle
 62
7
  6
BYLAYER
 10
52.9027520667
 20
44.1301037924
 40
0.25
100
AcDbArc
 50
270.0
 51
326.4799892947
  0
ARC
  5
2A5
100
AcDbEntity
  8
0
100
AcDbCircle
 62
7
  6
BYLAYER
 10
8.773522151
 20
38.3817081035
 40
0.2484412444
100
AcDbArc
 50
220.5849941584
 51
228.8304039737
  0
ARC
  5
2A6
100
AcDbEntity
  8
0
100
AcDbCircle
 62
7
  6
BYLAYER
 10
58.2635486094
 20
39.4568987117
 40
0.2
100
AcDbArc
 50
270.0
 51
360.0
  0
ARC
  5
2A7
100
AcDbEntity
  8
0
100
AcDbCircle
 62
7
  6
BYLAYER
 10
55.7135486094
 20
40.4468987117
 40
0.2
100
AcDbArc
 50
270.0
 51
360.0
  0
ARC
  5
2A8
100
AcDbEntity
  8
0
100
AcDbCircle
 62
7
  6
BYLAYER
 10
13.9626439788
 20
38.1301443553
 40
0.1009434591
100
AcDbArc
 50
340.2705247756
 51
359.9769763887
  0
CIRCLE
  5
2A9
100
AcDbEntity
  8
0
100
AcDbCircle
 62
7
  6
BYLAYER
 10
50.2028061212
 20
47.2901037924
 40
0.75
  0
CIRCLE
  5
2AA
100
AcDbEntity
  8
0
100
AcDbCircle
 62
7
  6
BYLAYER
 10
50.2028061212
 20
45.7701037924
 40
0.75
  0
ARC
  5
2AB
100
AcDbEntity
  8
0
100
AcDbCircle
 62
7
  6
BYLAYER
 10
49.2028061212
 20
48.9301037924
 40
1.75
100
AcDbArc
 50
33.0528751944
 51
34.6502603578
  0
ARC
  5
2AC
100
AcDbEntity
  8
0
100
AcDbCircle
 62
7
  6
BYLAYER
 10
49.2028061212
 20
48.9301037924
 40
1.75
100
AcDbArc
 50
3.8172137341
 51
24.4331778781
  0
ARC
  5
2AD
100
AcDbEntity
  8
0
100
AcDbCircle
 62
7
  6
BYLAYER
 10
49.2028061212
 20
48.9301037924
 40
0.25
100
AcDbArc
 50
36.0804334266
 51
62.3338950617
  0
CIRCLE
  5
2AE
100
AcDbEntity
  8
0
100
AcDbCircle
 62
7
  6
BYLAYER
 10
52.0527790939
 20
46.5301037924
 40
7.0
  0
CIRCLE
  5
2AF
100
AcDbEntity
  8
0
100
AcDbCircle
 62
7
  6
BYLAYER
 10
52.0527790939
 20
46.5301037924
 40
5.8048029087
  0
CIRCLE
  5
2B0
100
AcDbEntity
  8
0
100
AcDbCircle
 62
7
  6
BYLAYER
 10
52.0527790939
 20
46.5301037924
 40
5.3225985456
  0
CIRCLE
  5
2B1
100
AcDbEntity
  8
0
100
AcDbCircle
 62
7
  6
BYLAYER
 10
52.0527790939
 20
46.5301037924
 40
4.725
  0
ARC
  5
2B2
100
AcDbEntity
  8
0
100
AcDbCircle
 62
7
  6
BYLAYER
 10
52.0135486094
 20
46.1568987117
 40
3.8
100
AcDbArc
 50
11.8779755133
 51
19.2866666207
  0
CIRCLE
  5
2B3
100
AcDbEntity
  8
0
100
AcDbCircle
 62
7
  6
BYLAYER
 10
52.0527790939
 20
46.5301037924
 40
3.725
  0
CIRCLE
  5
2B4
100
AcDbEntity
  8
0
100
AcDbCircle
 62
7
  6
BYLAYER
 10
52.0527790939
 20
46.5301037924
 40
3.65
  0
CIRCLE
  5
2B5
100
AcDbEntity
  8
0
100
AcDbCircle
 62
7
  6
BYLAYER
 10
52.0527790939
 20
46.5301037924
 40
3.27
  0
CIRCLE
  5
2B6
100
AcDbEntity
  8
0
100
AcDbCircle
 62
7
  6
BYLAYER
 10
52.0527790939
 20
46.5301037924
 40
0.75
  0
CIRCLE
  5
2B7
100
AcDbEntity
  8
0
100
AcDbCircle
 62
7
  6
BYLAYER
 10
51.2927790939
 20
48.3800767652
 40
0.75
  0
ARC
  5
2B8
100
AcDbEntity
  8
0
100
AcDbCircle
 62
7
  6
BYLAYER
 10
52.4527790939
 20
47.9301037924
 40
0.4
100
AcDbArc
 50
240.6060180693
 51
270.0
  0
ARC
  5
2B9
100
AcDbEntity
  8
0
100
AcDbCircle
 62
7
  6
BYLAYER
 10
46.767605226
 20
147.7502782427
 40
94.5397055458
100
AcDbArc
 50
274.7160223753
 51
275.6220246501
  0
ARC
  5
2BA
100
AcDbEntity
  8
0
100
AcDbCircle
 62
7
  6
BYLAYER
 10
52.7135486094
 20
46.3568987117
 40
1.3
100
AcDbArc
 50
59.565927269
 51
81.1501169016
  0
ARC
  5
2BB
100
AcDbEntity
  8
0
100
AcDbCircle
 62
7
  6
BYLAYER
 10
52.7135486094
 20
46.3568987117
 40
1.3
100
AcDbArc
 50
11.320808901
 51
12.7636093091
  0
CIRCLE
  5
2BC
100
AcDbEntity
  8
0
100
AcDbCircle
 62
7
  6
BYLAYER
 10
53.9027520667
 20
47.2901037924
 40
0.75
  0
CIRCLE
  5
2BD
100
AcDbEntity
  8
0
100
AcDbCircle
 62
7
  6
BYLAYER
 10
52.8127790939
 20
48.3800767652
 40
0.75
  0
CIRCLE
  5
2BE
100
AcDbEntity
  8
0
100
AcDbCircle
 62
7
  6
BYLAYER
 10
53.9027520667
 20
45.7701037924
 40
0.75
  0
ARC
  5
2BF
100
AcDbEntity
  8
0
100
AcDbCircle
 62
7
  6
BYLAYER
 10
58.1777790939
 20
53.8301037924
 40
0.3
100
AcDbArc
 50
0.0
 51
90.0030271986
  0
ARC
  5
2C0
100
AcDbEntity
  8
0
100
AcDbCircle
 62
7
  6
BYLAYER
 10
52.9027520667
 20
48.9301037924
 40
0.25
100
AcDbArc
 50
33.5200107053
 51
90.0
  0
ARC
  5
2C1
100
AcDbEntity
  8
0
100
AcDbCircle
 62
7
  6
BYLAYER
 10
58.2635486094
 20
52.8568987117
 40
0.2
100
AcDbArc
 50
0.0
 51
90.0
  0
SPLINE
  5
2C2
100
AcDbEntity
  8
0
100
AcDbSpline
 62
7
  6
BYLAYER
 70
0
 71
3
 72
10
 73
6
 74
0
 42
0.0000001
 43
0.0000001
 44
0.0000000001
 40
0.0
 40
0.0
 40
0.0
 40
0.0
 40
0.2444560153
 40
0.4937680879
 40
1.0
 40
1.0
 40
1.0
 40
1.0
 10
51.9050401112
 20
49.7776425586
 30
0.0
 10
51.929149742
 20
49.7299212642
 30
0.0
 10
51.9721201464
 20
49.6304474771
 30
0.0
 10
52.0326158182
 20
49.4199096963
 30
0.0
 10
52.0474159235
 20
49.2527281498
 30
0.0
 10
52.0418169236
 20
49.1421500324
 30
0.0
  0
SPLINE
  5
2C3
100
AcDbEntity
  8
0
100
AcDbSpline
 62
7
  6
BYLAYER
 70
0
 71
3
 72
11
 73
7
 74
0
 42
0.0000001
 43
0.0000001
 44
0.0000000001
 40
0.0
 40
0.0
 40
0.0
 40
0.0
 40
0.2490801826
 40
0.4989390494
 40
0.7493448413
 40
1.0
 40
1.0
 40
1.0
 40
1.0
 10
51.3898263438
 20
49.1800767652
 30
0.0
 10
51.3818149268
 20
49.1804551147
 30
0.0
 10
51.365753534
 20
49.1809788247
 30
0.0
 10
51.3416220166
 20
49.1808658457
 30
0.0
 10
51.3174468632
 20
49.1804268957
 30
0.0
 10
51.3013141455
 20
49.1802028577
 30
0.0
 10
51.2932445664
 20
49.1800482535
 30
0.0
  0
SPLINE
  5
2C4
100
AcDbEntity
  8
0
100
AcDbSpline
 62
7
  6
BYLAYER
 70
0
 71
3
 72
9
 73
5
 74
0
 42
0.0000001
 43
0.0000001
 44
0.0000000001
 40
0.0
 40
0.0
 40
0.0
 40
0.0
 40
0.4980437229
 40
1.0
 40
1.0
 40
1.0
 40
1.0
 10
51.4554596653
 20
49.1789130921
 30
0.0
 10
51.4445609318
 20
49.1790036596
 30
0.0
 10
51.4226741461
 20
49.1786978455
 30
0.0
 10
51.4007979756
 20
49.1795404604
 30
0.0
 10
51.3898263438
 20
49.1800767652
 30
0.0
  0
SPLINE
  5
2C5
100
AcDbEntity
  8
0
100
AcDbSpline
 62
7
  6
BYLAYER
 70
0
 71
3
 72
12
 73
8
 74
0
 42
0.0000001
 43
0.0000001
 44
0.0000000001
 40
0.0
 40
0.0
 40
0.0
 40
0.0
 40
0.0587492638
 40
0.1404525264
 40
0.3659170586
 40
0.6596582807
 40
1.0
 40
1.0
 40
1.0
 40
1.0
 10
52.017434294
 20
49.1672913671
 30
0.0
 10
52.0064283209
 20
49.1674911037
 30
0.0
 10
51.9801253879
 20
49.168381583
 30
0.0
 10
51.9116087803
 20
49.1708282597
 30
0.0
 10
51.7990522032
 20
49.1738455084
 30
0.0
 10
51.6380102273
 20
49.1757713478
 30
0.0
 10
51.5192269194
 20
49.1783831922
 30
0.0
 10
51.4554596653
 20
49.1789130921
 30
0.0
  0
LINE
  5
2C6
100
AcDbEntity
  8
0
100
AcDbLine
 62
7
  6
BYLAYER
 10
52.0274385307
 20
49.1674716962
 11
52.0209624943
 21
49.1673310577
  0
LINE
  5
2C7
100
AcDbEntity
  8
0
100
AcDbLine
 62
7
  6
BYLAYER
 10
52.0209624943
 20
49.1673310577
 11
52.017434294
 21
49.1672913671
  0
SPLINE
  5
2C8
100
AcDbEntity
  8
0
100
AcDbSpline
 62
7
  6
BYLAYER
 70
0
 71
3
 72
10
 73
6
 74
0
 42
0.0000001
 43
0.0000001
 44
0.0000000001
 40
0.0
 40
0.0
 40
0.0
 40
0.0
 40
0.5612739319
 40
0.7820199603
 40
1.0
 40
1.0
 40
1.0
 40
1.0
 10
52.0274385307
 20
49.1674716962
 30
0.0
 10
52.0300840264
 20
49.1675326631
 30
0.0
 10
52.0338104658
 20
49.16718506
 30
0.0
 10
52.0383125286
 20
49.1656201302
 30
0.0
 10
52.0398726108
 20
49.1641108491
 30
0.0
 10
52.0404032631
 20
49.1632307555
 30
0.0
  0
SPLINE
  5
2C9
100
AcDbEntity
  8
0
100
AcDbSpline
 62
7
  6
BYLAYER
 70
0
 71
3
 72
9
 73
5
 74
0
 42
0.0000001
 43
0.0000001
 44
0.0000000001
 40
0.0
 40
0.0
 40
0.0
 40
0.0
 40
0.3809585748
 40
1.0
 40
1.0
 40
1.0
 40
1.0
 10
52.0404032631
 20
49.1632307555
 30
0.0
 10
52.0415177916
 20
49.1613822958
 30
0.0
 10
52.0425817752
 20
49.1556118692
 30
0.0
 10
52.042778374
 20
49.1500113294
 30
0.0
 10
52.0427789232
 20
49.1465039138
 30
0.0
  0
SPLINE
  5
2CA
100
AcDbEntity
  8
0
100
AcDbSpline
 62
7
  6
BYLAYER
 70
0
 71
3
 72
9
 73
5
 74
0
 42
0.0000001
 43
0.0000001
 44
0.0000000001
 40
0.0
 40
0.0
 40
0.0
 40
0.0
 40
0.4943947958
 40
1.0
 40
1.0
 40
1.0
 40
1.0
 10
51.9053298756
 20
43.2831389125
 30
0.0
 10
51.9341242506
 20
43.3402010534
 30
0.0
 10
51.9841112352
 20
43.4600038757
 30
0.0
 10
52.0151919349
 20
43.5860953936
 30
0.0
 10
52.0259865119
 20
43.6505627932
 30
0.0
  0
SPLINE
  5
2CB
100
AcDbEntity
  8
0
100
AcDbSpline
 62
7
  6
BYLAYER
 70
0
 71
3
 72
14
 73
10
 74
0
 42
0.0000001
 43
0.0000001
 44
0.0000000001
 40
0.0
 40
0.0
 40
0.0
 40
0.0
 40
0.1730211602
 40
0.3366788344
 40
0.4885496397
 40
0.6263875029
 40
0.7481254758
 40
0.8519508043
 40
1.0
 40
1.0
 40
1.0
 40
1.0
 10
51.51842351
 20
43.8801308196
 30
0.0
 10
51.5468493579
 20
43.8813295899
 30
0.0
 10
51.6021618924
 20
43.8838507631
 30
0.0
 10
51.6825006941
 20
43.8846834442
 30
0.0
 10
51.757039921
 20
43.8859107857
 30
0.0
 10
51.8246782686
 20
43.8875314451
 30
0.0
 10
51.8844172955
 20
43.888978514
 30
0.0
 10
51.9458347033
 20
43.8904791897
 30
0.0
 10
51.9872340835
 20
43.8917356078
 30
0.0
 10
52.0115622977
 20
43.8926339369
 30
0.0
  0
SPLINE
  5
2CC
100
AcDbEntity
  8
0
100
AcDbSpline
 62
7
  6
BYLAYER
 70
0
 71
3
 72
14
 73
10
 74
0
 42
0.0000001
 43
0.0000001
 44
0.0000000001
 40
0.0
 40
0.0
 40
0.0
 40
0.0
 40
0.4350774232
 40
0.6067651566
 40
0.7475721107
 40
0.8572985964
 40
0.9358647057
 40
0.9832716072
 40
1.0
 40
1.0
 40
1.0
 40
1.0
 10
52.0115622977
 20
43.8926339369
 30
0.0
 10
52.016099224
 20
43.8928014647
 30
0.0
 10
52.0224332227
 20
43.8930390574
 30
0.0
 10
52.0302111996
 20
43.8933904717
 30
0.0
 10
52.0346428989
 20
43.8936044563
 30
0.0
 10
52.0379889278
 20
43.8938475379
 30
0.0
 10
52.0406256613
 20
43.8939818788
 30
0.0
 10
52.0417765887
 20
43.8942736334
 30
0.0
 10
52.0427834577
 20
43.8942905959
 30
0.0
 10
52.0427790829
 20
43.8944651013
 30
0.0
  0
SPLINE
  5
2CD
100
AcDbEntity
  8
0
100
AcDbSpline
 62
7
  6
BYLAYER
 70
0
 71
3
 72
11
 73
7
 74
0
 42
0.0000001
 43
0.0000001
 44
0.0000000001
 40
0.0
 40
0.0
 40
0.0
 40
0.0
 40
0.2448273062
 40
0.4940789714
 40
0.7463177857
 40
1.0
 40
1.0
 40
1.0
 40
1.0
 10
51.51842351
 20
43.8801308196
 30
0.0
 10
51.5000608246
 20
43.878667613
 30
0.0
 10
51.462883078
 20
43.8770576243
 30
0.0
 10
51.4067300554
 20
43.8781498439
 30
0.0
 10
51.3499323478
 20
43.8796891743
 30
0.0
 10
51.3118649224
 20
43.8799073793
 30
0.0
 10
51.2927790939
 20
43.8801308196
 30
0.0
  0
SPLINE
  5
2CE
100
AcDbEntity
  8
0
100
AcDbSpline
 62
7
  6
BYLAYER
 70
0
 71
3
 72
11
 73
7
 74
0
 42
0.0000001
 43
0.0000001
 44
0.0000000001
 40
0.0
 40
0.0
 40
0.0
 40
0.0
 40
0.250732723
 40
0.5009438332
 40
0.7506392178
 40
1.0
 40
1.0
 40
1.0
 40
1.0
 10
14.0576617546
 20
38.0960679085
 30
0.0
 10
14.0542349236
 20
38.0865268386
 30
0.0
 10
14.0444095258
 20
38.0683920642
 30
0.0
 10
14.0222568797
 20
38.0469772125
 30
0.0
 10
13.9947290739
 20
38.0332520679
 30
0.0
 10
13.9744151529
 20
38.0301037924
 30
0.0
 10
13.9643328146
 20
38.0301037924
 30
0.0
  0
SPLINE
  5
2CF
100
AcDbEntity
  8
0
100
AcDbSpline
 62
7
  6
BYLAYER
 70
0
 71
3
 72
15
 73
11
 74
0
 42
0.0000001
 43
0.0000001
 44
0.0000000001
 40
0.0
 40
0.0
 40
0.0
 40
0.0
 40
0.1254209698
 40
0.2508677489
 40
0.3761027619
 40
0.5011983965
 40
0.6261114854
 40
0.750827156
 40
0.8754959371
 40
1.0
 40
1.0
 40
1.0
 40
1.0
 10
14.6903985025
 20
38.1301037924
 30
0.0
 10
14.6903985025
 20
38.1039757838
 30
0.0
 10
14.6852697405
 20
38.0515739659
 30
0.0
 10
14.6625625498
 20
37.9760888965
 30
0.0
 10
14.6256351474
 20
37.9064895595
 30
0.0
 10
14.5759662575
 20
37.8454778094
 30
0.0
 10
14.5154166754
 20
37.7954125992
 30
0.0
 10
14.4463229233
 20
37.7581790395
 30
0.0
 10
14.3713687681
 20
37.7352779379
 30
0.0
 10
14.3193170381
 20
37.7301037924
 30
0.0
 10
14.2933800418
 20
37.7301037924
 30
0.0
  0
SPLINE
  5
2D0
100
AcDbEntity
  8
0
100
AcDbSpline
 62
7
  6
BYLAYER
 70
0
 71
3
 72
15
 73
11
 74
0
 42
0.0000001
 43
0.0000001
 44
0.0000000001
 40
0.0
 40
0.0
 40
0.0
 40
0.0
 40
0.1245036095
 40
0.2491743813
 40
0.3738875188
 40
0.4987954699
 40
0.6238850124
 40
0.7491134776
 40
0.8745458339
 40
1.0
 40
1.0
 40
1.0
 40
1.0
 10
13.9643328146
 20
37.7301037924
 30
0.0
 10
13.9900139639
 20
37.7301037924
 30
0.0
 10
14.0415498863
 20
37.7351764077
 30
0.0
 10
14.1158220073
 20
37.7576304597
 30
0.0
 10
14.184403717
 20
37.7941575424
 30
0.0
 10
14.2446819996
 20
37.8433125213
 30
0.0
 10
14.2943770701
 20
37.9032817807
 30
0.0
 10
14.3316626085
 20
37.9717886312
 30
0.0
 10
14.355084842
 20
38.046234336
 30
0.0
 10
14.3609017433
 20
38.0980378932
 30
0.0
 10
14.3613032128
 20
38.1239119977
 30
0.0
  0
SPLINE
  5
2D1
100
AcDbEntity
  8
0
100
AcDbSpline
 62
7
  6
BYLAYER
 70
0
 71
3
 72
12
 73
8
 74
0
 42
0.0000001
 43
0.0000001
 44
0.0000000001
 40
0.0
 40
0.0
 40
0.0
 40
0.0
 40
0.0919329841
 40
0.207036506
 40
0.4634945882
 40
0.7313423849
 40
1.0
 40
1.0
 40
1.0
 40
1.0
 10
53.4777711067
 20
38.8301041428
 30
0.0
 10
53.5104485853
 20
38.8287472034
 30
0.0
 10
53.5839779432
 20
38.8242600912
 30
0.0
 10
53.7483269469
 20
38.810836189
 30
0.0
 10
53.9746042058
 20
38.7873627226
 30
0.0
 10
54.2549845224
 20
38.7563418041
 30
0.0
 10
54.4449344812
 20
38.7374579327
 30
0.0
 10
54.5401888093
 20
38.7296187944
 30
0.0
  0
SPLINE
  5
2D2
100
AcDbEntity
  8
0
100
AcDbSpline
 62
7
  6
BYLAYER
 70
0
 71
3
 72
15
 73
11
 74
0
 42
0.0000001
 43
0.0000001
 44
0.0000000001
 40
0.0
 40
0.0
 40
0.0
 40
0.0
 40
0.067974356
 40
0.1515276405
 40
0.2570426628
 40
0.3845853743
 40
0.5307251221
 40
0.687724987
 40
0.8466734913
 40
1.0
 40
1.0
 40
1.0
 40
1.0
 10
55.7919355653
 20
54.1301037897
 30
0.0
 10
55.8045024086
 20
54.1301069733
 30
0.0
 10
55.8326379524
 20
54.1235079897
 30
0.0
 10
55.8725648207
 20
54.0964237226
 30
0.0
 10
55.9111637811
 20
54.05182724
 30
0.0
 10
55.9472412242
 20
53.9914056402
 30
0.0
 10
55.9780731339
 20
53.9177743157
 30
0.0
 10
56.002812556
 20
53.8358707177
 30
0.0
 10
56.0200319993
 20
53.7507289908
 30
0.0
 10
56.0269632072
 20
53.6933481761
 30
0.0
 10
56.0292483558
 20
53.6650940058
 30
0.0
  0
SPLINE
  5
2D3
100
AcDbEntity
  8
0
100
AcDbSpline
 62
7
  6
BYLAYER
 70
0
 71
3
 72
23
 73
19
 74
0
 42
0.0000001
 43
0.0000001
 44
0.0000000001
 40
0.0
 40
0.0
 40
0.0
 40
0.0
 40
0.2178413596
 40
0.4147480562
 40
0.5872440261
 40
0.6634437635
 40
0.7325091458
 40
0.7941330549
 40
0.8480708325
 40
0.8940940665
 40
0.9320068683
 40
0.9616644967
 40
0.973353744
 40
0.982931009
 40
0.9903900094
 40
0.995725015
 40
0.9989302716
 40
1.0
 40
1.0
 40
1.0
 40
1.0
 10
56.0292479765
 20
53.665093963
 30
0.0
 10
56.2066111
 20
53.6826863647
 30
0.0
 10
56.5445208381
 20
53.7139233349
 30
0.0
 10
57.0234724254
 20
53.7522347807
 30
0.0
 10
57.3872029931
 20
53.7772624823
 30
0.0
 10
57.6467086257
 20
53.793070607
 30
0.0
 10
57.8157166306
 20
53.8025414743
 30
0.0
 10
57.9665764227
 20
53.8102915012
 30
0.0
 10
58.098637577
 20
53.8164780008
 30
0.0
 10
58.2113419269
 20
53.8212667212
 30
0.0
 10
58.304214245
 20
53.8248167534
 30
0.0
 10
58.3690255475
 20
53.827036906
 30
0.0
 10
58.4106704358
 20
53.8283159472
 30
0.0
 10
58.4341638796
 20
53.829018008
 30
0.0
 10
58.4524592132
 20
53.8294593546
 30
0.0
 10
58.4655492315
 20
53.8299104689
 30
0.0
 10
58.4734030069
 20
53.8298794282
 30
0.0
 10
58.4769069414
 20
53.8301771308
 30
0.0
 10
58.4777790939
 20
53.8301037924
 30
0.0
  0
SPLINE
  5
2D4
100
AcDbEntity
  8
0
100
AcDbSpline
 62
7
  6
BYLAYER
 70
0
 71
3
 72
17
 73
13
 74
0
 42
0.0000001
 43
0.0000001
 44
0.0000000001
 40
0.0
 40
0.0
 40
0.0
 40
0.0
 40
0.0117008867
 40
0.0288715672
 40
0.0536341784
 40
0.0871208722
 40
0.1299527442
 40
0.1818634127
 40
0.310772724
 40
0.46814455
 40
0.6431006875
 40
1.0
 40
1.0
 40
1.0
 40
1.0
 10
54.4129961612
 20
54.1301037924
 30
0.0
 10
54.4154180404
 20
54.130104019
 30
0.0
 10
54.421250797
 20
54.1274599755
 30
0.0
 10
54.428554053
 20
54.1189867572
 30
0.0
 10
54.4364978976
 20
54.1054841456
 30
0.0
 10
54.444864732
 20
54.0862748735
 30
0.0
 10
54.4536650002
 20
54.0612200242
 30
0.0
 10
54.4667985964
 20
54.0168157219
 30
0.0
 10
54.4827812052
 20
53.9486141714
 30
0.0
 10
54.5002102506
 20
53.8547317954
 30
0.0
 10
54.5216806155
 20
53.7136802776
 30
0.0
 10
54.5338266568
 20
53.6042101271
 30
0.0
 10
54.5403997399
 20
53.5306312188
 30
0.0
  0
SPLINE
  5
2D5
100
AcDbEntity
  8
0
100
AcDbSpline
 62
7
  6
BYLAYER
 70
0
 71
3
 72
15
 73
11
 74
0
 42
0.0000001
 43
0.0000001
 44
0.0000000001
 40
0.0
 40
0.0
 40
0.0
 40
0.0
 40
0.0730013567
 40
0.1451141241
 40
0.2157337525
 40
0.2845482053
 40
0.4164110179
 40
0.5414970194
 40
0.7762815356
 40
1.0
 40
1.0
 40
1.0
 40
1.0
 10
53.4777792112
 20
53.4301042555
 30
0.0
 10
53.4866402167
 20
53.4592018104
 30
0.0
 10
53.5062446589
 20
53.5164855348
 30
0.0
 10
53.5432521752
 20
53.5985475501
 30
0.0
 10
53.5868045457
 20
53.6753245924
 30
0.0
 10
53.6511820937
 20
53.7683853496
 30
0.0
 10
53.742757882
 20
53.869588365
 30
0.0
 10
53.9041413366
 20
53.9970433714
 30
0.0
 10
54.1278069787
 20
54.1017550826
 30
0.0
 10
54.3197932203
 20
54.1301038393
 30
0.0
 10
54.4130080947
 20
54.1301037924
 30
0.0
  0
SPLINE
  5
2D6
100
AcDbEntity
  8
0
100
AcDbSpline
 62
7
  6
BYLAYER
 70
0
 71
3
 72
12
 73
8
 74
0
 42
0.0000001
 43
0.0000001
 44
0.0000000001
 40
0.0
 40
0.0
 40
0.0
 40
0.0
 40
0.0930015007
 40
0.1993614464
 40
0.443488235
 40
0.7149459368
 40
1.0
 40
1.0
 40
1.0
 40
1.0
 10
10.487283638
 20
53.9819294967
 30
0.0
 10
10.4903886879
 20
53.9640338268
 30
0.0
 10
10.4990054294
 20
53.9260147545
 30
0.0
 10
10.5231101817
 20
53.8428002807
 30
0.0
 10
10.5636785022
 20
53.7282318508
 30
0.0
 10
10.6202787438
 20
53.5824776926
 30
0.0
 10
10.6610389632
 20
53.4817198044
 30
0.0
 10
10.6818967619
 20
53.4301042089
 30
0.0
  0
SPLINE
  5
2D7
100
AcDbEntity
  8
0
100
AcDbSpline
 62
7
  6
BYLAYER
 70
0
 71
3
 72
13
 73
9
 74
0
 42
0.0000001
 43
0.0000001
 44
0.0000000001
 40
0.0
 40
0.0
 40
0.0
 40
0.0
 40
0.1108958357
 40
0.1974653435
 40
0.3083859064
 40
0.4442729216
 40
0.6050911093
 40
1.0
 40
1.0
 40
1.0
 40
1.0
 10
10.4294916747
 20
54.1301037923
 30
0.0
 10
10.4355507548
 20
54.1301026673
 30
0.0
 10
10.4449829333
 20
54.1215841116
 30
0.0
 10
10.4532392946
 20
54.1074212888
 30
0.0
 10
10.4606629901
 20
54.0905753775
 30
0.0
 10
10.4677431073
 20
54.0694988188
 30
0.0
 10
10.4776911323
 20
54.0330027416
 30
0.0
 10
10.4835871409
 20
54.0031883224
 30
0.0
 10
10.4872747984
 20
53.9819289161
 30
0.0
  0
SPLINE
  5
2D8
100
AcDbEntity
  8
0
100
AcDbSpline
 62
7
  6
BYLAYER
 70
0
 71
3
 72
9
 73
5
 74
0
 42
0.0000001
 43
0.0000001
 44
0.0000000001
 40
0.0
 40
0.0
 40
0.0
 40
0.0
 40
0.50646149
 40
1.0
 40
1.0
 40
1.0
 40
1.0
 10
18.4777787913
 20
54.1176890156
 30
0.0
 10
18.3415896038
 20
54.1176984096
 30
0.0
 10
18.0727122975
 20
54.1224437957
 30
0.0
 10
17.8038797574
 20
54.1300959131
 30
0.0
 10
17.6711656022
 20
54.1301037924
 30
0.0
  0
SPLINE
  5
2D9
100
AcDbEntity
  8
0
100
AcDbSpline
 62
7
  6
BYLAYER
 70
0
 71
3
 72
12
 73
8
 74
0
 42
0.0000001
 43
0.0000001
 44
0.0000000001
 40
0.0
 40
0.0
 40
0.0
 40
0.0
 40
0.2686615632
 40
0.5365096365
 40
0.7929646772
 40
0.9080668715
 40
1.0
 40
1.0
 40
1.0
 40
1.0
 10
54.5403969282
 20
53.5306299692
 30
0.0
 10
54.4451234576
 20
53.5227846491
 30
0.0
 10
54.2551367009
 20
53.503888983
 30
0.0
 10
53.974703278
 20
53.4728562998
 30
0.0
 10
53.7483846145
 20
53.4493765732
 30
0.0
 10
53.5840059195
 20
53.4359493371
 30
0.0
 10
53.5104630123
 20
53.4314611
 30
0.0
 10
53.4777792714
 20
53.4301037811
 30
0.0
  0
SPLINE
  5
2DA
100
AcDbEntity
  8
0
100
AcDbSpline
 62
7
  6
BYLAYER
 70
0
 71
3
 72
9
 73
5
 74
0
 42
0.0000001
 43
0.0000001
 44
0.0000000001
 40
0.0
 40
0.0
 40
0.0
 40
0.0
 40
0.5003516919
 40
1.0
 40
1.0
 40
1.0
 40
1.0
 10
8.7877790939
 20
38.1301037924
 30
0.0
 10
8.7557078312
 20
38.1301037924
 30
0.0
 10
8.691033927
 20
38.1405200909
 30
0.0
 10
8.6340824605
 20
38.1736062289
 30
0.0
 10
8.6099757397
 20
38.1946903951
 30
0.0
  0
SPLINE
  5
2DB
100
AcDbEntity
  8
0
100
AcDbSpline
 62
7
  6
BYLAYER
 70
0
 71
3
 72
9
 73
5
 74
0
 42
0.0000001
 43
0.0000001
 44
0.0000000001
 40
0.0
 40
0.0
 40
0.0
 40
0.0
 40
0.2433997751
 40
1.0
 40
1.0
 40
1.0
 40
1.0
 10
8.5848455051
 20
38.2200783563
 30
0.0
 10
8.581094992
 20
38.2244574064
 30
0.0
 10
8.5663138977
 20
38.2429788581
 30
0.0
 10
8.5542126459
 20
38.263623051
 30
0.0
 10
8.5467717368
 20
38.2799276551
 30
0.0
  0
SPLINE
  5
2DC
100
AcDbEntity
  8
0
100
AcDbSpline
 62
7
  6
BYLAYER
 70
0
 71
3
 72
9
 73
5
 74
0
 42
0.0000001
 43
0.0000001
 44
0.0000000001
 40
0.0
 40
0.0
 40
0.0
 40
0.0
 40
0.4682208825
 40
1.0
 40
1.0
 40
1.0
 40
1.0
 10
8.5467717368
 20
38.2799276551
 30
0.0
 10
8.5368427415
 20
38.3016841817
 30
0.0
 10
8.5219373123
 20
38.3512868662
 30
0.0
 10
8.5216584786
 20
38.4031407337
 30
0.0
 10
8.5249350921
 20
38.4301037924
 30
0.0
  0
SPLINE
  5
2DD
100
AcDbEntity
  8
0
100
AcDbSpline
 62
7
  6
BYLAYER
 70
0
 71
3
 72
12
 73
8
 74
0
 42
0.0000001
 43
0.0000001
 44
0.0000000001
 40
0.0
 40
0.0
 40
0.0
 40
0.0
 40
0.2850402226
 40
0.5565071074
 40
0.8006332339
 40
0.9069933645
 40
1.0
 40
1.0
 40
1.0
 40
1.0
 10
10.6818966367
 20
38.8301035969
 30
0.0
 10
10.6610401151
 20
38.7784915891
 30
0.0
 10
10.6202811407
 20
38.6777364984
 30
0.0
 10
10.5636823461
 20
38.5319862165
 30
0.0
 10
10.5231135266
 20
38.4174187247
 30
0.0
 10
10.4990083817
 20
38.3342051958
 30
0.0
 10
10.4903911264
 20
38.2961859864
 30
0.0
 10
10.4872854604
 20
38.2782897705
 30
0.0
  0
SPLINE
  5
2DE
100
AcDbEntity
  8
0
100
AcDbSpline
 62
7
  6
BYLAYER
 70
0
 71
3
 72
9
 73
5
 74
0
 42
0.0000001
 43
0.0000001
 44
0.0000000001
 40
0.0
 40
0.0
 40
0.0
 40
0.0
 40
0.4935407851
 40
1.0
 40
1.0
 40
1.0
 40
1.0
 10
17.6711662646
 20
38.1301037924
 30
0.0
 10
17.8038810143
 20
38.130116754
 30
0.0
 10
18.0727135139
 20
38.1377642487
 30
0.0
 10
18.3415907928
 20
38.1425037437
 30
0.0
 10
18.4777793509
 20
38.1425185696
 30
0.0
  0
SPLINE
  5
2DF
100
AcDbEntity
  8
0
100
AcDbSpline
 62
7
  6
BYLAYER
 70
0
 71
3
 72
9
 73
5
 74
0
 42
0.0000001
 43
0.0000001
 44
0.0000000001
 40
0.0
 40
0.0
 40
0.0
 40
0.0
 40
0.4935413609
 40
1.0
 40
1.0
 40
1.0
 40
1.0
 10
19.284391947
 20
54.1301037924
 30
0.0
 10
19.1516770307
 20
54.1300944157
 30
0.0
 10
18.8828445104
 20
54.1224430374
 30
0.0
 10
18.6139672067
 20
54.1177003988
 30
0.0
 10
18.4777787913
 20
54.1176890156
 30
0.0
  0
SPLINE
  5
2E0
100
AcDbEntity
  8
0
100
AcDbSpline
 62
7
  6
BYLAYER
 70
0
 71
3
 72
9
 73
5
 74
0
 42
0.0000001
 43
0.0000001
 44
0.0000000001
 40
0.0
 40
0.0
 40
0.0
 40
0.0
 40
0.5064675752
 40
1.0
 40
1.0
 40
1.0
 40
1.0
 10
18.4777793509
 20
38.1425185696
 30
0.0
 10
18.6139703419
 20
38.14250603
 30
0.0
 10
18.8828481102
 20
38.1377718392
 30
0.0
 10
19.1516808334
 20
38.1301165992
 30
0.0
 10
19.2843935148
 20
38.1301037924
 30
0.0
  0
SPLINE
  5
2E1
100
AcDbEntity
  8
0
100
AcDbSpline
 62
7
  6
BYLAYER
 70
0
 71
3
 72
13
 73
9
 74
0
 42
0.0000001
 43
0.0000001
 44
0.0000000001
 40
0.0
 40
0.0
 40
0.0
 40
0.0
 40
0.2630428851
 40
0.4003094921
 40
0.5358635652
 40
0.6658427899
 40
0.7876254294
 40
1.0
 40
1.0
 40
1.0
 40
1.0
 10
10.4872853392
 20
38.2782780192
 30
0.0
 10
10.4524578767
 20
38.2822797197
 30
0.0
 10
10.3999321041
 20
38.2958171917
 30
0.0
 10
10.3358695123
 20
38.3277618054
 30
0.0
 10
10.2915755506
 20
38.3584791138
 30
0.0
 10
10.2542999193
 20
38.3945572472
 30
0.0
 10
10.217278729
 20
38.4443119607
 30
0.0
 10
10.2002447939
 20
38.4868949985
 30
0.0
 10
10.1953638099
 20
38.5147748324
 30
0.0
  0
SPLINE
  5
2E2
100
AcDbEntity
  8
0
100
AcDbSpline
 62
7
  6
BYLAYER
 70
0
 71
3
 72
13
 73
9
 74
0
 42
0.0000001
 43
0.0000001
 44
0.0000000001
 40
0.0
 40
0.0
 40
0.0
 40
0.0
 40
0.1103902166
 40
0.1964167631
 40
0.3070430671
 40
0.4430563656
 40
0.6044870229
 40
1.0
 40
1.0
 40
1.0
 40
1.0
 10
10.4295015101
 20
38.1301037924
 30
0.0
 10
10.4355372924
 20
38.1301037304
 30
0.0
 10
10.4450160048
 20
38.1384192758
 30
0.0
 10
10.4533047306
 20
38.152527783
 30
0.0
 10
10.4607135743
 20
38.1693442575
 30
0.0
 10
10.4677780232
 20
38.1904717923
 30
0.0
 10
10.477699292
 20
38.2270778307
 30
0.0
 10
10.4836000086
 20
38.2569809888
 30
0.0
 10
10.4872877178
 20
38.278289621
 30
0.0
  0
SPLINE
  5
2E3
100
AcDbEntity
  8
0
100
AcDbSpline
 62
7
  6
BYLAYER
 70
0
 71
3
 72
13
 73
9
 74
0
 42
0.0000001
 43
0.0000001
 44
0.0000000001
 40
0.0
 40
0.0
 40
0.0
 40
0.0
 40
0.2424023867
 40
0.3723550877
 40
0.5042706732
 40
0.6354664945
 40
0.7634668011
 40
1.0
 40
1.0
 40
1.0
 40
1.0
 10
10.1373058947
 20
38.4301037924
 30
0.0
 10
10.1373058947
 20
38.3926644793
 30
0.0
 10
10.1480167311
 20
38.3344002725
 30
0.0
 10
10.1835170375
 20
38.264667948
 30
0.0
 10
10.2212358633
 20
38.2165217338
 30
0.0
 10
10.2681273002
 20
38.1777108142
 30
0.0
 10
10.3358850867
 20
38.1412557842
 30
0.0
 10
10.3929677522
 20
38.1301037954
 30
0.0
 10
10.4295005629
 20
38.1301037924
 30
0.0
  0
SPLINE
  5
2E4
100
AcDbEntity
  8
0
100
AcDbSpline
 62
7
  6
BYLAYER
 70
0
 71
3
 72
13
 73
9
 74
0
 42
0.0000001
 43
0.0000001
 44
0.0000000001
 40
0.0
 40
0.0
 40
0.0
 40
0.0
 40
0.3142998207
 40
0.603192192
 40
0.7297516751
 40
0.8400085703
 40
0.9308585775
 40
1.0
 40
1.0
 40
1.0
 40
1.0
 10
10.6818970117
 20
38.8301038015
 30
0.0
 10
10.6289071553
 20
38.800007457
 30
0.0
 10
10.5270270268
 20
38.7425842808
 30
0.0
 10
10.405006993
 20
38.6708786198
 30
0.0
 10
10.3190114774
 20
38.6161479542
 30
0.0
 10
10.2667073449
 20
38.5800003457
 30
0.0
 10
10.2256386879
 20
38.5474675101
 30
0.0
 10
10.2034378753
 20
38.5254767552
 30
0.0
 10
10.1953638127
 20
38.5147748994
 30
0.0
  0
SPLINE
  5
2E5
100
AcDbEntity
  8
0
100
AcDbSpline
 62
7
  6
BYLAYER
 70
0
 71
3
 72
9
 73
5
 74
0
 42
0.0000001
 43
0.0000001
 44
0.0000000001
 40
0.0
 40
0.0
 40
0.0
 40
0.0
 40
0.5005208489
 40
1.0
 40
1.0
 40
1.0
 40
1.0
 10
8.7877790939
 20
54.1301037924
 30
0.0
 10
8.7557171986
 20
54.1301037924
 30
0.0
 10
8.6910871676
 20
54.1197138305
 30
0.0
 10
8.6341440321
 20
54.0866886606
 30
0.0
 10
8.6100602776
 20
54.0656253395
 30
0.0
  0
SPLINE
  5
2E6
100
AcDbEntity
  8
0
100
AcDbSpline
 62
7
  6
BYLAYER
 70
0
 71
3
 72
9
 73
5
 74
0
 42
0.0000001
 43
0.0000001
 44
0.0000000001
 40
0.0
 40
0.0
 40
0.0
 40
0.0
 40
0.4871481213
 40
1.0
 40
1.0
 40
1.0
 40
1.0
 10
8.6100602776
 20
54.0656253395
 30
0.0
 10
8.5969599025
 20
54.0541679312
 30
0.0
 10
8.5724815812
 20
54.0277341799
 30
0.0
 10
8.5542593326
 20
53.9966385634
 30
0.0
 10
8.5466776879
 20
53.9799587137
 30
0.0
  0
SPLINE
  5
2E7
100
AcDbEntity
  8
0
100
AcDbSpline
 62
7
  6
BYLAYER
 70
0
 71
3
 72
9
 73
5
 74
0
 42
0.0000001
 43
0.0000001
 44
0.0000000001
 40
0.0
 40
0.0
 40
0.0
 40
0.0
 40
0.4682968451
 40
1.0
 40
1.0
 40
1.0
 40
1.0
 10
8.5466776879
 20
53.9799587137
 30
0.0
 10
8.5368021908
 20
53.9582323187
 30
0.0
 10
8.5219571406
 20
53.9087405111
 30
0.0
 10
8.5216662711
 20
53.8570027267
 30
0.0
 10
8.5249350921
 20
53.8301037924
 30
0.0
  0
SPLINE
  5
2E8
100
AcDbEntity
  8
0
100
AcDbSpline
 62
7
  6
BYLAYER
 70
0
 71
3
 72
12
 73
8
 74
0
 42
0.0000001
 43
0.0000001
 44
0.0000000001
 40
0.0
 40
0.0
 40
0.0
 40
0.0
 40
0.1525971916
 40
0.2472317183
 40
0.3591803159
 40
0.6404391762
 40
1.0
 40
1.0
 40
1.0
 40
1.0
 10
10.1373058947
 20
38.4301037924
 30
0.0
 10
10.1427664539
 20
38.4303015109
 30
0.0
 10
10.1515073304
 20
38.4339770942
 30
0.0
 10
10.1609477572
 20
38.4427195402
 30
0.0
 10
10.1716890103
 20
38.4566003262
 30
0.0
 10
10.1839409248
 20
38.4807991309
 30
0.0
 10
10.1915916354
 20
38.5024648501
 30
0.0
 10
10.1953638127
 20
38.5147748648
 30
0.0
  0
SPLINE
  5
2E9
100
AcDbEntity
  8
0
100
AcDbSpline
 62
7
  6
BYLAYER
 70
0
 71
3
 72
13
 73
9
 74
0
 42
0.0000001
 43
0.0000001
 44
0.0000000001
 40
0.0
 40
0.0
 40
0.0
 40
0.0
 40
0.236533767
 40
0.3645342303
 40
0.4957301125
 40
0.6276456331
 40
0.757598171
 40
1.0
 40
1.0
 40
1.0
 40
1.0
 10
10.42950033
 20
54.1301037924
 30
0.0
 10
10.3929674353
 20
54.1301037923
 30
0.0
 10
10.3358846574
 20
54.1189517531
 30
0.0
 10
10.2681268115
 20
54.0824965912
 30
0.0
 10
10.2212354124
 20
54.0436855978
 30
0.0
 10
10.1835166705
 20
53.9955393589
 30
0.0
 10
10.1480165167
 20
53.9258071029
 30
0.0
 10
10.1373057462
 20
53.8675430156
 30
0.0
 10
10.1373057581
 20
53.8301037924
 30
0.0
  0
SPLINE
  5
2EA
100
AcDbEntity
  8
0
100
AcDbSpline
 62
7
  6
BYLAYER
 70
0
 71
3
 72
11
 73
7
 74
0
 42
0.0000001
 43
0.0000001
 44
0.0000000001
 40
0.0
 40
0.0
 40
0.0
 40
0.0
 40
0.3513144845
 40
0.4835558166
 40
0.6358822463
 40
1.0
 40
1.0
 40
1.0
 40
1.0
 10
10.1373057449
 20
53.8301037924
 30
0.0
 10
10.1497657557
 20
53.8301003489
 30
0.0
 10
10.1644098216
 20
53.8149517599
 30
0.0
 10
10.1755616803
 20
53.7959865547
 30
0.0
 10
10.1855882518
 20
53.7750801495
 30
0.0
 10
10.1915943398
 20
53.7577844106
 30
0.0
 10
10.1953638127
 20
53.7454326852
 30
0.0
  0
SPLINE
  5
2EB
100
AcDbEntity
  8
0
100
AcDbSpline
 62
7
  6
BYLAYER
 70
0
 71
3
 72
13
 73
9
 74
0
 42
0.0000001
 43
0.0000001
 44
0.0000000001
 40
0.0
 40
0.0
 40
0.0
 40
0.0
 40
0.2576850513
 40
0.3935812997
 40
0.5288323241
 40
0.6596012728
 40
0.7829934542
 40
1.0
 40
1.0
 40
1.0
 40
1.0
 10
10.4872837285
 20
53.9819295036
 30
0.0
 10
10.4531666565
 20
53.9780092805
 30
0.0
 10
10.4015249062
 20
53.9648494216
 30
0.0
 10
10.3381031667
 20
53.9337393911
 30
0.0
 10
10.2936747192
 20
53.9034343329
 30
0.0
 10
10.2559007306
 20
53.8674714025
 30
0.0
 10
10.2179158161
 20
53.8172697176
 30
0.0
 10
10.2003510662
 20
53.7739198541
 30
0.0
 10
10.1953637799
 20
53.7454327702
 30
0.0
  0
SPLINE
  5
2EC
100
AcDbEntity
  8
0
100
AcDbSpline
 62
7
  6
BYLAYER
 70
0
 71
3
 72
13
 73
9
 74
0
 42
0.0000001
 43
0.0000001
 44
0.0000000001
 40
0.0
 40
0.0
 40
0.0
 40
0.0
 40
0.0691591503
 40
0.1600310857
 40
0.2702784035
 40
0.3968081411
 40
0.6856620635
 40
1.0
 40
1.0
 40
1.0
 40
1.0
 10
10.1953638127
 20
53.7454327197
 30
0.0
 10
10.2034406299
 20
53.7347286299
 30
0.0
 10
10.2256492563
 20
53.7127349059
 30
0.0
 10
10.2667191665
 20
53.6801945645
 30
0.0
 10
10.3190199559
 20
53.6440477289
 30
0.0
 10
10.4050023637
 20
53.5893245793
 30
0.0
 10
10.5270196143
 20
53.5176252137
 30
0.0
 10
10.6289080855
 20
53.4602169137
 30
0.0
 10
10.6818970117
 20
53.4301039239
 30
0.0
  0
SPLINE
  5
2ED
100
AcDbEntity
  8
0
100
AcDbSpline
 62
7
  6
BYLAYER
 70
0
 71
3
 72
17
 73
13
 74
0
 42
0.0000001
 43
0.0000001
 44
0.0000000001
 40
0.0
 40
0.0
 40
0.0
 40
0.0
 40
0.0117028998
 40
0.0288767493
 40
0.0536437444
 40
0.0871357841
 40
0.1299736004
 40
0.1818902357
 40
0.3108089797
 40
0.4681833363
 40
0.6431337231
 40
1.0
 40
1.0
 40
1.0
 40
1.0
 10
54.4128020711
 20
38.1301037896
 30
0.0
 10
54.4152245118
 20
38.1301036348
 30
0.0
 10
54.4210585278
 20
38.1327487585
 30
0.0
 10
54.428362839
 20
38.1412245452
 30
0.0
 10
54.4363076179
 20
38.1547308068
 30
0.0
 10
54.4446750328
 20
38.1739447323
 30
0.0
 10
54.4534755014
 20
38.1990049828
 30
0.0
 10
54.4666085745
 20
38.243416935
 30
0.0
 10
54.4825893505
 20
38.3116270279
 30
0.0
 10
54.5000148503
 20
38.4055171798
 30
0.0
 10
54.5214783215
 20
38.5465707866
 30
0.0
 10
54.5336190556
 20
38.6560400646
 30
0.0
 10
54.5401885482
 20
38.7296168654
 30
0.0
  0
SPLINE
  5
2EE
100
AcDbEntity
  8
0
100
AcDbSpline
 62
7
  6
BYLAYER
 70
0
 71
3
 72
15
 73
11
 74
0
 42
0.0000001
 43
0.0000001
 44
0.0000000001
 40
0.0
 40
0.0
 40
0.0
 40
0.0
 40
0.0730049473
 40
0.1451215542
 40
0.2157449565
 40
0.284563614
 40
0.4164343573
 40
0.5415265796
 40
0.7763089158
 40
1.0
 40
1.0
 40
1.0
 40
1.0
 10
53.4777688875
 20
38.8301034926
 30
0.0
 10
53.4866267003
 20
38.8010079997
 30
0.0
 10
53.5062457877
 20
38.74373517
 30
0.0
 10
53.5432435571
 20
38.6616787617
 30
0.0
 10
53.5867901787
 20
38.5849070926
 30
0.0
 10
53.6511603587
 20
38.4918532413
 30
0.0
 10
53.742721278
 20
38.3906534464
 30
0.0
 10
53.9040729129
 20
38.26319891
 30
0.0
 10
54.1276783543
 20
38.1584689209
 30
0.0
 10
54.3196244257
 20
38.130103784
 30
0.0
 10
54.4128144138
 20
38.1301037924
 30
0.0
  0
SPLINE
  5
2EF
100
AcDbEntity
  8
0
100
AcDbSpline
 62
7
  6
BYLAYER
 70
0
 71
3
 72
15
 73
11
 74
0
 42
0.0000001
 43
0.0000001
 44
0.0000000001
 40
0.0
 40
0.0
 40
0.0
 40
0.0
 40
0.0679626295
 40
0.1515079577
 40
0.2570193153
 40
0.3845622465
 40
0.5307055861
 40
0.6877112709
 40
0.8466666966
 40
1.0
 40
1.0
 40
1.0
 40
1.0
 10
55.7919361749
 20
38.130103795
 30
0.0
 10
55.8045005756
 20
38.1301006804
 30
0.0
 10
55.8326317054
 20
38.1367001332
 30
0.0
 10
55.8725522514
 20
38.1637838766
 30
0.0
 10
55.911147339
 20
38.2083790111
 30
0.0
 10
55.9472235577
 20
38.2687994728
 30
0.0
 10
55.9780569565
 20
38.3424301289
 30
0.0
 10
56.0028000987
 20
38.4243337549
 30
0.0
 10
56.0200249681
 20
38.5094760938
 30
0.0
 10
56.0269606382
 20
38.5668576302
 30
0.0
 10
56.0292481483
 20
38.5951122481
 30
0.0
  0
SPLINE
  5
2F0
100
AcDbEntity
  8
0
100
AcDbSpline
 62
7
  6
BYLAYER
 70
0
 71
3
 72
23
 73
19
 74
0
 42
0.0000001
 43
0.0000001
 44
0.0000000001
 40
0.0
 40
0.0
 40
0.0
 40
0.0
 40
0.0010697256
 40
0.0042749721
 40
0.0096099601
 40
0.0170689348
 40
0.0266461664
 40
0.0383353727
 40
0.0679928991
 40
0.1059055768
 40
0.1519286713
 40
0.2058663085
 40
0.2674901054
 40
0.3365554185
 40
0.4127551298
 40
0.5852512108
 40
0.7821582182
 40
1.0
 40
1.0
 40
1.0
 40
1.0
 10
58.4777790939
 20
38.4301037924
 30
0.0
 10
58.476906773
 20
38.4300324999
 30
0.0
 10
58.473403238
 20
38.4303243208
 30
0.0
 10
58.4655490581
 20
38.4302972234
 30
0.0
 10
58.4524592415
 20
38.4307435137
 30
0.0
 10
58.4341637806
 20
38.4311836366
 30
0.0
 10
58.4106703375
 20
38.4318821475
 30
0.0
 10
58.3690253638
 20
38.433156341
 30
0.0
 10
58.3042139623
 20
38.435369207
 30
0.0
 10
58.2113414761
 20
38.4389104301
 30
0.0
 10
58.0986369213
 20
38.4436899915
 30
0.0
 10
57.9665755034
 20
38.4498677787
 30
0.0
 10
57.8157153835
 20
38.4576101995
 30
0.0
 10
57.6467069982
 20
38.4670752779
 30
0.0
 10
57.3872007203
 20
38.4828787038
 30
0.0
 10
57.0234694938
 20
38.5079091738
 30
0.0
 10
56.544518061
 20
38.5462397777
 30
0.0
 10
56.2066095777
 20
38.577502449
 30
0.0
 10
56.0292476055
 20
38.5951123073
 30
0.0
  0
ELLIPSE
  5
2F1
100
AcDbEntity
  8
0
100
AcDbEllipse
 62
7
  6
BYLAYER
 10
10.4445686504
 20
38.1301037924
 30
0.0
 11
0.1070495508
 21
-0.0
 31
0.0
 40
0.9341468435
 41
3.1415926536
 42
4.7123889804
  0
ELLIPSE
  5
2F2
100
AcDbEntity
  8
0
100
AcDbEllipse
 62
7
  6
BYLAYER
 10
9.0994447382
 20
38.1301037924
 30
0.0
 11
0.0
 21
0.4
 31
0.0
 40
0.9341468435
 41
-4.6971745395
 42
-3.1415926536
  0
ELLIPSE
  5
2F3
100
AcDbEntity
  8
0
100
AcDbEllipse
 62
7
  6
BYLAYER
 10
9.0994447382
 20
38.1301037924
 30
0.0
 11
-0.0
 21
0.1
 31
0.0
 40
0.9341468435
 41
1.5707963268
 42
3.1415926536
  0
ENDSEC
  0
SECTION
  2
OBJECTS
  0
DICTIONARY
  5
C
100
AcDbDictionary
280
0
281
1
  3
ACAD_GROUP
350
D
  3
ACAD_MLINESTYLE
350
17
  3
ACAD_LAYOUT
350
1A
  3
ACAD_PLOTSETTINGS
350
19
  3
ACAD_PLOTSTYLENAME
350
E
  0
DICTIONARY
  5
D
102
{ACAD_REACTORS
330
C
102
}
100
AcDbDictionary
280
0
281
1
  0
ACDBDICTIONARYWDFLT
  5
E
102
{ACAD_REACTORS
330
C
102
}
100
AcDbDictionary
281
1
  3
Normal
350
F
100
AcDbDictionaryWithDefault
340
F
  0
DICTIONARY
  5
17
102
{ACAD_REACTORS
330
C
102
}
100
AcDbDictionary
280
0
281
1
  3
Standard
350
18
  0
DICTIONARY
  5
19
102
{ACAD_REACTORS
330
C
102
}
100
AcDbDictionary
281
1
  0
DICTIONARY
  5
1A
102
{ACAD_REACTORS
330
C
102
}
100
AcDbDictionary
281
1
  3
Model
350
2F4
  3
Layout1
350
2F5
  0
ACDBPLACEHOLDER
  5
F
102
{ACAD_REACTORS
330
E
102
}
  0
MLINESTYLE
  5
18
102
{ACAD_REACTORS
330
17
102
}
100
AcDbMlineStyle
  2
STANDARD
 70
0
  3

 62
256
 51
90.0
 52
90.0
 71
2
 49
0.5
 62
256
  6
BYLAYER
 49
-0.5
 62
256
  6
BYLAYER
  0
LAYOUT
  5
2F4
102
{ACAD_REACTORS
330
1A
102
}
100
AcDbPlotSettings
  1

  2
none_device
  4

  6

 40
0.0
 41
0.0
 42
0.0
 43
0.0
 44
210.0
 45
297.0
 46
0.0
 47
0.0
 48
0.0
 49
0.0
140
0.0
141
0.0
142
1.0
143
1.0
 70
1024
 72
1
 73
0
 74
0
  7

 75
0
147
1.0
148
0.0
149
0.0
100
AcDbLayout
  1
Model
 70
0
 71
0
 10
0.0
 20
0.0
 11
210.0
 21
297.0
 12
0.0
 22
0.0
 32
0.0
 14
0.0
 24
0.0
 34
0.0
 15
0.0
 25
0.0
 35
0.0
146
0.0
 13
0.0
 23
0.0
 33
0.0
 16
1.0
 26
0.0
 36
0.0
 17
0.0
 27
1.0
 37
0.0
 76
0
330
210
345
0
346
0
  0
LAYOUT
  5
2F5
102
{ACAD_REACTORS
330
1A
102
}
100
AcDbPlotSettings
  1

  2
none_device
  4

  6

 40
0.0
 41
0.0
 42
0.0
 43
0.0
 44
210.0
 45
297.0
 46
0.0
 47
0.0
 48
0.0
 49
0.0
140
0.0
141
0.0
142
1.0
143
1.0
 70
0
 72
1
 73
0
 74
0
  7

 75
0
147
1.0
148
0.0
149
0.0
100
AcDbLayout
  1
Layout1
 70
0
 71
1
 10
0.0
 20
0.0
 11
210.0
 21
297.0
 12
0.0
 22
0.0
 32
0.0
 14
0.0
 24
0.0
 34
0.0
 15
0.0
 25
0.0
 35
0.0
146
0.0
 13
0.0
 23
0.0
 33
0.0
 16
1.0
 26
0.0
 36
0.0
 17
0.0
 27
1.0
 37
0.0
 76
0
330
211
345
0
346
0
  0
ENDSEC
  0
EOF
