999
DXF file: C:\Users\sesa63760\Dev\_Creo\CAD\MCADPD0005444_3D-CAD\drw0001_2.dxf
999
Pro/ENGINEER 2019471 by Parametric Technology Corporation
  0
SECTION
  2
HEADER
  9
$ACADVER
  1
AC1024
  9
$DWGCODEPAGE
  3
ANSI_1252
  9
$EXTMAX
 10
31.4618894247
 20
44.4961007578
 30
0.0
  9
$EXTMIN
 10
0.0
 20
0.0
 30
0.0
  9
$LIMMIN
 10
0.0
 20
0.0
  9
$LIMMAX
 10
31.4618894247
 20
44.4961007578
  9
$VIEWCTR
 10
15.7309447124
 20
22.2480503789
  9
$VIEWSIZE
 40
44.4961007578
  9
$CLAYER
  8
0
  9
$LTSCALE
 40
2.9004865679
  9
$CELTYPE
  6
BYLAYER
  9
$DIMSCALE
 40
1.0
  9
$DIMASZ
 40
0.3745463027
  9
$DIMEXO
 40
1.0
  9
$DIMDLI
 40
2.0039725378
  9
$DIMEXE
 40
1.0
  9
$DIMCEN
 40
0.4746250748
  9
$DIMLFAC
 40
1.0
  9
$DIMBLK
  1
_FILLED
  9
$DIMALT
 70
0
  9
$DIMALTF
 40
0.0393700787
  9
$DIMTXT
 40
0.5243648237
  9
$DIMTOL
 70
1
  9
$DIMLIM
 70
0
  9
$DIMTFAC
 40
1.0
  9
$DIMTP
 40
0.01
  9
$DIMTM
 40
0.01
  9
$DIMGAP
 40
0.625
  9
$DIMDSEP
 70
46
  9
$AUNITS
 70
0
  9
$PDMODE
 70
3
  9
$PDSIZE
 40
0.3125
  9
$HANDSEED
  5
26B
  9
$TILEMODE
 70
1
  9
$MEASUREMENT
 70
1
  9
$INSUNITS
 70
4
  0
ENDSEC
  0
SECTION
  2
CLASSES
  0
CLASS
  1
ACDBDICTIONARYWDFLT
  2
AcDbDictionaryWithDefault
  3
AutoCAD 2000
 90
0
 91
1
280
0
281
0
  0
CLASS
  1
ACDBPLACEHOLDER
  2
AcDbPlaceHolder
  3
AutoCAD 2000
 90
0
 91
1
280
0
281
0
  0
CLASS
  1
LAYOUT
  2
AcDbLayout
  3
AutoCAD 2000
 90
0
 91
0
280
0
281
0
  0
ENDSEC
  0
SECTION
  2
TABLES
  0
TABLE
  2
VPORT
  5
8
100
AcDbSymbolTable
 70
2
  0
VPORT
  5
1F4
100
AcDbSymbolTableRecord
100
AcDbViewportTableRecord
  2
*ACTIVE
 70
0
 10
0.0
 20
0.0
 11
1.0
 21
1.0
 12
15.7309447124
 22
22.2480503789
 13
0.0
 23
0.0
 14
1.0
 24
1.0
 15
0.0
 25
0.0
 16
0.0
 26
0.0
 36
1.0
 17
0.0
 27
0.0
 37
0.0
 40
44.4961007578
 41
0.7070707071
 42
50.0
 43
0.0
 44
0.0
 50
0.0
 51
0.0
 71
0
 72
100
 73
1
 74
1
 75
0
 76
0
 77
0
 78
0
  0
ENDTAB
  0
TABLE
  2
LTYPE
  5
5
100
AcDbSymbolTable
 70
6
  0
LTYPE
  5
14
100
AcDbSymbolTableRecord
100
AcDbLinetypeTableRecord
  2
BYBLOCK
 70
0
  3

 72
65
 73
0
 40
0.0
  0
LTYPE
  5
15
100
AcDbSymbolTableRecord
100
AcDbLinetypeTableRecord
  2
BYLAYER
 70
0
  3

 72
65
 73
0
 40
0.0
  0
LTYPE
  5
16
100
AcDbSymbolTableRecord
100
AcDbLinetypeTableRecord
  2
CONTINUOUS
 70
64
  3
Solid line
 72
65
 73
0
 40
0.0
  0
LTYPE
  5
1F5
100
AcDbSymbolTableRecord
100
AcDbLinetypeTableRecord
  2
CENTER
 70
64
  3
____ _ ____ _ ____ _ ____ _ ____ _ ____ _ ____
 72
65
 73
4
 40
0.6
 49
0.375
 74
0
 49
-0.075
 74
0
 49
0.075
 74
0
 49
-0.075
 74
0
  0
LTYPE
  5
1F6
100
AcDbSymbolTableRecord
100
AcDbLinetypeTableRecord
  2
HIDDEN
 70
64
  3
- - - - - - - - - - - - - - - - - - - -
 72
65
 73
2
 40
0.2
 49
0.1
 74
0
 49
-0.1
 74
0
  0
LTYPE
  5
1F7
100
AcDbSymbolTableRecord
100
AcDbLinetypeTableRecord
  2
PHANTOM
 70
64
  3
_____ _ _ _____ _ _ _____ _ _ _____
 72
65
 73
6
 40
0.8
 49
0.45
 74
0
 49
-0.05
 74
0
 49
0.1
 74
0
 49
-0.05
 74
0
 49
0.1
 74
0
 49
-0.05
 74
0
  0
LTYPE
  5
1F8
100
AcDbSymbolTableRecord
100
AcDbLinetypeTableRecord
  2
DOT
 70
64
  3
. . . . . . . . . . . . . . . . . . . .
 72
65
 73
2
 40
0.2
 49
0.1
 74
0
 49
-0.1
 74
0
  0
LTYPE
  5
1F9
100
AcDbSymbolTableRecord
100
AcDbLinetypeTableRecord
  2
DASHED
 70
64
  3
- - - - - - - - - - - - - - - - - - - -
 72
65
 73
2
 40
0.2
 49
0.1
 74
0
 49
-0.1
 74
0
  0
ENDTAB
  0
TABLE
  2
LAYER
  5
2
100
AcDbSymbolTable
 70
36
  0
LAYER
  5
10
100
AcDbSymbolTableRecord
100
AcDbLayerTableRecord
  2
0
 70
0
 62
7
  6
CONTINUOUS
370
-3
390
F
  0
LAYER
  5
1FA
100
AcDbSymbolTableRecord
100
AcDbLayerTableRecord
  2
DEFAULT_1
 70
0
 62
7
  6
CENTER
370
-3
390
F
  0
LAYER
  5
1FB
100
AcDbSymbolTableRecord
100
AcDbLayerTableRecord
  2
DEFAULT_2
 70
0
 62
7
  6
HIDDEN
370
-3
390
F
  0
LAYER
  5
1FC
100
AcDbSymbolTableRecord
100
AcDbLayerTableRecord
  2
DEFAULT_3
 70
0
 62
7
  6
PHANTOM
370
-3
390
F
  0
LAYER
  5
1FD
100
AcDbSymbolTableRecord
100
AcDbLayerTableRecord
  2
00_COMPONENTS
 70
0
 62
7
  6
CONTINUOUS
370
-3
390
F
  0
LAYER
  5
1FE
100
AcDbSymbolTableRecord
100
AcDbLayerTableRecord
  2
01_1_DEFAULT_DATUMS
 70
0
 62
7
  6
CONTINUOUS
370
-3
390
F
  0
LAYER
  5
1FF
100
AcDbSymbolTableRecord
100
AcDbLayerTableRecord
  2
01_PLANES
 70
0
 62
7
  6
CONTINUOUS
370
-3
390
F
  0
LAYER
  5
200
100
AcDbSymbolTableRecord
100
AcDbLayerTableRecord
  2
02_COORD_SYS
 70
0
 62
7
  6
CONTINUOUS
370
-3
390
F
  0
LAYER
  5
201
100
AcDbSymbolTableRecord
100
AcDbLayerTableRecord
  2
03_AXES
 70
0
 62
7
  6
CONTINUOUS
370
-3
390
F
  0
LAYER
  5
202
100
AcDbSymbolTableRecord
100
AcDbLayerTableRecord
  2
04_POINTS
 70
0
 62
7
  6
CONTINUOUS
370
-3
390
F
  0
LAYER
  5
203
100
AcDbSymbolTableRecord
100
AcDbLayerTableRecord
  2
05_CURVES
 70
0
 62
7
  6
CONTINUOUS
370
-3
390
F
  0
LAYER
  5
204
100
AcDbSymbolTableRecord
100
AcDbLayerTableRecord
  2
06_SURFS
 70
0
 62
7
  6
CONTINUOUS
370
-3
390
F
  0
LAYER
  5
205
100
AcDbSymbolTableRecord
100
AcDbLayerTableRecord
  2
07_COSMETICS
 70
0
 62
7
  6
CONTINUOUS
370
-3
390
F
  0
LAYER
  5
206
100
AcDbSymbolTableRecord
100
AcDbLayerTableRecord
  2
10_NOTES
 70
0
 62
7
  6
CONTINUOUS
370
-3
390
F
  0
LAYER
  5
207
100
AcDbSymbolTableRecord
100
AcDbLayerTableRecord
  2
11_NOTES_PUB
 70
0
 62
7
  6
CONTINUOUS
370
-3
390
F
  0
LAYER
  5
208
100
AcDbSymbolTableRecord
100
AcDbLayerTableRecord
  2
13_REF_GTOL
 70
0
 62
7
  6
CONTINUOUS
370
-3
390
F
  0
LAYER
  5
209
100
AcDbSymbolTableRecord
100
AcDbLayerTableRecord
  2
16_MISC
 70
0
 62
7
  6
CONTINUOUS
370
-3
390
F
  0
LAYER
  5
20A
100
AcDbSymbolTableRecord
100
AcDbLayerTableRecord
  2
17_NO_PRINT
 70
0
 62
7
  6
CONTINUOUS
370
-3
390
F
  0
LAYER
  5
20B
100
AcDbSymbolTableRecord
100
AcDbLayerTableRecord
  2
18_DATUM_CAMS_JOINTS
 70
0
 62
7
  6
CONTINUOUS
370
-3
390
F
  0
LAYER
  5
20C
100
AcDbSymbolTableRecord
100
AcDbLayerTableRecord
  2
19_DATUM_FUNCTIONAL
 70
0
 62
7
  6
CONTINUOUS
370
-3
390
F
  0
LAYER
  5
20D
100
AcDbSymbolTableRecord
100
AcDbLayerTableRecord
  2
20_DATUM_KINEMATIC_SCHEME
 70
0
 62
7
  6
CONTINUOUS
370
-3
390
F
  0
ENDTAB
  0
TABLE
  2
STYLE
  5
3
100
AcDbSymbolTable
 70
1
  0
STYLE
  5
11
100
AcDbSymbolTableRecord
100
AcDbTextStyleTableRecord
  2
STANDARD
 70
0
 40
0.0
 41
1.0
 50
0.0
 71
0
 42
0.2
  3
ARIAL.TTF
  4

  0
STYLE
  5
20E
100
AcDbSymbolTableRecord
100
AcDbTextStyleTableRecord
  2
TEXTSTYLE_1
 70
0
 40
0.0
 41
0.8
 50
0.0
 71
0
 42
0.2
  3
gdt
  4

  0
ENDTAB
  0
TABLE
  2
VIEW
  5
6
100
AcDbSymbolTable
 70
0
  0
ENDTAB
  0
TABLE
  2
UCS
  5
7
100
AcDbSymbolTable
 70
0
  0
ENDTAB
  0
TABLE
  2
APPID
  5
9
100
AcDbSymbolTable
 70
1
  0
APPID
  5
20F
100
AcDbSymbolTableRecord
100
AcDbRegAppTableRecord
  2
ACAD
 70
0
  0
ENDTAB
  0
TABLE
  2
BLOCK_RECORD
  5
1
100
AcDbSymbolTable
 70
0
  0
BLOCK_RECORD
  5
210
100
AcDbSymbolTableRecord
100
AcDbBlockTableRecord
  2
*Model_Space
  0
BLOCK_RECORD
  5
211
100
AcDbSymbolTableRecord
100
AcDbBlockTableRecord
  2
*Paper_Space
  0
BLOCK_RECORD
  5
212
100
AcDbSymbolTableRecord
100
AcDbBlockTableRecord
  2
_FILLED
  0
ENDTAB
  0
TABLE
  2
DIMSTYLE
  5
A
100
AcDbSymbolTable
 70
1
100
AcDbDimStyleTable
 71
0
  0
DIMSTYLE
105
213
100
AcDbSymbolTableRecord
100
AcDbDimStyleTableRecord
  2
STANDARD
 70
0
  3

  4

 40
1.0
 41
0.3745463027
 42
1.0
 43
0.38
 44
1.0
 45
0.0
 46
0.0
 47
0.01
 48
0.01
140
0.5243648237
141
0.09
142
0.0
143
25.4
144
1.0
145
0.0
146
1.0
147
0.625
 71
1
 72
0
 73
0
 74
0
 75
0
 76
0
 77
1
 78
8
 79
2
170
0
171
1
172
0
173
0
174
0
175
0
176
0
177
0
178
0
270
2
179
2
271
2
272
2
273
2
274
2
275
0
280
0
281
0
282
0
283
1
284
8
285
0
286
0
287
3
288
0
340
11
278
46
341
212
342
212
343
212
344
212
  0
ENDTAB
  0
ENDSEC
  0
SECTION
  2
BLOCKS
  0
BLOCK
  5
20
100
AcDbEntity
  8
0
100
AcDbBlockBegin
  2
*Model_Space
 70
0
 10
0.0
 20
0.0
 30
0.0
  3
*Model_Space
  1

  0
ENDBLK
  5
21
100
AcDbEntity
  8
0
100
AcDbBlockEnd
  0
BLOCK
  5
1C
100
AcDbEntity
  8
0
100
AcDbBlockBegin
  2
*Paper_Space
 70
0
 10
0.0
 20
0.0
 30
0.0
  3
*Paper_Space
  1

  0
ENDBLK
  5
1D
100
AcDbEntity
  8
0
100
AcDbBlockEnd
  0
BLOCK
  5
214
100
AcDbEntity
  8
0
100
AcDbBlockBegin
  2
_FILLED
 70
64
 10
0.0
 20
0.0
  3
_FILLED
  1

  0
SOLID
  5
215
100
AcDbEntity
  8
0
  6
BYBLOCK
 62
0
100
AcDbTrace
 10
0.0
 20
0.0
 11
-1.0
 21
0.25
 12
-1.0
 22
-0.25
 13
-1.0
 23
-0.25
  0
ENDBLK
  5
216
100
AcDbEntity
  8
0
  6
BYBLOCK
 62
0
100
AcDbBlockEnd
  0
ENDSEC
  0
SECTION
  2
ENTITIES
  0
LINE
  5
217
100
AcDbEntity
  8
0
100
AcDbLine
 62
7
  6
BYLAYER
 10
10.9487305681
 20
13.7577318871
 11
9.4487305681
 21
15.2577318871
  0
LINE
  5
218
100
AcDbEntity
  8
0
100
AcDbLine
 62
7
  6
BYLAYER
 10
10.9487305681
 20
13.7577318871
 11
20.9487305681
 21
13.7577318871
  0
LINE
  5
219
100
AcDbEntity
  8
0
100
AcDbLine
 62
7
  6
BYLAYER
 10
12.9487305681
 20
29.7577318871
 11
11.4487305681
 21
28.2577318871
  0
LINE
  5
21A
100
AcDbEntity
  8
0
100
AcDbLine
 62
7
  6
BYLAYER
 10
11.8987305681
 20
28.2577318871
 11
12.2976017003
 21
28.6566030193
  0
LINE
  5
21B
100
AcDbEntity
  8
0
100
AcDbLine
 62
7
  6
BYLAYER
 10
14.4999840335
 20
14.858860755
 11
12.2976017003
 21
14.858860755
  0
LINE
  5
21C
100
AcDbEntity
  8
0
100
AcDbLine
 62
7
  6
BYLAYER
 10
9.4487305681
 20
15.2577318871
 11
11.8987305681
 21
15.2577318871
  0
LINE
  5
21D
100
AcDbEntity
  8
0
100
AcDbLine
 62
7
  6
BYLAYER
 10
15.4629441305
 20
15.2577318871
 11
22.4487305681
 21
15.2577318871
  0
LINE
  5
21E
100
AcDbEntity
  8
0
100
AcDbLine
 62
7
  6
BYLAYER
 10
11.8987305681
 20
15.2577318871
 11
12.2976017003
 21
14.858860755
  0
LINE
  5
21F
100
AcDbEntity
  8
0
100
AcDbLine
 62
7
  6
BYLAYER
 10
9.4487305681
 20
11.9074117833
 11
9.4487305681
 21
15.2577318871
  0
LINE
  5
220
100
AcDbEntity
  8
0
100
AcDbLine
 62
7
  6
BYLAYER
 10
10.9487305681
 20
11.0923673833
 11
10.9487305681
 21
13.7577318871
  0
LINE
  5
221
100
AcDbEntity
  8
0
100
AcDbLine
 62
7
  6
BYLAYER
 10
11.4487305681
 20
28.2577318871
 11
11.4487305681
 21
32.7323667826
  0
LINE
  5
222
100
AcDbEntity
  8
0
100
AcDbLine
 62
7
  6
BYLAYER
 10
11.8987305681
 20
28.2577318871
 11
11.8987305681
 21
15.2577318871
  0
LINE
  5
223
100
AcDbEntity
  8
0
100
AcDbLine
 62
7
  6
BYLAYER
 10
12.8987305681
 20
18.7077318871
 11
17.4987305681
 21
18.7077318871
  0
LINE
  5
224
100
AcDbEntity
  8
0
100
AcDbLine
 62
7
  6
BYLAYER
 10
12.8987627393
 20
27.4910986099
 11
12.8987627393
 21
16.0243651644
  0
LINE
  5
225
100
AcDbEntity
  8
0
100
AcDbLine
 62
7
  6
BYLAYER
 10
12.9487305681
 20
29.7577318871
 11
12.9487305681
 21
33.2359721704
  0
LINE
  5
226
100
AcDbEntity
  8
0
100
AcDbLine
 62
7
  6
BYLAYER
 10
13.1987305681
 20
24.5077318871
 11
13.1987305681
 21
19.0077318871
  0
LINE
  5
227
100
AcDbEntity
  8
0
100
AcDbLine
 62
7
  6
BYLAYER
 10
13.1987305681
 20
19.0077318871
 11
17.3744664994
 21
19.0077318871
  0
LINE
  5
228
100
AcDbEntity
  8
0
100
AcDbLine
 62
7
  6
BYLAYER
 10
21.3987305681
 20
19.7077318871
 11
19.9129441305
 21
19.7077318871
  0
LINE
  5
229
100
AcDbEntity
  8
0
100
AcDbLine
 62
7
  6
BYLAYER
 10
20.8987305681
 20
20.2077318871
 11
18.9987305681
 21
20.2077318871
  0
LINE
  5
22A
100
AcDbEntity
  8
0
100
AcDbLine
 62
7
  6
BYLAYER
 10
18.8744664994
 20
20.5077318871
 11
20.5987305681
 21
20.5077318871
  0
LINE
  5
22B
100
AcDbEntity
  8
0
100
AcDbLine
 62
7
  6
BYLAYER
 10
12.8987305681
 20
24.8077318871
 11
13.1987305681
 21
24.5077318871
  0
LINE
  5
22C
100
AcDbEntity
  8
0
100
AcDbLine
 62
7
  6
BYLAYER
 10
17.4987305681
 20
18.7077318871
 11
17.3744664994
 21
19.0077318871
  0
LINE
  5
22D
100
AcDbEntity
  8
0
100
AcDbLine
 62
7
  6
BYLAYER
 10
18.9987305681
 20
24.8077318871
 11
18.6987305681
 21
24.5077318871
  0
LINE
  5
22E
100
AcDbEntity
  8
0
100
AcDbLine
 62
7
  6
BYLAYER
 10
12.8987305681
 20
18.7077318871
 11
13.1987305681
 21
19.0077318871
  0
LINE
  5
22F
100
AcDbEntity
  8
0
100
AcDbLine
 62
7
  6
BYLAYER
 10
20.5987305681
 20
22.4077318871
 11
18.6987305681
 21
22.4077318871
  0
LINE
  5
230
100
AcDbEntity
  8
0
100
AcDbLine
 62
7
  6
BYLAYER
 10
18.9987305681
 20
22.7077318871
 11
20.8987305681
 21
22.7077318871
  0
LINE
  5
231
100
AcDbEntity
  8
0
100
AcDbLine
 62
7
  6
BYLAYER
 10
19.9987305681
 20
23.2077318871
 11
21.3987305681
 21
23.2077318871
  0
LINE
  5
232
100
AcDbEntity
  8
0
100
AcDbLine
 62
7
  6
BYLAYER
 10
18.9987305681
 20
22.7077318871
 11
18.6987305681
 21
22.4077318871
  0
LINE
  5
233
100
AcDbEntity
  8
0
100
AcDbLine
 62
7
  6
BYLAYER
 10
19.9987305681
 20
23.2077318871
 11
19.4987305681
 21
22.7077318871
  0
LINE
  5
234
100
AcDbEntity
  8
0
100
AcDbLine
 62
7
  6
BYLAYER
 10
18.6987305681
 20
24.5077318871
 11
13.1987305681
 21
24.5077318871
  0
LINE
  5
235
100
AcDbEntity
  8
0
100
AcDbLine
 62
7
  6
BYLAYER
 10
20.5987305681
 20
20.5077318871
 11
21.3987305681
 21
19.7077318871
  0
LINE
  5
236
100
AcDbEntity
  8
0
100
AcDbLine
 62
7
  6
BYLAYER
 10
18.9987305681
 20
20.2077318871
 11
18.8744664994
 21
20.5077318871
  0
LINE
  5
237
100
AcDbEntity
  8
0
100
AcDbLine
 62
7
  6
BYLAYER
 10
18.6987305681
 20
22.4077318871
 11
18.6987305681
 21
24.5077318871
  0
LINE
  5
238
100
AcDbEntity
  8
0
100
AcDbLine
 62
7
  6
BYLAYER
 10
18.9487305681
 20
33.2359721704
 11
18.9487305681
 21
29.7577318871
  0
LINE
  5
239
100
AcDbEntity
  8
0
100
AcDbLine
 62
7
  6
BYLAYER
 10
18.9987305681
 20
22.7077318871
 11
18.9986983969
 21
27.4910986099
  0
LINE
  5
23A
100
AcDbEntity
  8
0
100
AcDbLine
 62
7
  6
BYLAYER
 10
20.5987305681
 20
22.4077318871
 11
21.3987305681
 21
23.2077318871
  0
LINE
  5
23B
100
AcDbEntity
  8
0
100
AcDbLine
 62
7
  6
BYLAYER
 10
18.8744664994
 20
20.5077318871
 11
17.3744664994
 21
19.0077318871
  0
LINE
  5
23C
100
AcDbEntity
  8
0
100
AcDbLine
 62
7
  6
BYLAYER
 10
14.8161743439
 20
16.0253949674
 11
18.9987305681
 21
20.2077318871
  0
LINE
  5
23D
100
AcDbEntity
  8
0
100
AcDbLine
 62
7
  6
BYLAYER
 10
18.9987305681
 20
24.8077318871
 11
12.8987305681
 21
24.8077318871
  0
LINE
  5
23E
100
AcDbEntity
  8
0
100
AcDbLine
 62
7
  6
BYLAYER
 10
19.9129441305
 20
19.7077318871
 11
19.7058373493
 21
20.2077318871
  0
LINE
  5
23F
100
AcDbEntity
  8
0
100
AcDbLine
 62
7
  6
BYLAYER
 10
19.9987305681
 20
23.2077318871
 11
19.9987305681
 21
28.2577318871
  0
LINE
  5
240
100
AcDbEntity
  8
0
100
AcDbLine
 62
7
  6
BYLAYER
 10
20.4487305681
 20
32.7324623298
 11
20.4487305681
 21
28.2577318871
  0
LINE
  5
241
100
AcDbEntity
  8
0
100
AcDbLine
 62
7
  6
BYLAYER
 10
20.5987305681
 20
20.5077318871
 11
20.5987305681
 21
22.4077318871
  0
LINE
  5
242
100
AcDbEntity
  8
0
100
AcDbLine
 62
7
  6
BYLAYER
 10
15.4629441305
 20
15.2577318871
 11
19.9129441305
 21
19.7077318871
  0
LINE
  5
243
100
AcDbEntity
  8
0
100
AcDbLine
 62
7
  6
BYLAYER
 10
20.8987305681
 20
22.7077318871
 11
20.8987305681
 21
20.2077318871
  0
LINE
  5
244
100
AcDbEntity
  8
0
100
AcDbLine
 62
7
  6
BYLAYER
 10
20.9487305681
 20
13.7577318871
 11
20.9487305681
 21
11.0923673833
  0
LINE
  5
245
100
AcDbEntity
  8
0
100
AcDbLine
 62
7
  6
BYLAYER
 10
21.3987305681
 20
23.2077318871
 11
21.3987305681
 21
19.7077318871
  0
LINE
  5
246
100
AcDbEntity
  8
0
100
AcDbLine
 62
7
  6
BYLAYER
 10
22.4487305681
 20
15.2577318871
 11
22.4487305681
 21
11.9074117826
  0
LINE
  5
247
100
AcDbEntity
  8
0
100
AcDbLine
 62
7
  6
BYLAYER
 10
15.4629441305
 20
15.2577318871
 11
14.4999840335
 21
14.858860755
  0
LINE
  5
248
100
AcDbEntity
  8
0
100
AcDbLine
 62
7
  6
BYLAYER
 10
20.4487305681
 20
28.2577318871
 11
19.9987305681
 21
28.2577318871
  0
LINE
  5
249
100
AcDbEntity
  8
0
100
AcDbLine
 62
7
  6
BYLAYER
 10
11.8987305681
 20
28.2577318871
 11
11.4487305681
 21
28.2577318871
  0
LINE
  5
24A
100
AcDbEntity
  8
0
100
AcDbLine
 62
7
  6
BYLAYER
 10
12.2976017003
 20
28.6566030193
 11
19.5998594359
 21
28.6566030193
  0
LINE
  5
24B
100
AcDbEntity
  8
0
100
AcDbLine
 62
7
  6
BYLAYER
 10
18.9487305681
 20
29.7577318871
 11
12.9487305681
 21
29.7577318871
  0
LINE
  5
24C
100
AcDbEntity
  8
0
100
AcDbLine
 62
7
  6
BYLAYER
 10
19.9987305681
 20
28.2577318871
 11
19.5998594359
 21
28.6566030193
  0
LINE
  5
24D
100
AcDbEntity
  8
0
100
AcDbLine
 62
7
  6
BYLAYER
 10
18.9487305681
 20
29.7577318871
 11
20.4487305681
 21
28.2577318871
  0
LINE
  5
24E
100
AcDbEntity
  8
0
100
AcDbLine
 62
7
  6
BYLAYER
 10
20.9487305681
 20
13.7577318871
 11
22.4487305681
 21
15.2577318871
  0
ARC
  5
24F
100
AcDbEntity
  8
0
100
AcDbCircle
 62
7
  6
BYLAYER
 10
15.9487305681
 20
21.7577318871
 40
12.5
100
AcDbArc
 50
297.279612736
 51
73.0422367
  0
ARC
  5
250
100
AcDbEntity
  8
0
100
AcDbCircle
 62
7
  6
BYLAYER
 10
15.9487305681
 20
21.7577318871
 40
12.5
100
AcDbArc
 50
106.9577633
 51
242.720387264
  0
ARC
  5
251
100
AcDbEntity
  8
0
100
AcDbCircle
 62
7
  6
BYLAYER
 10
15.5801511758
 20
21.715414051
 40
12.044850272
100
AcDbArc
 50
66.1587304864
 51
73.7502827368
  0
ARC
  5
252
100
AcDbEntity
  8
0
100
AcDbCircle
 62
7
  6
BYLAYER
 10
16.3098817046
 20
21.7357009844
 40
12.0232046081
100
AcDbArc
 50
106.2428776718
 51
113.8481521874
  0
ARC
  5
253
100
AcDbEntity
  8
0
100
AcDbCircle
 62
7
  6
BYLAYER
 10
15.9487305681
 20
21.7577318871
 40
12.0
100
AcDbArc
 50
303.1230267473
 51
67.8341724373
  0
ARC
  5
254
100
AcDbEntity
  8
0
100
AcDbCircle
 62
7
  6
BYLAYER
 10
15.9487305681
 20
21.7577318871
 40
12.0
100
AcDbArc
 50
112.1658275624
 51
236.876973251
  0
ARC
  5
255
100
AcDbEntity
  8
0
100
AcDbCircle
 62
7
  6
BYLAYER
 10
15.5983323519
 20
21.7524122943
 40
11.9938318946
100
AcDbArc
 50
296.5210418973
 51
304.8311637406
  0
ARC
  5
256
100
AcDbEntity
  8
0
100
AcDbCircle
 62
7
  6
BYLAYER
 10
16.2991272833
 20
21.752409751
 40
11.9938289531
100
AcDbArc
 50
235.168835209
 51
243.478959098
  0
ARC
  5
257
100
AcDbEntity
  8
0
100
AcDbCircle
 62
7
  6
BYLAYER
 10
15.9487305681
 20
21.7577318871
 40
9.05
100
AcDbArc
 50
70.6250783033
 51
109.5583163771
  0
ARC
  5
258
100
AcDbEntity
  8
0
100
AcDbCircle
 62
7
  6
BYLAYER
 10
15.9487305681
 20
21.7577318871
 40
9.05
100
AcDbArc
 50
243.3547211981
 51
296.6242978281
  0
ARC
  5
259
100
AcDbEntity
  8
0
100
AcDbCircle
 62
7
  6
BYLAYER
 10
17.8964370055
 20
12.708801032
 40
5.9974756012
100
AcDbArc
 50
146.4388525172
 51
158.9922566073
  0
ARC
  5
25A
100
AcDbEntity
  8
0
100
AcDbCircle
 62
7
  6
BYLAYER
 10
14.0010241307
 20
30.8066627423
 40
5.9974756012
100
AcDbArc
 50
326.4388525172
 51
338.9922566073
  0
ARC
  5
25B
100
AcDbEntity
  8
0
100
AcDbCircle
 62
7
  6
BYLAYER
 10
17.8963389771
 20
30.8066121798
 40
5.9973659622
100
AcDbArc
 50
201.0076281858
 51
213.5612626897
  0
ARC
  5
25C
100
AcDbEntity
  8
0
100
AcDbCircle
 62
7
  6
BYLAYER
 10
21.4487305681
 20
11.0923673833
 40
0.5
100
AcDbArc
 50
180.0
 51
297.279612736
  0
ARC
  5
25D
100
AcDbEntity
  8
0
100
AcDbCircle
 62
7
  6
BYLAYER
 10
19.4487305681
 20
33.2359721704
 40
0.5
100
AcDbArc
 50
73.0422367001
 51
180.0
  0
ARC
  5
25E
100
AcDbEntity
  8
0
100
AcDbCircle
 62
7
  6
BYLAYER
 10
12.4487305681
 20
33.2359721704
 40
0.5
100
AcDbArc
 50
0.0
 51
106.9577633
  0
ARC
  5
25F
100
AcDbEntity
  8
0
100
AcDbCircle
 62
7
  6
BYLAYER
 10
10.4487305681
 20
11.0923673833
 40
0.5
100
AcDbArc
 50
242.7203872639
 51
360.0
  0
SPLINE
  5
260
100
AcDbEntity
  8
0
100
AcDbSpline
 62
7
  6
BYLAYER
 70
0
 71
3
 72
11
 73
7
 74
0
 42
0.0000001
 43
0.0000001
 44
0.0000000001
 40
0.0
 40
0.0
 40
0.0
 40
0.0
 40
0.2611170429
 40
0.5155295889
 40
0.762151206
 40
1.0
 40
1.0
 40
1.0
 40
1.0
 10
14.4999840335
 20
14.858860755
 30
0.0
 10
14.5439249057
 20
14.955039364
 30
0.0
 10
14.6242322112
 20
15.1479850556
 30
0.0
 10
14.7195615961
 20
15.4419308039
 30
0.0
 10
14.7859590245
 20
15.7340960272
 30
0.0
 10
14.8102528202
 20
15.9292589348
 30
0.0
 10
14.8161743439
 20
16.0253949674
 30
0.0
  0
SPLINE
  5
261
100
AcDbEntity
  8
0
100
AcDbSpline
 62
7
  6
BYLAYER
 70
0
 71
3
 72
10
 73
6
 74
0
 42
0.0000001
 43
0.0000001
 44
0.0000000001
 40
0.0
 40
0.0
 40
0.0
 40
0.0
 40
0.499463854
 40
0.7497658661
 40
1.0
 40
1.0
 40
1.0
 40
1.0
 10
22.4487305681
 20
11.9074117826
 30
0.0
 10
22.4487306196
 20
11.8723848408
 30
0.0
 10
22.4551539593
 20
11.8193247696
 30
0.0
 10
22.4790460046
 20
11.7531553444
 30
0.0
 10
22.4962106622
 20
11.7223105852
 30
0.0
 10
22.5059936459
 20
11.7077417912
 30
0.0
  0
SPLINE
  5
262
100
AcDbEntity
  8
0
100
AcDbSpline
 62
7
  6
BYLAYER
 70
0
 71
3
 72
9
 73
5
 74
0
 42
0.0000001
 43
0.0000001
 44
0.0000000001
 40
0.0
 40
0.0
 40
0.0
 40
0.0
 40
0.5000572174
 40
1.0
 40
1.0
 40
1.0
 40
1.0
 10
20.4487305681
 20
32.7323854025
 30
0.0
 10
20.4487296716
 20
32.7560399642
 30
0.0
 10
20.453082084
 20
32.8034739296
 30
0.0
 10
20.466967221
 20
32.8491056463
 30
0.0
 10
20.4761926939
 20
32.8708811572
 30
0.0
  0
SPLINE
  5
263
100
AcDbEntity
  8
0
100
AcDbSpline
 62
7
  6
BYLAYER
 70
0
 71
3
 72
17
 73
13
 74
0
 42
0.0000001
 43
0.0000001
 44
0.0000000001
 40
0.0
 40
0.0
 40
0.0
 40
0.0
 40
0.030711733
 40
0.0632937925
 40
0.0991980027
 40
0.1394831793
 40
0.2354248249
 40
0.3535923307
 40
0.4929916995
 40
0.6506447437
 40
0.8219083159
 40
1.0
 40
1.0
 40
1.0
 40
1.0
 10
22.9353000159
 20
11.3925089107
 30
0.0
 10
22.9305032324
 20
11.3892755541
 30
0.0
 10
22.9196545299
 20
11.3839497054
 30
0.0
 10
22.9011945076
 20
11.3801566253
 30
0.0
 10
22.8805788418
 20
11.3803693563
 30
0.0
 10
22.8485829429
 20
11.386337636
 30
0.0
 10
22.8039589352
 20
11.4050164567
 30
0.0
 10
22.7476868553
 20
11.4409348961
 30
0.0
 10
22.6872914955
 20
11.4908876314
 30
0.0
 10
22.6250047899
 20
11.5535057581
 30
0.0
 10
22.5633637554
 20
11.6265665632
 30
0.0
 10
22.5246941406
 20
11.6798930631
 30
0.0
 10
22.5059936459
 20
11.7077417912
 30
0.0
  0
SPLINE
  5
264
100
AcDbEntity
  8
0
100
AcDbSpline
 62
7
  6
BYLAYER
 70
0
 71
3
 72
17
 73
13
 74
0
 42
0.0000001
 43
0.0000001
 44
0.0000000001
 40
0.0
 40
0.0
 40
0.0
 40
0.0
 40
0.032561327
 40
0.0667912249
 40
0.1040067962
 40
0.1452140506
 40
0.2418956353
 40
0.3596556383
 40
0.4979083669
 40
0.6540254096
 40
0.8236076063
 40
1.0
 40
1.0
 40
1.0
 40
1.0
 10
20.851942252
 20
33.2558777558
 30
0.0
 10
20.8462164492
 20
33.2583204168
 30
0.0
 10
20.8337946916
 20
33.2618660675
 30
0.0
 10
20.8137774758
 20
33.2627233736
 30
0.0
 10
20.7923916846
 20
33.2592602396
 30
0.0
 10
20.7606170735
 20
33.2483198194
 30
0.0
 10
20.7184191927
 20
33.2227019793
 30
0.0
 10
20.6678432245
 20
33.1777972963
 30
0.0
 10
20.6161397686
 20
33.1180924732
 30
0.0
 10
20.5653214032
 20
33.0452346681
 30
0.0
 10
20.5175569473
 20
32.9618479149
 30
0.0
 10
20.4893375842
 20
32.9019364011
 30
0.0
 10
20.4761824693
 20
32.870885489
 30
0.0
  0
SPLINE
  5
265
100
AcDbEntity
  8
0
100
AcDbSpline
 62
7
  6
BYLAYER
 70
0
 71
3
 72
9
 73
5
 74
0
 42
0.0000001
 43
0.0000001
 44
0.0000000001
 40
0.0
 40
0.0
 40
0.0
 40
0.0
 40
0.5000511804
 40
1.0
 40
1.0
 40
1.0
 40
1.0
 10
11.4487305681
 20
32.7323854027
 30
0.0
 10
11.4487275734
 20
32.7560396564
 30
0.0
 10
11.4443753168
 20
32.8034714979
 30
0.0
 10
11.4305029023
 20
32.84910917
 30
0.0
 10
11.4212684423
 20
32.8708811573
 30
0.0
  0
SPLINE
  5
266
100
AcDbEntity
  8
0
100
AcDbSpline
 62
7
  6
BYLAYER
 70
0
 71
3
 72
10
 73
6
 74
0
 42
0.0000001
 43
0.0000001
 44
0.0000000001
 40
0.0
 40
0.0
 40
0.0
 40
0.0
 40
0.4994780275
 40
0.7497738341
 40
1.0
 40
1.0
 40
1.0
 40
1.0
 10
9.4487305681
 20
11.9074117833
 30
0.0
 10
9.4487305162
 20
11.8723838449
 30
0.0
 10
9.4423065398
 20
11.819323304
 30
0.0
 10
9.418414883
 20
11.7531537142
 30
0.0
 10
9.4012501629
 20
11.7223101225
 30
0.0
 10
9.39146749
 20
11.7077417914
 30
0.0
  0
SPLINE
  5
267
100
AcDbEntity
  8
0
100
AcDbSpline
 62
7
  6
BYLAYER
 70
0
 71
3
 72
17
 73
13
 74
0
 42
0.0000001
 43
0.0000001
 44
0.0000000001
 40
0.0
 40
0.0
 40
0.0
 40
0.0
 40
0.0325544956
 40
0.066780569
 40
0.1039986104
 40
0.1452152948
 40
0.241922028
 40
0.3596933897
 40
0.4979447022
 40
0.654053096
 40
0.8236187972
 40
1.0
 40
1.0
 40
1.0
 40
1.0
 10
11.0454943894
 20
33.2559176125
 30
0.0
 10
11.0512196429
 20
33.2583588841
 30
0.0
 10
11.0636411445
 20
33.2619006773
 30
0.0
 10
11.0836580281
 20
33.2627496244
 30
0.0
 10
11.1050447375
 20
33.2592779408
 30
0.0
 10
11.1368249159
 20
33.2483288897
 30
0.0
 10
11.1790337924
 20
33.2227092045
 30
0.0
 10
11.2296155805
 20
33.1777955092
 30
0.0
 10
11.2813139457
 20
33.1180820171
 30
0.0
 10
11.332130472
 20
33.0452247227
 30
0.0
 10
11.3798832588
 20
32.9618343156
 30
0.0
 10
11.4081009533
 20
32.9019260051
 30
0.0
 10
11.4212684424
 20
32.8708811573
 30
0.0
  0
SPLINE
  5
268
100
AcDbEntity
  8
0
100
AcDbSpline
 62
7
  6
BYLAYER
 70
0
 71
3
 72
17
 73
13
 74
0
 42
0.0000001
 43
0.0000001
 44
0.0000000001
 40
0.0
 40
0.0
 40
0.0
 40
0.0
 40
0.0307163358
 40
0.0633077938
 40
0.0992180527
 40
0.1395018872
 40
0.2354310977
 40
0.3535923177
 40
0.4929900032
 40
0.6506416863
 40
0.8219073144
 40
1.0
 40
1.0
 40
1.0
 40
1.0
 10
8.9621611204
 20
11.3925089106
 30
0.0
 10
8.966958961
 20
11.3892755436
 30
0.0
 10
8.9778100699
 20
11.3839490395
 30
0.0
 10
8.9962729233
 20
11.3801516872
 30
0.0
 10
9.0168915286
 20
11.3803597221
 30
0.0
 10
9.0488865269
 20
11.3863281139
 30
0.0
 10
9.0935014946
 20
11.4050203309
 30
0.0
 10
9.1497649753
 20
11.440943363
 30
0.0
 10
9.2101605231
 20
11.4908933344
 30
0.0
 10
9.2724502275
 20
11.5535085154
 30
0.0
 10
9.3340950204
 20
11.6265669127
 30
0.0
 10
9.3727668402
 20
11.6798928325
 30
0.0
 10
9.39146749
 20
11.7077417914
 30
0.0
  0
ENDSEC
  0
SECTION
  2
OBJECTS
  0
DICTIONARY
  5
C
100
AcDbDictionary
280
0
281
1
  3
ACAD_GROUP
350
D
  3
ACAD_MLINESTYLE
350
17
  3
ACAD_LAYOUT
350
1A
  3
ACAD_PLOTSETTINGS
350
19
  3
ACAD_PLOTSTYLENAME
350
E
  0
DICTIONARY
  5
D
102
{ACAD_REACTORS
330
C
102
}
100
AcDbDictionary
280
0
281
1
  0
ACDBDICTIONARYWDFLT
  5
E
102
{ACAD_REACTORS
330
C
102
}
100
AcDbDictionary
281
1
  3
Normal
350
F
100
AcDbDictionaryWithDefault
340
F
  0
DICTIONARY
  5
17
102
{ACAD_REACTORS
330
C
102
}
100
AcDbDictionary
280
0
281
1
  3
Standard
350
18
  0
DICTIONARY
  5
19
102
{ACAD_REACTORS
330
C
102
}
100
AcDbDictionary
281
1
  0
DICTIONARY
  5
1A
102
{ACAD_REACTORS
330
C
102
}
100
AcDbDictionary
281
1
  3
Model
350
269
  3
Layout1
350
26A
  0
ACDBPLACEHOLDER
  5
F
102
{ACAD_REACTORS
330
E
102
}
  0
MLINESTYLE
  5
18
102
{ACAD_REACTORS
330
17
102
}
100
AcDbMlineStyle
  2
STANDARD
 70
0
  3

 62
256
 51
90.0
 52
90.0
 71
2
 49
0.5
 62
256
  6
BYLAYER
 49
-0.5
 62
256
  6
BYLAYER
  0
LAYOUT
  5
269
102
{ACAD_REACTORS
330
1A
102
}
100
AcDbPlotSettings
  1

  2
none_device
  4

  6

 40
0.0
 41
0.0
 42
0.0
 43
0.0
 44
210.0
 45
297.0
 46
0.0
 47
0.0
 48
0.0
 49
0.0
140
0.0
141
0.0
142
1.0
143
1.0
 70
1024
 72
1
 73
0
 74
0
  7

 75
0
147
1.0
148
0.0
149
0.0
100
AcDbLayout
  1
Model
 70
0
 71
0
 10
0.0
 20
0.0
 11
210.0
 21
297.0
 12
0.0
 22
0.0
 32
0.0
 14
0.0
 24
0.0
 34
0.0
 15
0.0
 25
0.0
 35
0.0
146
0.0
 13
0.0
 23
0.0
 33
0.0
 16
1.0
 26
0.0
 36
0.0
 17
0.0
 27
1.0
 37
0.0
 76
0
330
210
345
0
346
0
  0
LAYOUT
  5
26A
102
{ACAD_REACTORS
330
1A
102
}
100
AcDbPlotSettings
  1

  2
none_device
  4

  6

 40
0.0
 41
0.0
 42
0.0
 43
0.0
 44
210.0
 45
297.0
 46
0.0
 47
0.0
 48
0.0
 49
0.0
140
0.0
141
0.0
142
1.0
143
1.0
 70
0
 72
1
 73
0
 74
0
  7

 75
0
147
1.0
148
0.0
149
0.0
100
AcDbLayout
  1
Layout1
 70
0
 71
1
 10
0.0
 20
0.0
 11
210.0
 21
297.0
 12
0.0
 22
0.0
 32
0.0
 14
0.0
 24
0.0
 34
0.0
 15
0.0
 25
0.0
 35
0.0
146
0.0
 13
0.0
 23
0.0
 33
0.0
 16
1.0
 26
0.0
 36
0.0
 17
0.0
 27
1.0
 37
0.0
 76
0
330
211
345
0
346
0
  0
ENDSEC
  0
EOF
