999
DXF file: C:\Users\sesa63760\Dev\_Creo\CAD\MCADID0000544_3D-CAD\drw0001_1.dxf
999
Pro/ENGINEER 2019471 by Parametric Technology Corporation
  0
SECTION
  2
HEADER
  9
$ACADVER
  1
AC1024
  9
$DWGCODEPAGE
  3
ANSI_1252
  9
$EXTMAX
 10
240.5099051035
 20
340.1497229321
 30
0.0
  9
$EXTMIN
 10
0.0
 20
0.0
 30
0.0
  9
$LIMMIN
 10
0.0
 20
0.0
  9
$LIMMAX
 10
240.5099051035
 20
340.1497229321
  9
$VIEWCTR
 10
120.2549525517
 20
170.074861466
  9
$VIEWSIZE
 40
340.1497229321
  9
$CLAYER
  8
0
  9
$LTSCALE
 40
22.17272268
  9
$CELTYPE
  6
BYLAYER
  9
$DIMSCALE
 40
1.0
  9
$DIMASZ
 40
2.863213156
  9
$DIMEXO
 40
1.0
  9
$DIMDLI
 40
15.3193356698
  9
$DIMEXE
 40
1.0
  9
$DIMCEN
 40
3.6282637113
  9
$DIMLFAC
 40
1.0
  9
$DIMBLK
  1
_FILLED
  9
$DIMALT
 70
0
  9
$DIMALTF
 40
0.0393700787
  9
$DIMTXT
 40
4.0084984184
  9
$DIMTOL
 70
1
  9
$DIMLIM
 70
0
  9
$DIMTFAC
 40
1.0
  9
$DIMTP
 40
0.01
  9
$DIMTM
 40
0.01
  9
$DIMGAP
 40
0.625
  9
$DIMDSEP
 70
46
  9
$AUNITS
 70
0
  9
$PDMODE
 70
3
  9
$PDSIZE
 40
0.3125
  9
$HANDSEED
  5
335
  9
$TILEMODE
 70
1
  9
$MEASUREMENT
 70
1
  9
$INSUNITS
 70
4
  0
ENDSEC
  0
SECTION
  2
CLASSES
  0
CLASS
  1
ACDBDICTIONARYWDFLT
  2
AcDbDictionaryWithDefault
  3
AutoCAD 2000
 90
0
 91
1
280
0
281
0
  0
CLASS
  1
ACDBPLACEHOLDER
  2
AcDbPlaceHolder
  3
AutoCAD 2000
 90
0
 91
1
280
0
281
0
  0
CLASS
  1
LAYOUT
  2
AcDbLayout
  3
AutoCAD 2000
 90
0
 91
0
280
0
281
0
  0
ENDSEC
  0
SECTION
  2
TABLES
  0
TABLE
  2
VPORT
  5
8
100
AcDbSymbolTable
 70
2
  0
VPORT
  5
1F4
100
AcDbSymbolTableRecord
100
AcDbViewportTableRecord
  2
*ACTIVE
 70
0
 10
0.0
 20
0.0
 11
1.0
 21
1.0
 12
120.2549525517
 22
170.074861466
 13
0.0
 23
0.0
 14
1.0
 24
1.0
 15
0.0
 25
0.0
 16
0.0
 26
0.0
 36
1.0
 17
0.0
 27
0.0
 37
0.0
 40
340.1497229321
 41
0.7070707071
 42
50.0
 43
0.0
 44
0.0
 50
0.0
 51
0.0
 71
0
 72
100
 73
1
 74
1
 75
0
 76
0
 77
0
 78
0
  0
ENDTAB
  0
TABLE
  2
LTYPE
  5
5
100
AcDbSymbolTable
 70
6
  0
LTYPE
  5
14
100
AcDbSymbolTableRecord
100
AcDbLinetypeTableRecord
  2
BYBLOCK
 70
0
  3

 72
65
 73
0
 40
0.0
  0
LTYPE
  5
15
100
AcDbSymbolTableRecord
100
AcDbLinetypeTableRecord
  2
BYLAYER
 70
0
  3

 72
65
 73
0
 40
0.0
  0
LTYPE
  5
16
100
AcDbSymbolTableRecord
100
AcDbLinetypeTableRecord
  2
CONTINUOUS
 70
64
  3
Solid line
 72
65
 73
0
 40
0.0
  0
LTYPE
  5
1F5
100
AcDbSymbolTableRecord
100
AcDbLinetypeTableRecord
  2
CENTER
 70
64
  3
____ _ ____ _ ____ _ ____ _ ____ _ ____ _ ____
 72
65
 73
4
 40
0.6
 49
0.375
 74
0
 49
-0.075
 74
0
 49
0.075
 74
0
 49
-0.075
 74
0
  0
LTYPE
  5
1F6
100
AcDbSymbolTableRecord
100
AcDbLinetypeTableRecord
  2
HIDDEN
 70
64
  3
- - - - - - - - - - - - - - - - - - - -
 72
65
 73
2
 40
0.2
 49
0.1
 74
0
 49
-0.1
 74
0
  0
LTYPE
  5
1F7
100
AcDbSymbolTableRecord
100
AcDbLinetypeTableRecord
  2
PHANTOM
 70
64
  3
_____ _ _ _____ _ _ _____ _ _ _____
 72
65
 73
6
 40
0.8
 49
0.45
 74
0
 49
-0.05
 74
0
 49
0.1
 74
0
 49
-0.05
 74
0
 49
0.1
 74
0
 49
-0.05
 74
0
  0
LTYPE
  5
1F8
100
AcDbSymbolTableRecord
100
AcDbLinetypeTableRecord
  2
DOT
 70
64
  3
. . . . . . . . . . . . . . . . . . . .
 72
65
 73
2
 40
0.2
 49
0.1
 74
0
 49
-0.1
 74
0
  0
LTYPE
  5
1F9
100
AcDbSymbolTableRecord
100
AcDbLinetypeTableRecord
  2
DASHED
 70
64
  3
- - - - - - - - - - - - - - - - - - - -
 72
65
 73
2
 40
0.2
 49
0.1
 74
0
 49
-0.1
 74
0
  0
ENDTAB
  0
TABLE
  2
LAYER
  5
2
100
AcDbSymbolTable
 70
36
  0
LAYER
  5
10
100
AcDbSymbolTableRecord
100
AcDbLayerTableRecord
  2
0
 70
0
 62
7
  6
CONTINUOUS
370
-3
390
F
  0
LAYER
  5
1FA
100
AcDbSymbolTableRecord
100
AcDbLayerTableRecord
  2
DEFAULT_1
 70
0
 62
7
  6
CENTER
370
-3
390
F
  0
LAYER
  5
1FB
100
AcDbSymbolTableRecord
100
AcDbLayerTableRecord
  2
DEFAULT_2
 70
0
 62
8
  6
HIDDEN
370
-3
390
F
  0
LAYER
  5
1FC
100
AcDbSymbolTableRecord
100
AcDbLayerTableRecord
  2
DEFAULT_3
 70
0
 62
7
  6
PHANTOM
370
-3
390
F
  0
LAYER
  5
1FD
100
AcDbSymbolTableRecord
100
AcDbLayerTableRecord
  2
00_COMPONENTS
 70
0
 62
7
  6
CONTINUOUS
370
-3
390
F
  0
LAYER
  5
1FE
100
AcDbSymbolTableRecord
100
AcDbLayerTableRecord
  2
01_1_DEFAULT_DATUMS
 70
0
 62
7
  6
CONTINUOUS
370
-3
390
F
  0
LAYER
  5
1FF
100
AcDbSymbolTableRecord
100
AcDbLayerTableRecord
  2
01_PLANES
 70
0
 62
7
  6
CONTINUOUS
370
-3
390
F
  0
LAYER
  5
200
100
AcDbSymbolTableRecord
100
AcDbLayerTableRecord
  2
02_COORD_SYS
 70
0
 62
7
  6
CONTINUOUS
370
-3
390
F
  0
LAYER
  5
201
100
AcDbSymbolTableRecord
100
AcDbLayerTableRecord
  2
03_AXES
 70
0
 62
7
  6
CONTINUOUS
370
-3
390
F
  0
LAYER
  5
202
100
AcDbSymbolTableRecord
100
AcDbLayerTableRecord
  2
04_POINTS
 70
0
 62
7
  6
CONTINUOUS
370
-3
390
F
  0
LAYER
  5
203
100
AcDbSymbolTableRecord
100
AcDbLayerTableRecord
  2
05_CURVES
 70
0
 62
7
  6
CONTINUOUS
370
-3
390
F
  0
LAYER
  5
204
100
AcDbSymbolTableRecord
100
AcDbLayerTableRecord
  2
06_SURFS
 70
0
 62
7
  6
CONTINUOUS
370
-3
390
F
  0
LAYER
  5
205
100
AcDbSymbolTableRecord
100
AcDbLayerTableRecord
  2
07_COSMETICS
 70
0
 62
7
  6
CONTINUOUS
370
-3
390
F
  0
LAYER
  5
206
100
AcDbSymbolTableRecord
100
AcDbLayerTableRecord
  2
10_NOTES
 70
0
 62
7
  6
CONTINUOUS
370
-3
390
F
  0
LAYER
  5
207
100
AcDbSymbolTableRecord
100
AcDbLayerTableRecord
  2
11_NOTES_PUB
 70
0
 62
7
  6
CONTINUOUS
370
-3
390
F
  0
LAYER
  5
208
100
AcDbSymbolTableRecord
100
AcDbLayerTableRecord
  2
13_REF_GTOL
 70
0
 62
7
  6
CONTINUOUS
370
-3
390
F
  0
LAYER
  5
209
100
AcDbSymbolTableRecord
100
AcDbLayerTableRecord
  2
16_MISC
 70
0
 62
7
  6
CONTINUOUS
370
-3
390
F
  0
LAYER
  5
20A
100
AcDbSymbolTableRecord
100
AcDbLayerTableRecord
  2
17_NO_PRINT
 70
0
 62
7
  6
CONTINUOUS
370
-3
390
F
  0
LAYER
  5
20B
100
AcDbSymbolTableRecord
100
AcDbLayerTableRecord
  2
18_DATUM_CAMS_JOINTS
 70
0
 62
7
  6
CONTINUOUS
370
-3
390
F
  0
LAYER
  5
20C
100
AcDbSymbolTableRecord
100
AcDbLayerTableRecord
  2
19_DATUM_FUNCTIONAL
 70
0
 62
7
  6
CONTINUOUS
370
-3
390
F
  0
LAYER
  5
20D
100
AcDbSymbolTableRecord
100
AcDbLayerTableRecord
  2
20_DATUM_KINEMATIC_SCHEME
 70
0
 62
7
  6
CONTINUOUS
370
-3
390
F
  0
ENDTAB
  0
TABLE
  2
STYLE
  5
3
100
AcDbSymbolTable
 70
1
  0
STYLE
  5
11
100
AcDbSymbolTableRecord
100
AcDbTextStyleTableRecord
  2
STANDARD
 70
0
 40
0.0
 41
0.8
 50
0.0
 71
0
 42
0.2
  3
txt
  4

  0
STYLE
  5
20E
100
AcDbSymbolTableRecord
100
AcDbTextStyleTableRecord
  2
TEXTSTYLE_1
 70
0
 40
0.0
 41
0.8
 50
0.0
 71
0
 42
0.2
  3
gdt
  4

  0
ENDTAB
  0
TABLE
  2
VIEW
  5
6
100
AcDbSymbolTable
 70
0
  0
ENDTAB
  0
TABLE
  2
UCS
  5
7
100
AcDbSymbolTable
 70
0
  0
ENDTAB
  0
TABLE
  2
APPID
  5
9
100
AcDbSymbolTable
 70
1
  0
APPID
  5
20F
100
AcDbSymbolTableRecord
100
AcDbRegAppTableRecord
  2
ACAD
 70
0
  0
ENDTAB
  0
TABLE
  2
BLOCK_RECORD
  5
1
100
AcDbSymbolTable
 70
0
  0
BLOCK_RECORD
  5
210
100
AcDbSymbolTableRecord
100
AcDbBlockTableRecord
  2
*Model_Space
  0
BLOCK_RECORD
  5
211
100
AcDbSymbolTableRecord
100
AcDbBlockTableRecord
  2
*Paper_Space
  0
BLOCK_RECORD
  5
212
100
AcDbSymbolTableRecord
100
AcDbBlockTableRecord
  2
_FILLED
  0
ENDTAB
  0
TABLE
  2
DIMSTYLE
  5
A
100
AcDbSymbolTable
 70
1
100
AcDbDimStyleTable
 71
0
  0
DIMSTYLE
105
213
100
AcDbSymbolTableRecord
100
AcDbDimStyleTableRecord
  2
STANDARD
 70
0
  3

  4

 40
1.0
 41
2.863213156
 42
1.0
 43
0.38
 44
1.0
 45
0.0
 46
0.0
 47
0.01
 48
0.01
140
4.0084984184
141
0.09
142
0.0
143
25.4
144
1.0
145
0.0
146
1.0
147
0.625
 71
1
 72
0
 73
0
 74
0
 75
0
 76
0
 77
1
 78
8
 79
2
170
0
171
1
172
0
173
0
174
0
175
0
176
0
177
0
178
0
270
2
179
2
271
2
272
2
273
2
274
2
275
0
280
0
281
0
282
0
283
1
284
8
285
0
286
0
287
3
288
0
340
11
278
46
341
212
342
212
343
212
344
212
  0
ENDTAB
  0
ENDSEC
  0
SECTION
  2
BLOCKS
  0
BLOCK
  5
20
100
AcDbEntity
  8
0
100
AcDbBlockBegin
  2
*Model_Space
 70
0
 10
0.0
 20
0.0
 30
0.0
  3
*Model_Space
  1

  0
ENDBLK
  5
21
100
AcDbEntity
  8
0
100
AcDbBlockEnd
  0
BLOCK
  5
1C
100
AcDbEntity
  8
0
100
AcDbBlockBegin
  2
*Paper_Space
 70
0
 10
0.0
 20
0.0
 30
0.0
  3
*Paper_Space
  1

  0
ENDBLK
  5
1D
100
AcDbEntity
  8
0
100
AcDbBlockEnd
  0
BLOCK
  5
214
100
AcDbEntity
  8
0
100
AcDbBlockBegin
  2
_FILLED
 70
64
 10
0.0
 20
0.0
  3
_FILLED
  1

  0
SOLID
  5
215
100
AcDbEntity
  8
0
  6
BYBLOCK
 62
0
100
AcDbTrace
 10
0.0
 20
0.0
 11
-1.0
 21
0.25
 12
-1.0
 22
-0.25
 13
-1.0
 23
-0.25
  0
ENDBLK
  5
216
100
AcDbEntity
  8
0
  6
BYBLOCK
 62
0
100
AcDbBlockEnd
  0
ENDSEC
  0
SECTION
  2
ENTITIES
  0
LINE
  5
217
100
AcDbEntity
  8
0
100
AcDbLine
 62
7
  6
CONTINUOUS
 10
31.2582004811
 20
237.4223172211
 11
71.7045399698
 21
260.7738828225
  0
LINE
  5
218
100
AcDbEntity
  8
0
100
AcDbLine
 62
7
  6
CONTINUOUS
 10
31.2582004811
 20
237.4223172211
 11
30.5862294127
 21
232.9112566189
  0
LINE
  5
219
100
AcDbEntity
  8
0
100
AcDbLine
 62
7
  6
CONTINUOUS
 10
33.2025353958
 20
236.2997803299
 11
35.677398826
 21
237.7286348685
  0
LINE
  5
21A
100
AcDbEntity
  8
0
100
AcDbLine
 62
7
  6
CONTINUOUS
 10
71.1740114542
 20
258.2224913928
 11
73.6488748844
 21
259.6513459314
  0
LINE
  5
21B
100
AcDbEntity
  8
0
100
AcDbLine
 62
7
  6
CONTINUOUS
 10
30.0998505114
 20
233.1920612558
 11
30.6777596459
 21
233.5257152585
  0
LINE
  5
21C
100
AcDbEntity
  8
0
100
AcDbLine
 62
7
  6
CONTINUOUS
 10
33.2025353958
 20
233.8502730785
 11
34.7987280015
 21
234.7718298081
  0
LINE
  5
21D
100
AcDbEntity
  8
0
100
AcDbLine
 62
7
  6
CONTINUOUS
 10
77.8915332353
 20
257.2019014042
 11
75.416669805
 21
255.7730468657
  0
LINE
  5
21E
100
AcDbEntity
  8
0
100
AcDbLine
 62
7
  6
CONTINUOUS
 10
39.9200571769
 20
235.2791903413
 11
37.4451937467
 21
233.8503358028
  0
LINE
  5
21F
100
AcDbEntity
  8
0
100
AcDbLine
 62
7
  6
CONTINUOUS
 10
33.2025353958
 20
236.2997803299
 11
33.2025353958
 21
233.8502730785
  0
LINE
  5
220
100
AcDbEntity
  8
0
100
AcDbLine
 62
7
  6
CONTINUOUS
 10
33.2025353958
 20
231.4007658271
 11
33.2025353958
 21
163.4677647219
  0
LINE
  5
221
100
AcDbEntity
  8
0
100
AcDbLine
 62
7
  6
CONTINUOUS
 10
34.7987280015
 20
235.3608092209
 11
34.7987280015
 21
234.0544053535
  0
LINE
  5
222
100
AcDbEntity
  8
0
100
AcDbLine
 62
7
  6
CONTINUOUS
 10
35.677398826
 20
237.7286348685
 11
35.677398826
 21
236.5855314845
  0
LINE
  5
223
100
AcDbEntity
  8
0
100
AcDbLine
 62
7
  6
CONTINUOUS
 10
38.2230303417
 20
228.0532274142
 11
40.1322107022
 21
229.1554866297
  0
LINE
  5
224
100
AcDbEntity
  8
0
100
AcDbLine
 62
7
  6
CONTINUOUS
 10
38.2230303417
 20
228.0532274142
 11
38.5016015159
 21
209.4640937967
  0
LINE
  5
225
100
AcDbEntity
  8
0
100
AcDbLine
 62
7
  6
CONTINUOUS
 10
37.4451937467
 20
233.8503358028
 11
37.4451937467
 21
231.4008285514
  0
LINE
  5
226
100
AcDbEntity
  8
0
100
AcDbLine
 62
7
  6
CONTINUOUS
 10
74.9220091795
 20
212.2135758132
 11
77.3968726097
 21
213.6424303518
  0
LINE
  5
227
100
AcDbEntity
  8
0
100
AcDbLine
 62
7
  6
CONTINUOUS
 10
112.8934852378
 20
234.1362868761
 11
115.3683486681
 21
235.5651414147
  0
LINE
  5
228
100
AcDbEntity
  8
0
100
AcDbLine
 62
7
  6
CONTINUOUS
 10
142.1750111334
 20
107.8285327555
 11
131.4199259433
 21
106.7631479545
  0
LINE
  5
229
100
AcDbEntity
  8
0
100
AcDbLine
 62
7
  6
CONTINUOUS
 10
66.0831376151
 20
189.3105523372
 11
66.0831376151
 21
144.4845696368
  0
LINE
  5
22A
100
AcDbEntity
  8
0
100
AcDbLine
 62
7
  6
CONTINUOUS
 10
70.4007955518
 20
191.0475021721
 11
70.679366726
 21
209.3149767817
  0
LINE
  5
22B
100
AcDbEntity
  8
0
100
AcDbLine
 62
7
  6
CONTINUOUS
 10
66.0831376151
 20
186.2894933938
 11
67.3912964629
 21
188.5553035603
  0
LINE
  5
22C
100
AcDbEntity
  8
0
100
AcDbLine
 62
7
  6
CONTINUOUS
 10
70.679366726
 20
209.3149767817
 11
72.5885470865
 21
210.4172359972
  0
LINE
  5
22D
100
AcDbEntity
  8
0
100
AcDbLine
 62
7
  6
CONTINUOUS
 10
74.9220091795
 20
209.7640685618
 11
76.5182017851
 21
210.6856252914
  0
LINE
  5
22E
100
AcDbEntity
  8
0
100
AcDbLine
 62
7
  6
CONTINUOUS
 10
84.1143973348
 20
212.213597909
 11
115.3683869397
 21
230.2579895101
  0
LINE
  5
22F
100
AcDbEntity
  8
0
100
AcDbLine
 62
7
  6
CONTINUOUS
 10
81.6395339046
 20
208.3352361191
 11
84.1143973348
 21
209.7640906576
  0
LINE
  5
230
100
AcDbEntity
  8
0
100
AcDbLine
 62
7
  6
CONTINUOUS
 10
115.3683869397
 20
227.8084822587
 11
117.8432503699
 21
229.2373367973
  0
LINE
  5
231
100
AcDbEntity
  8
0
100
AcDbLine
 62
7
  6
CONTINUOUS
 10
83.5133590732
 20
208.7230560723
 11
115.9694252013
 21
227.461462735
  0
LINE
  5
232
100
AcDbEntity
  8
0
100
AcDbLine
 62
7
  6
CONTINUOUS
 10
30.6319295169
 20
163.9372336467
 11
66.7044745773
 21
143.1112111933
  0
LINE
  5
233
100
AcDbEntity
  8
0
100
AcDbLine
 62
7
  6
CONTINUOUS
 10
71.1740114542
 20
257.0793880088
 11
71.1740114542
 21
258.2224913928
  0
LINE
  5
234
100
AcDbEntity
  8
0
100
AcDbLine
 62
7
  6
CONTINUOUS
 10
73.1542348666
 20
182.2070858486
 11
73.1542348666
 21
140.4021620916
  0
LINE
  5
235
100
AcDbEntity
  8
0
100
AcDbLine
 62
7
  6
CONTINUOUS
 10
73.6488748844
 20
259.6513459314
 11
73.6488748844
 21
257.5722357107
  0
LINE
  5
236
100
AcDbEntity
  8
0
100
AcDbLine
 62
7
  6
CONTINUOUS
 10
74.9220091795
 20
212.2135758132
 11
74.9220091795
 21
209.7640685618
  0
LINE
  5
237
100
AcDbEntity
  8
0
100
AcDbLine
 62
7
  6
CONTINUOUS
 10
76.5182017851
 20
211.2746047042
 11
76.5182017851
 21
209.9682008368
  0
LINE
  5
238
100
AcDbEntity
  8
0
100
AcDbLine
 62
7
  6
CONTINUOUS
 10
77.3968726097
 20
213.6424303518
 11
77.3968726097
 21
212.4993269678
  0
LINE
  5
239
100
AcDbEntity
  8
0
100
AcDbLine
 62
7
  6
CONTINUOUS
 10
77.3968932175
 20
208.335225921
 11
77.3968932175
 21
182.7787002648
  0
LINE
  5
23A
100
AcDbEntity
  8
0
100
AcDbLine
 62
7
  6
CONTINUOUS
 10
72.5885470865
 20
210.4172359972
 11
72.3099759123
 21
192.1497613876
  0
LINE
  5
23B
100
AcDbEntity
  8
0
100
AcDbLine
 62
7
  6
CONTINUOUS
 10
74.4623937144
 20
184.4728960151
 11
73.1542348666
 21
182.2070858486
  0
LINE
  5
23C
100
AcDbEntity
  8
0
100
AcDbLine
 62
7
  6
CONTINUOUS
 10
117.8432503699
 20
226.7878295459
 11
117.4897373817
 21
226.5837299453
  0
LINE
  5
23D
100
AcDbEntity
  8
0
100
AcDbLine
 62
7
  6
CONTINUOUS
 10
83.5398955415
 20
206.9828966211
 11
81.6395339046
 21
205.8857288677
  0
LINE
  5
23E
100
AcDbEntity
  8
0
100
AcDbLine
 62
7
  6
CONTINUOUS
 10
117.8786214592
 20
226.3592126977
 11
85.4225553311
 21
207.620806035
  0
LINE
  5
23F
100
AcDbEntity
  8
0
100
AcDbLine
 62
7
  6
CONTINUOUS
 10
72.3099759123
 20
192.1497613876
 11
70.4007955518
 21
191.0475021721
  0
LINE
  5
240
100
AcDbEntity
  8
0
100
AcDbLine
 62
7
  6
CONTINUOUS
 10
71.4819588429
 20
190.375368641
 11
69.5727784824
 21
189.2731094256
  0
LINE
  5
241
100
AcDbEntity
  8
0
100
AcDbLine
 62
7
  6
CONTINUOUS
 10
176.9328395341
 20
80.4288545549
 11
172.8316031282
 21
82.7966509311
  0
LINE
  5
242
100
AcDbEntity
  8
0
100
AcDbLine
 62
7
  6
CONTINUOUS
 10
91.5390700566
 20
129.7878499478
 11
29.8028194592
 21
165.430547229
  0
LINE
  5
243
100
AcDbEntity
  8
0
100
AcDbLine
 62
7
  6
CONTINUOUS
 10
93.3068620333
 20
128.7673005877
 11
131.4199259433
 21
106.7631479545
  0
LINE
  5
244
100
AcDbEntity
  8
0
100
AcDbLine
 62
7
  6
CONTINUOUS
 10
93.3068620333
 20
129.093897373
 11
89.2056244498
 21
131.461694429
  0
LINE
  5
245
100
AcDbEntity
  8
0
100
AcDbLine
 62
7
  6
CONTINUOUS
 10
175.8972779304
 20
82.717785294
 11
171.7960415246
 21
85.0855816702
  0
LINE
  5
246
100
AcDbEntity
  8
0
100
AcDbLine
 62
7
  6
CONTINUOUS
 10
142.1750111334
 20
107.8285327555
 11
133.7535383117
 21
112.6908113733
  0
LINE
  5
247
100
AcDbEntity
  8
0
100
AcDbLine
 62
7
  6
CONTINUOUS
 10
134.5819875946
 20
112.2397104595
 11
171.7960415246
 21
90.7546524623
  0
LINE
  5
248
100
AcDbEntity
  8
0
100
AcDbLine
 62
7
  6
CONTINUOUS
 10
171.7960415246
 20
92.1075024575
 11
133.7535383117
 21
114.0708550507
  0
LINE
  5
249
100
AcDbEntity
  8
0
100
AcDbLine
 62
7
  6
CONTINUOUS
 10
83.7919279278
 20
190.4555828018
 11
83.5133590732
 21
208.7230560723
  0
LINE
  5
24A
100
AcDbEntity
  8
0
100
AcDbLine
 62
7
  6
CONTINUOUS
 10
85.4225553311
 20
207.620806035
 11
85.7011241857
 21
189.3533327646
  0
LINE
  5
24B
100
AcDbEntity
  8
0
100
AcDbLine
 62
7
  6
CONTINUOUS
 10
81.6395132968
 20
212.4993371658
 11
81.6395132968
 21
213.6424405498
  0
LINE
  5
24C
100
AcDbEntity
  8
0
100
AcDbLine
 62
7
  6
CONTINUOUS
 10
81.6395339046
 20
182.7787104629
 11
81.6395339046
 21
208.3352361191
  0
LINE
  5
24D
100
AcDbEntity
  8
0
100
AcDbLine
 62
7
  6
CONTINUOUS
 10
82.5182017851
 20
211.2746047042
 11
82.5182017851
 21
209.9682008368
  0
LINE
  5
24E
100
AcDbEntity
  8
0
100
AcDbLine
 62
7
  6
CONTINUOUS
 10
84.1143973348
 20
212.213597909
 11
84.1143973348
 21
209.7640906576
  0
LINE
  5
24F
100
AcDbEntity
  8
0
100
AcDbLine
 62
7
  6
CONTINUOUS
 10
183.6206597626
 20
92.0122675968
 11
184.7520353228
 21
91.3590823896
  0
LINE
  5
250
100
AcDbEntity
  8
0
100
AcDbLine
 62
7
  6
CONTINUOUS
 10
89.417758545
 20
172.8175484946
 11
89.417758545
 21
131.0126247376
  0
LINE
  5
251
100
AcDbEntity
  8
0
100
AcDbLine
 62
7
  6
CONTINUOUS
 10
93.3068620333
 20
128.7673005877
 11
93.3068620333
 21
170.5722243448
  0
LINE
  5
252
100
AcDbEntity
  8
0
100
AcDbLine
 62
7
  6
CONTINUOUS
 10
91.5390700566
 20
176.4917882076
 11
89.417758545
 21
172.8175484946
  0
LINE
  5
253
100
AcDbEntity
  8
0
100
AcDbLine
 62
7
  6
CONTINUOUS
 10
93.3068620333
 20
170.5722243448
 11
95.4281735449
 21
174.2464640578
  0
LINE
  5
254
100
AcDbEntity
  8
0
100
AcDbLine
 62
7
  6
CONTINUOUS
 10
88.5291087532
 20
187.7770507295
 11
114.7720680371
 21
202.9283398954
  0
LINE
  5
255
100
AcDbEntity
  8
0
100
AcDbLine
 62
7
  6
CONTINUOUS
 10
117.8432503699
 20
203.6808111411
 11
81.6395339046
 21
182.7787104629
  0
LINE
  5
256
100
AcDbEntity
  8
0
100
AcDbLine
 62
7
  6
CONTINUOUS
 10
103.095207277
 20
237.3206253621
 11
103.095207277
 21
234.4628669021
  0
LINE
  5
257
100
AcDbEntity
  8
0
100
AcDbLine
 62
7
  6
CONTINUOUS
 10
127.742786522
 20
197.3938888858
 11
91.5390700566
 21
176.4917882076
  0
LINE
  5
258
100
AcDbEntity
  8
0
100
AcDbLine
 62
7
  6
CONTINUOUS
 10
95.4281735449
 20
174.2464640578
 11
131.6318900103
 21
195.148564736
  0
LINE
  5
259
100
AcDbEntity
  8
0
100
AcDbLine
 62
7
  6
CONTINUOUS
 10
131.4199259433
 20
153.4670862143
 11
142.1750111334
 21
154.5324710153
  0
LINE
  5
25A
100
AcDbEntity
  8
0
100
AcDbLine
 62
7
  6
CONTINUOUS
 10
133.7535383117
 20
138.5659275646
 11
171.7960415246
 21
116.6025749714
  0
LINE
  5
25B
100
AcDbEntity
  8
0
100
AcDbLine
 62
7
  6
CONTINUOUS
 10
195.0018614108
 20
109.1127035742
 11
208.0126803535
 21
101.601073691
  0
LINE
  5
25C
100
AcDbEntity
  8
0
100
AcDbLine
 62
7
  6
CONTINUOUS
 10
111.095207277
 20
237.3206253621
 11
111.095207277
 21
234.4628669021
  0
LINE
  5
25D
100
AcDbEntity
  8
0
100
AcDbLine
 62
7
  6
CONTINUOUS
 10
112.8934852378
 20
232.9931834921
 11
112.8934852378
 21
234.1362868761
  0
LINE
  5
25E
100
AcDbEntity
  8
0
100
AcDbLine
 62
7
  6
CONTINUOUS
 10
171.7960415246
 20
123.1345106762
 11
136.5819536605
 21
143.4649138486
  0
LINE
  5
25F
100
AcDbEntity
  8
0
100
AcDbLine
 62
7
  6
CONTINUOUS
 10
171.7960415246
 20
123.6244957587
 11
175.8972779304
 21
121.2566993825
  0
LINE
  5
260
100
AcDbEntity
  8
0
100
AcDbLine
 62
7
  6
CONTINUOUS
 10
137.2890574978
 20
143.8731580025
 11
171.8429978559
 21
123.9238825481
  0
LINE
  5
261
100
AcDbEntity
  8
0
100
AcDbLine
 62
7
  6
CONTINUOUS
 10
89.417758545
 20
172.8175484946
 11
66.0831376151
 21
186.2894933938
  0
LINE
  5
262
100
AcDbEntity
  8
0
100
AcDbLine
 62
7
  6
CONTINUOUS
 10
93.3068620333
 20
170.5722243448
 11
129.2986144317
 21
149.7928465013
  0
LINE
  5
263
100
AcDbEntity
  8
0
100
AcDbLine
 62
7
  6
CONTINUOUS
 10
77.3968932175
 20
182.7787002648
 11
66.0831376151
 21
189.3105523372
  0
LINE
  5
264
100
AcDbEntity
  8
0
100
AcDbLine
 62
7
  6
CONTINUOUS
 10
41.3296096316
 20
204.6223695464
 11
67.5727874362
 21
189.4712065417
  0
LINE
  5
265
100
AcDbEntity
  8
0
100
AcDbLine
 62
7
  6
CONTINUOUS
 10
91.5390700566
 20
176.4917882076
 11
81.0117601108
 21
182.5695959403
  0
LINE
  5
266
100
AcDbEntity
  8
0
100
AcDbLine
 62
7
  6
CONTINUOUS
 10
95.4281735449
 20
174.2464640578
 11
131.4199259433
 21
153.4670862143
  0
LINE
  5
267
100
AcDbEntity
  8
0
100
AcDbLine
 62
7
  6
CONTINUOUS
 10
175.0956145956
 20
129.5577519412
 11
140.5417351489
 21
149.5069922291
  0
LINE
  5
268
100
AcDbEntity
  8
0
100
AcDbLine
 62
7
  6
CONTINUOUS
 10
179.4327971165
 20
127.3804322375
 11
175.3315607107
 21
129.7482286137
  0
LINE
  5
269
100
AcDbEntity
  8
0
100
AcDbLine
 62
7
  6
CONTINUOUS
 10
140.5417351489
 20
150.3234946462
 11
175.7557505843
 21
129.9931332896
  0
LINE
  5
26A
100
AcDbEntity
  8
0
100
AcDbLine
 62
7
  6
CONTINUOUS
 10
199.5017850592
 20
116.9069762894
 11
212.5126040019
 21
109.3953464062
  0
LINE
  5
26B
100
AcDbEntity
  8
0
100
AcDbLine
 62
7
  6
CONTINUOUS
 10
115.3683486681
 20
235.5651414147
 11
115.3683486681
 21
233.486031194
  0
LINE
  5
26C
100
AcDbEntity
  8
0
100
AcDbLine
 62
7
  6
CONTINUOUS
 10
115.3683869397
 20
230.2579895101
 11
115.3683869397
 21
227.8084822587
  0
LINE
  5
26D
100
AcDbEntity
  8
0
100
AcDbLine
 62
7
  6
CONTINUOUS
 10
117.8432503699
 20
229.2373367973
 11
117.8432503699
 21
226.3796337437
  0
LINE
  5
26E
100
AcDbEntity
  8
0
100
AcDbLine
 62
7
  6
CONTINUOUS
 10
117.8432503699
 20
223.9988700344
 11
117.8432503699
 21
203.6808111411
  0
LINE
  5
26F
100
AcDbEntity
  8
0
100
AcDbLine
 62
7
  6
CONTINUOUS
 10
118.0148144133
 20
231.7684612286
 11
118.0148144133
 21
230.4620573612
  0
LINE
  5
270
100
AcDbEntity
  8
0
100
AcDbLine
 62
7
  6
CONTINUOUS
 10
118.7219211945
 20
204.9055334047
 11
118.7219211945
 21
230.4620590608
  0
LINE
  5
271
100
AcDbEntity
  8
0
100
AcDbLine
 62
7
  6
CONTINUOUS
 10
121.5912510392
 20
154.2425941639
 11
121.5912510392
 21
112.4376704069
  0
LINE
  5
272
100
AcDbEntity
  8
0
100
AcDbLine
 62
7
  6
CONTINUOUS
 10
117.6000526046
 20
207.770077741
 11
117.8786214592
 21
226.3592126977
  0
LINE
  5
273
100
AcDbEntity
  8
0
100
AcDbLine
 62
7
  6
CONTINUOUS
 10
84.6199464293
 20
188.6811892285
 11
86.5291426872
 21
187.5789391913
  0
LINE
  5
274
100
AcDbEntity
  8
0
100
AcDbLine
 62
7
  6
CONTINUOUS
 10
181.4126537107
 20
133.259128337
 11
143.3701504978
 21
155.2224809302
  0
LINE
  5
275
100
AcDbEntity
  8
0
100
AcDbLine
 62
7
  6
CONTINUOUS
 10
85.7011241857
 20
189.3533327646
 11
83.7919279278
 21
190.4555828018
  0
LINE
  5
276
100
AcDbEntity
  8
0
100
AcDbLine
 62
7
  6
CONTINUOUS
 10
129.2986144317
 20
149.7928465013
 11
133.7535383117
 21
139.9459712421
  0
LINE
  5
277
100
AcDbEntity
  8
0
100
AcDbLine
 62
7
  6
CONTINUOUS
 10
129.8640980336
 20
195.842580035
 11
129.8640980336
 21
196.1691140961
  0
LINE
  5
278
100
AcDbEntity
  8
0
100
AcDbLine
 62
7
  6
CONTINUOUS
 10
123.7125625508
 20
157.9168338769
 11
121.5912510392
 21
154.2425941639
  0
LINE
  5
279
100
AcDbEntity
  8
0
100
AcDbLine
 62
7
  6
CONTINUOUS
 10
70.679366726
 20
209.3149767817
 11
38.2230303417
 21
228.0532274142
  0
LINE
  5
27A
100
AcDbEntity
  8
0
100
AcDbLine
 62
7
  6
CONTINUOUS
 10
77.3968932175
 20
205.8857186696
 11
72.5620103972
 21
208.6770764184
  0
LINE
  5
27B
100
AcDbEntity
  8
0
100
AcDbLine
 62
7
  6
CONTINUOUS
 10
38.6118985218
 20
228.2777392225
 11
30.0998505114
 21
233.1920612558
  0
LINE
  5
27C
100
AcDbEntity
  8
0
100
AcDbLine
 62
7
  6
CONTINUOUS
 10
40.1322107022
 20
229.1554866297
 11
72.5885470865
 21
210.4172359972
  0
LINE
  5
27D
100
AcDbEntity
  8
0
100
AcDbLine
 62
7
  6
CONTINUOUS
 10
133.7535383117
 20
139.9459712421
 11
133.7535383117
 21
112.6908113733
  0
LINE
  5
27E
100
AcDbEntity
  8
0
100
AcDbLine
 62
7
  6
CONTINUOUS
 10
140.5417351489
 20
149.5069922291
 11
140.5417351489
 21
150.3234946462
  0
LINE
  5
27F
100
AcDbEntity
  8
0
100
AcDbLine
 62
7
  6
CONTINUOUS
 10
131.4199259433
 20
153.4670862143
 11
129.2986144317
 21
149.7928465013
  0
LINE
  5
280
100
AcDbEntity
  8
0
100
AcDbLine
 62
7
  6
CONTINUOUS
 10
159.9162790161
 20
178.8189345552
 11
123.7125625508
 21
157.9168338769
  0
LINE
  5
281
100
AcDbEntity
  8
0
100
AcDbLine
 62
7
  6
CONTINUOUS
 10
33.2025353958
 20
233.8502730785
 11
37.4451937467
 21
231.4008285514
  0
LINE
  5
282
100
AcDbEntity
  8
0
100
AcDbLine
 62
7
  6
CONTINUOUS
 10
74.9220091795
 20
209.7640685618
 11
77.3968932175
 21
208.335225921
  0
LINE
  5
283
100
AcDbEntity
  8
0
100
AcDbLine
 62
7
  6
CONTINUOUS
 10
31.2582004811
 20
237.4223172211
 11
33.2025353958
 21
236.2997803299
  0
LINE
  5
284
100
AcDbEntity
  8
0
100
AcDbLine
 62
7
  6
CONTINUOUS
 10
37.4451937467
 20
233.8503358028
 11
74.9220091795
 21
212.2135758132
  0
LINE
  5
285
100
AcDbEntity
  8
0
100
AcDbLine
 62
7
  6
CONTINUOUS
 10
208.6202355869
 20
135.3137826812
 11
209.7516111472
 21
134.660597474
  0
LINE
  5
286
100
AcDbEntity
  8
0
100
AcDbLine
 62
7
  6
CONTINUOUS
 10
85.4225553311
 20
207.620806035
 11
83.5133590732
 21
208.7230560723
  0
LINE
  5
287
100
AcDbEntity
  8
0
100
AcDbLine
 62
7
  6
CONTINUOUS
 10
82.5182017851
 20
210.6856337398
 11
84.1143973348
 21
209.7640906576
  0
LINE
  5
288
100
AcDbEntity
  8
0
100
AcDbLine
 62
7
  6
CONTINUOUS
 10
81.6395132968
 20
213.6424405498
 11
84.1143973348
 21
212.213597909
  0
LINE
  5
289
100
AcDbEntity
  8
0
100
AcDbLine
 62
7
  6
CONTINUOUS
 10
133.7535383117
 20
139.9459712421
 11
142.1750111334
 21
154.5324710153
  0
LINE
  5
28A
100
AcDbEntity
  8
0
100
AcDbLine
 62
7
  6
CONTINUOUS
 10
91.5390700566
 20
129.7878499478
 11
91.8219695344
 21
129.9511810625
  0
LINE
  5
28B
100
AcDbEntity
  8
0
100
AcDbLine
 62
7
  6
CONTINUOUS
 10
165.7784049786
 20
168.1598154613
 11
142.1750111334
 21
154.5324710153
  0
LINE
  5
28C
100
AcDbEntity
  8
0
100
AcDbLine
 62
7
  6
CONTINUOUS
 10
164.5832656142
 20
167.4698055464
 11
202.6257688271
 21
145.5064529532
  0
LINE
  5
28D
100
AcDbEntity
  8
0
100
AcDbLine
 62
7
  6
CONTINUOUS
 10
166.5832316802
 20
167.6679170846
 11
203.7973156111
 21
146.1828417668
  0
LINE
  5
28E
100
AcDbEntity
  8
0
100
AcDbLine
 62
7
  6
CONTINUOUS
 10
165.7784049786
 20
168.1598154613
 11
174.1998778003
 21
163.2975368435
  0
LINE
  5
28F
100
AcDbEntity
  8
0
100
AcDbLine
 62
7
  6
CONTINUOUS
 10
208.7068618272
 20
149.0173526765
 11
212.808098233
 21
146.6495563003
  0
LINE
  5
290
100
AcDbEntity
  8
0
100
AcDbLine
 62
7
  6
CONTINUOUS
 10
131.3490448539
 20
194.9852649836
 11
127.2478108919
 21
197.3530599489
  0
LINE
  5
291
100
AcDbEntity
  8
0
100
AcDbLine
 62
7
  6
CONTINUOUS
 10
129.8640980336
 20
196.1691140961
 11
117.3482650088
 21
203.3950329155
  0
LINE
  5
292
100
AcDbEntity
  8
0
100
AcDbLine
 62
7
  6
CONTINUOUS
 10
169.7449539203
 20
173.1444121027
 11
131.6318900103
 21
195.148564736
  0
LINE
  5
293
100
AcDbEntity
  8
0
100
AcDbLine
 62
7
  6
CONTINUOUS
 10
215.3080558154
 20
146.8971957231
 11
211.2068194096
 21
149.2649920993
  0
LINE
  5
294
100
AcDbEntity
  8
0
100
AcDbLine
 62
7
  6
CONTINUOUS
 10
136.5819536605
 20
143.4649138486
 11
137.2890574978
 21
143.8731580025
  0
LINE
  5
295
100
AcDbEntity
  8
0
100
AcDbLine
 62
7
  6
CONTINUOUS
 10
162.7450370427
 20
121.8280566293
 11
162.7450370427
 21
97.3329841154
  0
LINE
  5
296
100
AcDbEntity
  8
0
100
AcDbLine
 62
7
  6
CONTINUOUS
 10
167.6236424087
 20
174.3691868925
 11
165.7784049786
 21
168.1598154613
  0
LINE
  5
297
100
AcDbEntity
  8
0
100
AcDbLine
 62
7
  6
CONTINUOUS
 10
169.7449539203
 20
173.1444121027
 11
174.1998778003
 21
163.2975368435
  0
LINE
  5
298
100
AcDbEntity
  8
0
100
AcDbLine
 62
7
  6
CONTINUOUS
 10
169.53323388
 20
133.5856237109
 11
169.53323388
 21
132.7691212938
  0
LINE
  5
299
100
AcDbEntity
  8
0
100
AcDbLine
 62
7
  6
CONTINUOUS
 10
171.7960415246
 20
85.0855816702
 11
171.7960415246
 21
92.1075024575
  0
LINE
  5
29A
100
AcDbEntity
  8
0
100
AcDbLine
 62
7
  6
CONTINUOUS
 10
171.7960415246
 20
116.6025749714
 11
171.7960415246
 21
123.6244957587
  0
LINE
  5
29B
100
AcDbEntity
  8
0
100
AcDbLine
 62
7
  6
CONTINUOUS
 10
174.1998778003
 20
163.2705438787
 11
174.1998778003
 21
163.2975368435
  0
LINE
  5
29C
100
AcDbEntity
  8
0
100
AcDbLine
 62
7
  6
CONTINUOUS
 10
133.7535383117
 20
112.6908113733
 11
129.2986144317
 21
107.9879227442
  0
LINE
  5
29D
100
AcDbEntity
  8
0
100
AcDbLine
 62
7
  6
CONTINUOUS
 10
193.5747643452
 20
150.731934611
 11
172.3616492288
 21
138.4846099949
  0
LINE
  5
29E
100
AcDbEntity
  8
0
100
AcDbLine
 62
7
  6
CONTINUOUS
 10
117.8786214592
 20
226.3592126977
 11
115.9694252013
 21
227.461462735
  0
LINE
  5
29F
100
AcDbEntity
  8
0
100
AcDbLine
 62
7
  6
CONTINUOUS
 10
115.3683869397
 20
230.2579895101
 11
112.8935029016
 21
231.6868321509
  0
LINE
  5
2A0
100
AcDbEntity
  8
0
100
AcDbLine
 62
7
  6
CONTINUOUS
 10
115.3683486681
 20
235.5651414147
 11
110.6341888666
 21
238.298348017
  0
LINE
  5
2A1
100
AcDbEntity
  8
0
100
AcDbLine
 62
7
  6
CONTINUOUS
 10
108.7886673325
 20
239.363836267
 11
77.8915332353
 21
257.2019014042
  0
LINE
  5
2A2
100
AcDbEntity
  8
0
100
AcDbLine
 62
7
  6
CONTINUOUS
 10
73.6488748844
 20
259.6513459314
 11
71.7045399698
 21
260.7738828225
  0
LINE
  5
2A3
100
AcDbEntity
  8
0
100
AcDbLine
 62
7
  6
CONTINUOUS
 10
175.8972779304
 20
121.2566993825
 11
175.8972779304
 21
82.717785294
  0
LINE
  5
2A4
100
AcDbEntity
  8
0
100
AcDbLine
 62
7
  6
CONTINUOUS
 10
166.2805562288
 20
127.1352870672
 11
165.5734523916
 21
126.7270429133
  0
LINE
  5
2A5
100
AcDbEntity
  8
0
100
AcDbLine
 62
7
  6
CONTINUOUS
 10
175.3315607107
 20
129.7482286137
 11
181.4126537107
 21
133.259128337
  0
LINE
  5
2A6
100
AcDbEntity
  8
0
100
AcDbLine
 62
7
  6
CONTINUOUS
 10
202.6257688271
 20
145.5064529532
 11
208.7068618272
 21
149.0173526765
  0
LINE
  5
2A7
100
AcDbEntity
  8
0
100
AcDbLine
 62
7
  6
CONTINUOUS
 10
142.1750111334
 20
107.8285327555
 11
142.1986037138
 21
107.8421538568
  0
LINE
  5
2A8
100
AcDbEntity
  8
0
100
AcDbLine
 62
7
  6
CONTINUOUS
 10
212.808098233
 20
146.6495563003
 11
179.4327971165
 21
127.3804322375
  0
LINE
  5
2A9
100
AcDbEntity
  8
0
100
AcDbLine
 62
7
  6
CONTINUOUS
 10
216.3436174191
 20
106.0693508955
 11
216.3436174191
 21
144.608264984
  0
LINE
  5
2AA
100
AcDbEntity
  8
0
100
AcDbLine
 62
7
  6
CONTINUOUS
 10
210.2626421777
 20
107.661941454
 11
210.9231090838
 21
107.9043944019
  0
LINE
  5
2AB
100
AcDbEntity
  8
0
100
AcDbLine
 62
7
  6
CONTINUOUS
 10
179.4327971165
 20
80.6764939777
 11
212.808098233
 21
99.9456180405
  0
ARC
  5
2AC
100
AcDbEntity
  8
0
100
AcDbCircle
 62
7
  6
CONTINUOUS
 10
161.6709206626
 20
133.5525124766
 40
7.9785220502
100
AcDbArc
 50
328.9517320484
 51
331.0489209581
  0
ARC
  5
2AD
100
AcDbEntity
  8
0
100
AcDbCircle
 62
7
  6
CONTINUOUS
 10
161.7843052849
 20
133.4825235189
 40
7.8452843253
100
AcDbArc
 50
322.5615793381
 51
328.9625598263
  0
ARC
  5
2AE
100
AcDbEntity
  8
0
100
AcDbCircle
 62
7
  6
CONTINUOUS
 10
161.8399438295
 20
133.4643572956
 40
7.7879499186
100
AcDbArc
 50
331.0144970451
 51
337.4617376817
  0
ARC
  5
2AF
100
AcDbEntity
  8
0
100
AcDbCircle
 62
7
  6
CONTINUOUS
 10
79.5182047919
 20
210.534630254
 40
5.1562245781
100
AcDbArc
 50
263.5258730156
 51
276.4737961813
  0
ARC
  5
2B0
100
AcDbEntity
  8
0
100
AcDbCircle
 62
7
  6
CONTINUOUS
 10
37.7944335141
 20
238.7356969848
 40
5.1068003925
100
AcDbArc
 50
266.0731906646
 51
266.2771437936
  0
ARC
  5
2B1
100
AcDbEntity
  8
0
100
AcDbCircle
 62
7
  6
CONTINUOUS
 10
115.0191097471
 20
235.1433378343
 40
5.1067892035
100
AcDbArc
 50
273.7231339532
 51
273.9272435418
  0
ARC
  5
2B2
100
AcDbEntity
  8
0
100
AcDbCircle
 62
7
  6
CONTINUOUS
 10
37.7939727511
 20
238.7290688661
 40
5.1001562804
100
AcDbArc
 50
265.6065755674
 51
266.0732555267
  0
ARC
  5
2B3
100
AcDbEntity
  8
0
100
AcDbCircle
 62
7
  6
CONTINUOUS
 10
115.0195707623
 20
235.1367067743
 40
5.1001421396
100
AcDbArc
 50
273.9271786809
 51
274.3938670821
  0
ARC
  5
2B4
100
AcDbEntity
  8
0
100
AcDbCircle
 62
7
  6
CONTINUOUS
 10
71.6796994842
 20
255.6877893692
 40
1.4229332174
100
AcDbArc
 50
143.756465207
 51
147.9787180415
  0
SPLINE
  5
2B5
100
AcDbEntity
  8
0
100
AcDbSpline
 62
7
  6
CONTINUOUS
 70
0
 71
3
 72
14
 73
10
 74
0
 42
0.0000001
 43
0.0000001
 44
0.0000000001
 40
0.0
 40
0.0
 40
0.0
 40
0.0
 40
0.2892788785
 40
0.4225377813
 40
0.5484922121
 40
0.6678919699
 40
0.7818652625
 40
0.8919497476
 40
1.0
 40
1.0
 40
1.0
 40
1.0
 10
197.251823235
 20
116.6841008088
 30
0.0
 10
197.4493493665
 20
116.7981418933
 30
0.0
 10
197.7526001176
 20
116.9424736299
 30
0.0
 10
198.1684805577
 20
117.0637422683
 30
0.0
 10
198.4636720559
 20
117.113244195
 30
0.0
 10
198.7477082817
 20
117.1231449759
 30
0.0
 10
199.017901829
 20
117.0930056027
 30
0.0
 10
199.2713547107
 20
117.0229122989
 30
0.0
 10
199.4280044316
 20
116.9495698764
 30
0.0
 10
199.5017840177
 20
116.9069744853
 30
0.0
  0
SPLINE
  5
2B6
100
AcDbEntity
  8
0
100
AcDbSpline
 62
7
  6
CONTINUOUS
 70
0
 71
3
 72
23
 73
19
 74
0
 42
0.0000001
 43
0.0000001
 44
0.0000000001
 40
0.0
 40
0.0
 40
0.0
 40
0.0
 40
0.0623916983
 40
0.1287423442
 40
0.1983450203
 40
0.2703325552
 40
0.3437219147
 40
0.4174665113
 40
0.4905033157
 40
0.5618018359
 40
0.6304104097
 40
0.6955086082
 40
0.75646609
 40
0.812912539
 40
0.8648215158
 40
0.912604092
 40
0.957185771
 40
1.0
 40
1.0
 40
1.0
 40
1.0
 10
210.2626421777
 20
101.8239491715
 30
0.0
 10
210.4243158684
 20
101.9172909632
 30
0.0
 10
210.7454972516
 20
102.1319315066
 30
0.0
 10
211.2003344272
 20
102.5146996654
 30
0.0
 10
211.6351099665
 20
102.9611039848
 30
0.0
 10
212.0405364642
 20
103.4615788972
 30
0.0
 10
212.4080232023
 20
104.0055160526
 30
0.0
 10
212.729734413
 20
104.5813023161
 30
0.0
 10
212.9988017805
 20
105.1766573362
 30
0.0
 10
213.2094911086
 20
105.7788914308
 30
0.0
 10
213.3573140001
 20
106.3752183309
 30
0.0
 10
213.4391043355
 20
106.9530555713
 30
0.0
 10
213.4530314504
 20
107.5003289005
 30
0.0
 10
213.398509492
 20
108.0057472908
 30
0.0
 10
213.2760556326
 20
108.4589224116
 30
0.0
 10
213.0869390045
 20
108.8503004521
 30
0.0
 10
212.8338534395
 20
109.17032596
 30
0.0
 10
212.6235467308
 20
109.331292895
 30
0.0
 10
212.5126030155
 20
109.3953446973
 30
0.0
  0
SPLINE
  5
2B7
100
AcDbEntity
  8
0
100
AcDbSpline
 62
7
  6
CONTINUOUS
 70
0
 71
3
 72
23
 73
19
 74
0
 42
0.0000001
 43
0.0000001
 44
0.0000000001
 40
0.0
 40
0.0
 40
0.0
 40
0.0
 40
0.0428149581
 40
0.0873974424
 40
0.1351808469
 40
0.1870905525
 40
0.243537527
 40
0.3044952463
 40
0.3695933208
 40
0.4382013601
 40
0.509498991
 40
0.5825347113
 40
0.656278212
 40
0.7296666734
 40
0.8016536994
 40
0.8712562238
 40
0.9376075212
 40
1.0
 40
1.0
 40
1.0
 40
1.0
 10
195.0018624523
 20
109.1127053782
 30
0.0
 10
194.8909167115
 20
109.1767580176
 30
0.0
 10
194.6806069805
 20
109.3377289345
 30
0.0
 10
194.4275191
 20
109.6577616761
 30
0.0
 10
194.2384028569
 20
110.0491478437
 30
0.0
 10
194.1159514315
 20
110.5023300489
 30
0.0
 10
194.0614331649
 20
111.007753287
 30
0.0
 10
194.0753642159
 20
111.5550283666
 30
0.0
 10
194.1571577657
 20
112.1328638101
 30
0.0
 10
194.3049822635
 20
112.7291854628
 30
0.0
 10
194.5156711327
 20
113.3314116855
 30
0.0
 10
194.7847360063
 20
113.9267576681
 30
0.0
 10
195.1064432899
 20
114.5025354812
 30
0.0
 10
195.473925735
 20
115.0464664206
 30
0.0
 10
195.8793488981
 20
115.5469379215
 30
0.0
 10
196.314123245
 20
115.9933433122
 30
0.0
 10
196.7689630326
 20
116.3761142647
 30
0.0
 10
197.090147533
 20
116.590757856
 30
0.0
 10
197.251823235
 20
116.6841008088
 30
0.0
  0
SPLINE
  5
2B8
100
AcDbEntity
  8
0
100
AcDbSpline
 62
7
  6
CONTINUOUS
 70
0
 71
3
 72
14
 73
10
 74
0
 42
0.0000001
 43
0.0000001
 44
0.0000000001
 40
0.0
 40
0.0
 40
0.0
 40
0.0
 40
0.1080488667
 40
0.2181321678
 40
0.3321045072
 40
0.4515036959
 40
0.5774576959
 40
0.710717211
 40
1.0
 40
1.0
 40
1.0
 40
1.0
 10
208.0126813399
 20
101.6010753998
 30
0.0
 10
208.0864598838
 20
101.5584803895
 30
0.0
 10
208.2431077165
 20
101.4851387015
 30
0.0
 10
208.4965577632
 20
101.4150457959
 30
0.0
 10
208.7667490123
 20
101.3849053005
 30
0.0
 10
209.0507837428
 20
101.3948050229
 30
0.0
 10
209.345975143
 20
101.4443055614
 30
0.0
 10
209.7618592229
 20
101.5655733539
 30
0.0
 10
210.0651133773
 20
101.7099065461
 30
0.0
 10
210.2626421777
 20
101.8239491715
 30
0.0
  0
SPLINE
  5
2B9
100
AcDbEntity
  8
0
100
AcDbSpline
 62
7
  6
CONTINUOUS
 70
0
 71
3
 72
16
 73
12
 74
0
 42
0.0000001
 43
0.0000001
 44
0.0000000001
 40
0.0
 40
0.0
 40
0.0
 40
0.0
 40
0.0994019373
 40
0.1544800457
 40
0.2129740543
 40
0.3388344208
 40
0.4734917711
 40
0.6121085057
 40
0.7493638734
 40
0.8800999342
 40
1.0
 40
1.0
 40
1.0
 40
1.0
 10
208.5090928116
 20
103.72310157
 30
0.0
 10
208.4522769178
 20
103.8644589447
 30
0.0
 10
208.4001849833
 20
104.0993206028
 30
0.0
 10
208.3843208184
 20
104.425525481
 30
0.0
 10
208.4045570115
 20
104.7926101423
 30
0.0
 10
208.5003779079
 20
105.2746581824
 30
0.0
 10
208.7107803287
 20
105.8512538709
 30
0.0
 10
209.0077742017
 20
106.4082188368
 30
0.0
 10
209.3748611165
 20
106.9144177488
 30
0.0
 10
209.7913545049
 20
107.3415905458
 30
0.0
 10
210.1034971827
 20
107.5700595967
 30
0.0
 10
210.2626421777
 20
107.661941454
 30
0.0
  0
SPLINE
  5
2BA
100
AcDbEntity
  8
0
100
AcDbSpline
 62
7
  6
CONTINUOUS
 70
0
 71
3
 72
11
 73
7
 74
0
 42
0.0000001
 43
0.0000001
 44
0.0000000001
 40
0.0
 40
0.0
 40
0.0
 40
0.0
 40
0.2413210729
 40
0.5005937448
 40
0.7595557827
 40
1.0
 40
1.0
 40
1.0
 40
1.0
 10
208.5687719482
 20
105.3474521631
 30
0.0
 10
208.7001141177
 20
105.4428172849
 30
0.0
 10
208.9468296334
 20
105.6768821667
 30
0.0
 10
209.2424184002
 20
106.0970027034
 30
0.0
 10
209.4553596526
 20
106.5638293035
 30
0.0
 10
209.532209001
 20
106.894335319
 30
0.0
 10
209.5477314693
 20
107.0553111503
 30
0.0
  0
SPLINE
  5
2BB
100
AcDbEntity
  8
0
100
AcDbSpline
 62
7
  6
CONTINUOUS
 70
0
 71
3
 72
23
 73
19
 74
0
 42
0.0000001
 43
0.0000001
 44
0.0000000001
 40
0.0
 40
0.0
 40
0.0
 40
0.0
 40
0.0623916983
 40
0.1287423442
 40
0.1983450203
 40
0.2703325552
 40
0.3437219147
 40
0.4174665113
 40
0.4905033157
 40
0.5618018359
 40
0.6304104097
 40
0.6955086082
 40
0.75646609
 40
0.812912539
 40
0.8648215158
 40
0.912604092
 40
0.957185771
 40
1.0
 40
1.0
 40
1.0
 40
1.0
 10
210.2626421777
 20
109.1724709257
 30
0.0
 10
210.100968487
 20
109.079129134
 30
0.0
 10
209.7797871038
 20
108.8644885906
 30
0.0
 10
209.3249499282
 20
108.4817204317
 30
0.0
 10
208.8901743889
 20
108.0353161124
 30
0.0
 10
208.4847478912
 20
107.5348412
 30
0.0
 10
208.1172611531
 20
106.9909040446
 30
0.0
 10
207.7955499424
 20
106.4151177811
 30
0.0
 10
207.5264825749
 20
105.8197627609
 30
0.0
 10
207.3157932468
 20
105.2175286664
 30
0.0
 10
207.1679703553
 20
104.6212017663
 30
0.0
 10
207.0861800199
 20
104.0433645259
 30
0.0
 10
207.072252905
 20
103.4960911967
 30
0.0
 10
207.1267748634
 20
102.9906728064
 30
0.0
 10
207.2492287228
 20
102.5374976855
 30
0.0
 10
207.4383453509
 20
102.1461196451
 30
0.0
 10
207.6914309159
 20
101.8260941372
 30
0.0
 10
207.9017376246
 20
101.6651272022
 30
0.0
 10
208.0126813399
 20
101.6010753998
 30
0.0
  0
SPLINE
  5
2BC
100
AcDbEntity
  8
0
100
AcDbSpline
 62
7
  6
CONTINUOUS
 70
0
 71
3
 72
15
 73
11
 74
0
 42
0.0000001
 43
0.0000001
 44
0.0000000001
 40
0.0
 40
0.0
 40
0.0
 40
0.0
 40
0.2002179243
 40
0.2604127387
 40
0.3240209674
 40
0.4591968942
 40
0.6005416587
 40
0.7417999937
 40
0.8767185635
 40
1.0
 40
1.0
 40
1.0
 40
1.0
 10
209.9749458833
 20
107.444245413
 30
0.0
 10
210.0849231586
 20
107.2828740976
 30
0.0
 10
210.1334240684
 20
107.011505532
 30
0.0
 10
210.113110992
 20
106.697738458
 30
0.0
 10
210.0722632458
 20
106.4476893158
 30
0.0
 10
209.9743873425
 20
106.1291594913
 30
0.0
 10
209.7958863054
 20
105.7611912193
 30
0.0
 10
209.5652035881
 20
105.423683887
 30
0.0
 10
209.2975124193
 20
105.1384760173
 30
0.0
 10
209.0939785133
 20
104.9867608815
 30
0.0
 10
208.9898446724
 20
104.9266395393
 30
0.0
  0
SPLINE
  5
2BD
100
AcDbEntity
  8
0
100
AcDbSpline
 62
7
  6
CONTINUOUS
 70
0
 71
3
 72
15
 73
11
 74
0
 42
0.0000001
 43
0.0000001
 44
0.0000000001
 40
0.0
 40
0.0
 40
0.0
 40
0.0
 40
0.1514262642
 40
0.2905956316
 40
0.4182190328
 40
0.5364945931
 40
0.6490587531
 40
0.7606659999
 40
0.876265557
 40
1.0
 40
1.0
 40
1.0
 40
1.0
 10
210.2626421777
 20
103.3344786432
 30
0.0
 10
210.1718511679
 20
103.2820607422
 30
0.0
 10
209.9909953073
 20
103.19218629
 30
0.0
 10
209.7138965247
 20
103.1038582085
 30
0.0
 10
209.4476813423
 20
103.0700442772
 30
0.0
 10
209.1982682648
 20
103.0926399042
 30
0.0
 10
208.9722082591
 20
103.1725622999
 30
0.0
 10
208.776654994
 20
103.3082568543
 30
0.0
 10
208.6175440599
 20
103.495009546
 30
0.0
 10
208.5410400761
 20
103.6436170959
 30
0.0
 10
208.5090928116
 20
103.72310157
 30
0.0
  0
SPLINE
  5
2BE
100
AcDbEntity
  8
0
100
AcDbSpline
 62
7
  6
CONTINUOUS
 70
0
 71
3
 72
14
 73
10
 74
0
 42
0.0000001
 43
0.0000001
 44
0.0000000001
 40
0.0
 40
0.0
 40
0.0
 40
0.0
 40
0.1080488667
 40
0.2181321678
 40
0.3321045072
 40
0.4515036959
 40
0.5774576959
 40
0.710717211
 40
1.0
 40
1.0
 40
1.0
 40
1.0
 10
212.5126030155
 20
109.3953446973
 30
0.0
 10
212.4388244716
 20
109.4379397077
 30
0.0
 10
212.2821766389
 20
109.5112813957
 30
0.0
 10
212.0287265922
 20
109.5813743012
 30
0.0
 10
211.7585353431
 20
109.6115147966
 30
0.0
 10
211.4745006126
 20
109.6016150743
 30
0.0
 10
211.1793092124
 20
109.5521145358
 30
0.0
 10
210.7634251325
 20
109.4308467433
 30
0.0
 10
210.4601709781
 20
109.286513551
 30
0.0
 10
210.2626421777
 20
109.1724709257
 30
0.0
  0
SPLINE
  5
2BF
100
AcDbEntity
  8
0
100
AcDbSpline
 62
7
  6
CONTINUOUS
 70
0
 71
3
 72
11
 73
7
 74
0
 42
0.0000001
 43
0.0000001
 44
0.0000000001
 40
0.0
 40
0.0
 40
0.0
 40
0.0
 40
0.278937078
 40
0.5378689226
 40
0.7773049567
 40
1.0
 40
1.0
 40
1.0
 40
1.0
 10
208.9898446724
 20
104.9266395393
 30
0.0
 10
208.9406138377
 20
104.8982162733
 30
0.0
 10
208.8424595825
 20
104.8486836339
 30
0.0
 10
208.6922404407
 20
104.7966911211
 30
0.0
 10
208.5469130145
 20
104.7708164419
 30
0.0
 10
208.4520026534
 20
104.7715881191
 30
0.0
 10
208.4069238782
 20
104.7768495054
 30
0.0
  0
SPLINE
  5
2C0
100
AcDbEntity
  8
0
100
AcDbSpline
 62
7
  6
CONTINUOUS
 70
0
 71
3
 72
23
 73
19
 74
0
 42
0.0000001
 43
0.0000001
 44
0.0000000001
 40
0.0
 40
0.0
 40
0.0
 40
0.0
 40
0.0491585562
 40
0.0948360355
 40
0.1393418639
 40
0.1852978286
 40
0.2349400869
 40
0.2896740522
 40
0.3500289584
 40
0.4158140311
 40
0.486303281
 40
0.5603923499
 40
0.6367256574
 40
0.7138037319
 40
0.7900804643
 40
0.864062465
 40
0.9344005313
 40
1.0
 40
1.0
 40
1.0
 40
1.0
 10
210.9231098099
 20
107.9043970468
 30
0.0
 10
211.0199436283
 20
107.9181828203
 30
0.0
 10
211.2107488323
 20
107.9248974165
 30
0.0
 10
211.4840206683
 20
107.8592383653
 30
0.0
 10
211.7200117515
 20
107.7176638213
 30
0.0
 10
211.9080001411
 20
107.5066755829
 30
0.0
 10
212.0426368462
 20
107.2363203914
 30
0.0
 10
212.1220996529
 20
106.9161631986
 30
0.0
 10
212.1456449133
 20
106.5554905342
 30
0.0
 10
212.1132983322
 20
106.1643919957
 30
0.0
 10
212.0262488549
 20
105.7539830656
 30
0.0
 10
211.8871098669
 20
105.3361467002
 30
0.0
 10
211.6999846314
 20
104.9231270096
 30
0.0
 10
211.4703928507
 20
104.5271003056
 30
0.0
 10
211.2051228174
 20
104.1597668914
 30
0.0
 10
210.9119574306
 20
103.8319355756
 30
0.0
 10
210.5995873945
 20
103.5533080146
 30
0.0
 10
210.3756781424
 20
103.3997395983
 30
0.0
 10
210.2626421777
 20
103.3344786432
 30
0.0
  0
SPLINE
  5
2C1
100
AcDbEntity
  8
0
100
AcDbSpline
 62
7
  6
CONTINUOUS
 70
0
 71
3
 72
11
 73
7
 74
0
 42
0.0000001
 43
0.0000001
 44
0.0000000001
 40
0.0
 40
0.0
 40
0.0
 40
0.0
 40
0.2898006839
 40
0.5490477601
 40
0.7822275063
 40
1.0
 40
1.0
 40
1.0
 40
1.0
 10
67.5727874362
 20
189.4712065417
 30
0.0
 10
67.7483651898
 20
189.3698389716
 30
0.0
 10
68.0974669481
 20
189.2036426242
 30
0.0
 10
68.6341745498
 20
189.0742206609
 30
0.0
 10
69.1376632805
 20
189.0868351016
 30
0.0
 10
69.4408395342
 20
189.1969360971
 30
0.0
 10
69.5727750117
 20
189.2731154348
 30
0.0
  0
SPLINE
  5
2C2
100
AcDbEntity
  8
0
100
AcDbSpline
 62
7
  6
CONTINUOUS
 70
0
 71
3
 72
15
 73
11
 74
0
 42
0.0000001
 43
0.0000001
 44
0.0000000001
 40
0.0
 40
0.0
 40
0.0
 40
0.0
 40
0.1148263591
 40
0.2383901443
 40
0.3681607991
 40
0.501083093
 40
0.6338551732
 40
0.7631866601
 40
0.8860576628
 40
1.0
 40
1.0
 40
1.0
 40
1.0
 10
38.5016015159
 20
209.4640937967
 30
0.0
 10
38.5049386499
 20
209.2414058968
 30
0.0
 10
38.5514185328
 20
208.7792555378
 30
0.0
 10
38.7200849185
 20
208.0835429612
 30
0.0
 10
38.984377826
 20
207.380664236
 30
0.0
 10
39.3346274034
 20
206.6964915409
 30
0.0
 10
39.7579906676
 20
206.0560003068
 30
0.0
 10
40.2390485518
 20
205.4826143075
 30
0.0
 10
40.760074459
 20
204.9973803026
 30
0.0
 10
41.1382184181
 20
204.7328668152
 30
0.0
 10
41.3296096316
 20
204.6223695464
 30
0.0
  0
SPLINE
  5
2C3
100
AcDbEntity
  8
0
100
AcDbSpline
 62
7
  6
CONTINUOUS
 70
0
 71
3
 72
11
 73
7
 74
0
 42
0.0000001
 43
0.0000001
 44
0.0000000001
 40
0.0
 40
0.0
 40
0.0
 40
0.0
 40
0.2887885927
 40
0.5476717144
 40
0.7812596444
 40
1.0
 40
1.0
 40
1.0
 40
1.0
 10
72.3099759123
 20
192.1497613876
 30
0.0
 10
72.3069781259
 20
191.9531797206
 30
0.0
 10
72.2716664111
 20
191.5795530875
 30
0.0
 10
72.1128237298
 20
191.0670874714
 30
0.0
 10
71.8525721883
 20
190.6511911571
 30
0.0
 10
71.6109180196
 20
190.4498374934
 30
0.0
 10
71.4819553714
 20
190.3753746515
 30
0.0
  0
SPLINE
  5
2C4
100
AcDbEntity
  8
0
100
AcDbSpline
 62
7
  6
CONTINUOUS
 70
0
 71
3
 72
11
 73
7
 74
0
 42
0.0000001
 43
0.0000001
 44
0.0000000001
 40
0.0
 40
0.0
 40
0.0
 40
0.0
 40
0.2187403653
 40
0.4523283028
 40
0.7112114152
 40
1.0
 40
1.0
 40
1.0
 40
1.0
 10
69.5727750117
 20
189.2731154348
 30
0.0
 10
69.7017376706
 20
189.3475782717
 30
0.0
 10
69.9433918438
 20
189.5489319545
 30
0.0
 10
70.2036433777
 20
189.9648282776
 30
0.0
 10
70.3624860579
 20
190.4772938879
 30
0.0
 10
70.3977977655
 20
190.8509205103
 30
0.0
 10
70.4007955518
 20
191.0475021721
 30
0.0
  0
SPLINE
  5
2C5
100
AcDbEntity
  8
0
100
AcDbSpline
 62
7
  6
CONTINUOUS
 70
0
 71
3
 72
15
 73
11
 74
0
 42
0.0000001
 43
0.0000001
 44
0.0000000001
 40
0.0
 40
0.0
 40
0.0
 40
0.0
 40
0.113942031
 40
0.2368128637
 40
0.3661442943
 40
0.4989164145
 40
0.6318388157
 40
0.7616096149
 40
0.8851735401
 40
1.0
 40
1.0
 40
1.0
 40
1.0
 10
114.7720680371
 20
202.9283398954
 30
0.0
 10
114.9634578236
 20
203.0388381806
 30
0.0
 10
115.3415988666
 20
203.3033537207
 30
0.0
 10
115.8626203817
 20
203.7885902634
 30
0.0
 10
116.3436741913
 20
204.3619785896
 30
0.0
 10
116.7670338547
 20
205.0024718288
 30
0.0
 10
117.1172804385
 20
205.6866461401
 30
0.0
 10
117.3815710646
 20
206.3895260154
 30
0.0
 10
117.5502359968
 20
207.0852392322
 30
0.0
 10
117.5967154977
 20
207.54738978
 30
0.0
 10
117.6000526046
 20
207.770077741
 30
0.0
  0
SPLINE
  5
2C6
100
AcDbEntity
  8
0
100
AcDbSpline
 62
7
  6
CONTINUOUS
 70
0
 71
3
 72
11
 73
7
 74
0
 42
0.0000001
 43
0.0000001
 44
0.0000000001
 40
0.0
 40
0.0
 40
0.0
 40
0.0
 40
0.2177721143
 40
0.450951665
 40
0.7101988429
 40
1.0
 40
1.0
 40
1.0
 40
1.0
 10
86.5291461585
 20
187.5789452014
 30
0.0
 10
86.6610804099
 20
187.5027678316
 30
0.0
 10
86.9642536386
 20
187.3926706288
 30
0.0
 10
87.4677362668
 20
187.380060647
 30
0.0
 10
88.0044367541
 20
187.5094856506
 30
0.0
 10
88.3535334955
 20
187.6756829123
 30
0.0
 10
88.5291087532
 20
187.7770507295
 30
0.0
  0
SPLINE
  5
2C7
100
AcDbEntity
  8
0
100
AcDbSpline
 62
7
  6
CONTINUOUS
 70
0
 71
3
 72
11
 73
7
 74
0
 42
0.0000001
 43
0.0000001
 44
0.0000000001
 40
0.0
 40
0.0
 40
0.0
 40
0.0
 40
0.2187395274
 40
0.4523270716
 40
0.7112104613
 40
1.0
 40
1.0
 40
1.0
 40
1.0
 10
84.6199498998
 20
188.6811952373
 30
0.0
 10
84.4909870381
 20
188.7556569487
 30
0.0
 10
84.2493321507
 20
188.9570093156
 30
0.0
 10
83.9890801948
 20
189.3729054404
 30
0.0
 10
83.8302373617
 20
189.8853723194
 30
0.0
 10
83.7949257029
 20
190.2590002483
 30
0.0
 10
83.7919279278
 20
190.4555828018
 30
0.0
  0
SPLINE
  5
2C8
100
AcDbEntity
  8
0
100
AcDbSpline
 62
7
  6
CONTINUOUS
 70
0
 71
3
 72
11
 73
7
 74
0
 42
0.0000001
 43
0.0000001
 44
0.0000000001
 40
0.0
 40
0.0
 40
0.0
 40
0.0
 40
0.2887895466
 40
0.5476729455
 40
0.7812604823
 40
1.0
 40
1.0
 40
1.0
 40
1.0
 10
85.7011241857
 20
189.3533327646
 30
0.0
 10
85.7041219609
 20
189.156750206
 30
0.0
 10
85.7394336269
 20
188.7831222664
 30
0.0
 10
85.898276461
 20
188.2706553816
 30
0.0
 10
86.1585284246
 20
187.8547592656
 30
0.0
 10
86.4001833074
 20
187.6534069178
 30
0.0
 10
86.5291461585
 20
187.5789452014
 30
0.0
  0
SPLINE
  5
2C9
100
AcDbEntity
  8
0
100
AcDbSpline
 62
7
  6
CONTINUOUS
 70
0
 71
3
 72
11
 73
7
 74
0
 42
0.0000001
 43
0.0000001
 44
0.0000000001
 40
0.0
 40
0.0
 40
0.0
 40
0.0
 40
0.22364517
 40
0.4615142525
 40
0.719615073
 40
1.0
 40
1.0
 40
1.0
 40
1.0
 10
30.6318491395
 20
163.9370662795
 30
0.0
 10
30.5177096688
 20
164.0029639368
 30
0.0
 10
30.3023010647
 20
164.1763462919
 30
0.0
 10
30.0542004484
 20
164.5255657051
 30
0.0
 10
29.8808219744
 20
164.9526501831
 30
0.0
 10
29.8207932383
 20
165.266293852
 30
0.0
 10
29.8028194592
 20
165.430547229
 30
0.0
  0
SPLINE
  5
2CA
100
AcDbEntity
  8
0
100
AcDbSpline
 62
7
  6
CONTINUOUS
 70
0
 71
3
 72
11
 73
7
 74
0
 42
0.0000001
 43
0.0000001
 44
0.0000000001
 40
0.0
 40
0.0
 40
0.0
 40
0.0
 40
0.2368169205
 40
0.4825917025
 40
0.7371052518
 40
1.0
 40
1.0
 40
1.0
 40
1.0
 10
30.0998505114
 20
233.1920612558
 30
0.0
 10
29.3796335084
 20
227.8792604014
 30
0.0
 10
28.2985864179
 20
216.9973307921
 30
0.0
 10
27.7299645941
 20
200.3090771378
 30
0.0
 10
28.1854988467
 20
183.0274581373
 30
0.0
 10
29.1553975324
 20
171.3470124077
 30
0.0
 10
29.8028194592
 20
165.430547229
 30
0.0
  0
SPLINE
  5
2CB
100
AcDbEntity
  8
0
100
AcDbSpline
 62
7
  6
CONTINUOUS
 70
0
 71
3
 72
9
 73
5
 74
0
 42
0.0000001
 43
0.0000001
 44
0.0000000001
 40
0.0
 40
0.0
 40
0.0
 40
0.0
 40
0.2603782916
 40
1.0
 40
1.0
 40
1.0
 40
1.0
 10
33.3749612066
 20
162.5999719315
 30
0.0
 10
33.3905945241
 20
162.5670007256
 30
0.0
 10
33.4553666258
 20
162.4427283858
 30
0.0
 10
33.540570689
 20
162.3286596285
 30
0.0
 10
33.6140267163
 20
162.2555306503
 30
0.0
  0
SPLINE
  5
2CC
100
AcDbEntity
  8
0
100
AcDbSpline
 62
7
  6
CONTINUOUS
 70
0
 71
3
 72
9
 73
5
 74
0
 42
0.0000001
 43
0.0000001
 44
0.0000000001
 40
0.0
 40
0.0
 40
0.0
 40
0.0
 40
0.2527452273
 40
1.0
 40
1.0
 40
1.0
 40
1.0
 10
33.6140267163
 20
162.2555306503
 30
0.0
 10
33.6298476986
 20
162.2397801079
 30
0.0
 10
33.6943680918
 20
162.1794280258
 30
0.0
 10
33.7667223006
 20
162.1274265998
 30
0.0
 10
33.823883384
 20
162.0944253765
 30
0.0
  0
SPLINE
  5
2CD
100
AcDbEntity
  8
0
100
AcDbSpline
 62
7
  6
CONTINUOUS
 70
0
 71
3
 72
11
 73
7
 74
0
 42
0.0000001
 43
0.0000001
 44
0.0000000001
 40
0.0
 40
0.0
 40
0.0
 40
0.0
 40
0.2177798312
 40
0.4509239181
 40
0.7102597115
 40
1.0
 40
1.0
 40
1.0
 40
1.0
 10
178.1540400088
 20
82.5440830389
 30
0.0
 10
178.0682668033
 20
82.5935829964
 30
0.0
 10
177.9078095389
 20
82.7285096054
 30
0.0
 10
177.7369815738
 20
83.0078037776
 30
0.0
 10
177.6354841426
 20
83.3520242108
 30
0.0
 10
177.6155402549
 20
83.6025590841
 30
0.0
 10
177.6155402549
 20
83.7343136604
 30
0.0
  0
SPLINE
  5
2CE
100
AcDbEntity
  8
0
100
AcDbSpline
 62
7
  6
CONTINUOUS
 70
0
 71
3
 72
11
 73
7
 74
0
 42
0.0000001
 43
0.0000001
 44
0.0000000001
 40
0.0
 40
0.0
 40
0.0
 40
0.0
 40
0.2177798312
 40
0.4509239181
 40
0.7102597115
 40
1.0
 40
1.0
 40
1.0
 40
1.0
 10
211.486914895
 20
140.2786363958
 30
0.0
 10
211.4011416895
 20
140.3281363534
 30
0.0
 10
211.2406844252
 20
140.4630629624
 30
0.0
 10
211.0698564601
 20
140.7423571346
 30
0.0
 10
210.9683590289
 20
141.0865775678
 30
0.0
 10
210.9484151411
 20
141.3371124411
 30
0.0
 10
210.9484151411
 20
141.4688670174
 30
0.0
  0
SPLINE
  5
2CF
100
AcDbEntity
  8
0
100
AcDbSpline
 62
7
  6
CONTINUOUS
 70
0
 71
3
 72
11
 73
7
 74
0
 42
0.0000001
 43
0.0000001
 44
0.0000000001
 40
0.0
 40
0.0
 40
0.0
 40
0.0
 40
0.2177798312
 40
0.4509239181
 40
0.7102597115
 40
1.0
 40
1.0
 40
1.0
 40
1.0
 10
178.1540400088
 20
121.0340069823
 30
0.0
 10
178.0682668033
 20
121.0835069399
 30
0.0
 10
177.9078095389
 20
121.2184335489
 30
0.0
 10
177.7369815738
 20
121.4977277211
 30
0.0
 10
177.6354841426
 20
121.8419481543
 30
0.0
 10
177.6155402549
 20
122.0924830276
 30
0.0
 10
177.6155402549
 20
122.2242376039
 30
0.0
  0
SPLINE
  5
2D0
100
AcDbEntity
  8
0
100
AcDbSpline
 62
7
  6
CONTINUOUS
 70
0
 71
3
 72
14
 73
10
 74
0
 42
0.0000001
 43
0.0000001
 44
0.0000000001
 40
0.0
 40
0.0
 40
0.0
 40
0.0
 40
0.1080475137
 40
0.2181321489
 40
0.3321060709
 40
0.4515035024
 40
0.5774632158
 40
0.7107208695
 40
1.0
 40
1.0
 40
1.0
 40
1.0
 10
184.7520527323
 20
91.3591125369
 30
0.0
 10
185.1619277547
 20
91.1224750676
 30
0.0
 10
186.0321591828
 20
90.7149480351
 30
0.0
 10
187.4402429885
 20
90.3255812485
 30
0.0
 10
188.9413092033
 20
90.1581883621
 30
0.0
 10
190.5193101354
 20
90.2130819295
 30
0.0
 10
192.1592600818
 20
90.4881833494
 30
0.0
 10
194.4697309774
 20
91.1618656993
 30
0.0
 10
196.1544544588
 20
91.9637171271
 30
0.0
 10
197.251823235
 20
92.5972795035
 30
0.0
  0
SPLINE
  5
2D1
100
AcDbEntity
  8
0
100
AcDbSpline
 62
7
  6
CONTINUOUS
 70
0
 71
3
 72
11
 73
7
 74
0
 42
0.0000001
 43
0.0000001
 44
0.0000000001
 40
0.0
 40
0.0
 40
0.0
 40
0.0
 40
0.2177709505
 40
0.4509489942
 40
0.7101987597
 40
1.0
 40
1.0
 40
1.0
 40
1.0
 10
172.8316073962
 20
82.7966583236
 30
0.0
 10
172.6666802328
 20
82.8918768869
 30
0.0
 10
172.3579944736
 20
83.151257149
 30
0.0
 10
172.0296513017
 20
83.688434385
 30
0.0
 10
171.8343152592
 20
84.3503478584
 30
0.0
 10
171.7960415246
 20
84.8321508867
 30
0.0
 10
171.7960415246
 20
85.0855816702
 30
0.0
  0
SPLINE
  5
2D2
100
AcDbEntity
  8
0
100
AcDbSpline
 62
7
  6
CONTINUOUS
 70
0
 71
3
 72
11
 73
7
 74
0
 42
0.0000001
 43
0.0000001
 44
0.0000000001
 40
0.0
 40
0.0
 40
0.0
 40
0.0
 40
0.2177723674
 40
0.4509510027
 40
0.7102002307
 40
1.0
 40
1.0
 40
1.0
 40
1.0
 10
176.932843802
 20
80.4288619474
 30
0.0
 10
177.0977654964
 20
80.3336465216
 30
0.0
 10
177.476726268
 20
80.1960170718
 30
0.0
 10
178.1060830391
 20
80.1802554168
 30
0.0
 10
178.776957045
 20
80.3420392843
 30
0.0
 10
179.2133291006
 20
80.549784816
 30
0.0
 10
179.4327971165
 20
80.6764939777
 30
0.0
  0
SPLINE
  5
2D3
100
AcDbEntity
  8
0
100
AcDbSpline
 62
7
  6
CONTINUOUS
 70
0
 71
3
 72
9
 73
5
 74
0
 42
0.0000001
 43
0.0000001
 44
0.0000000001
 40
0.0
 40
0.0
 40
0.0
 40
0.0
 40
0.4754156759
 40
1.0
 40
1.0
 40
1.0
 40
1.0
 10
211.486914895
 20
101.7887124524
 30
0.0
 10
211.3804501104
 20
101.8501535783
 30
0.0
 10
211.1838685571
 20
102.0308693595
 30
0.0
 10
211.0714871662
 20
102.2697351482
 30
0.0
 10
211.0305105137
 20
102.3990319781
 30
0.0
  0
SPLINE
  5
2D4
100
AcDbEntity
  8
0
100
AcDbSpline
 62
7
  6
CONTINUOUS
 70
0
 71
3
 72
15
 73
11
 74
0
 42
0.0000001
 43
0.0000001
 44
0.0000000001
 40
0.0
 40
0.0
 40
0.0
 40
0.0
 40
0.1141543519
 40
0.237325601
 40
0.366974755
 40
0.4999984147
 40
0.6330222943
 40
0.7626720931
 40
0.8858443543
 40
1.0
 40
1.0
 40
1.0
 40
1.0
 10
166.2805562288
 20
127.1352870672
 30
0.0
 10
166.5032282236
 20
127.2638460359
 30
0.0
 10
166.943045281
 20
127.5721546836
 30
0.0
 10
167.5482095368
 20
128.138334953
 30
0.0
 10
168.1059011021
 20
128.8076022779
 30
0.0
 10
168.5951142276
 20
129.5548502988
 30
0.0
 10
168.9976401545
 20
130.3521485775
 30
0.0
 10
169.2983949074
 20
131.1697624966
 30
0.0
 10
169.4861387214
 20
131.9769471532
 30
0.0
 10
169.53323388
 20
132.5119992911
 30
0.0
 10
169.53323388
 20
132.7691212938
 30
0.0
  0
SPLINE
  5
2D5
100
AcDbEntity
  8
0
100
AcDbSpline
 62
7
  6
CONTINUOUS
 70
0
 71
3
 72
15
 73
11
 74
0
 42
0.0000001
 43
0.0000001
 44
0.0000000001
 40
0.0
 40
0.0
 40
0.0
 40
0.0
 40
0.114155658
 40
0.2373279333
 40
0.3669777387
 40
0.5000016213
 40
0.633025278
 40
0.7626744253
 40
0.8858456604
 40
1.0
 40
1.0
 40
1.0
 40
1.0
 10
171.7960415246
 20
123.6244957587
 30
0.0
 10
171.7960415246
 20
123.9039762266
 30
0.0
 10
171.8472319312
 20
124.4855547013
 30
0.0
 10
172.0513013239
 20
125.3629294045
 30
0.0
 10
172.3782087138
 20
126.2516402303
 30
0.0
 10
172.8157369246
 20
127.118268797
 30
0.0
 10
173.3474903339
 20
127.9304948798
 30
0.0
 10
173.9536768047
 20
128.6579592982
 30
0.0
 10
174.6114639879
 20
129.2733725705
 30
0.0
 10
175.0895259598
 20
129.6084906193
 30
0.0
 10
175.3315607107
 20
129.7482286137
 30
0.0
  0
SPLINE
  5
2D6
100
AcDbEntity
  8
0
100
AcDbSpline
 62
7
  6
CONTINUOUS
 70
0
 71
3
 72
11
 73
7
 74
0
 42
0.0000001
 43
0.0000001
 44
0.0000000001
 40
0.0
 40
0.0
 40
0.0
 40
0.0
 40
0.2305508528
 40
0.4760044413
 40
0.7336255892
 40
1.0
 40
1.0
 40
1.0
 40
1.0
 10
197.251823235
 20
92.5972795035
 30
0.0
 10
198.1730570489
 20
93.1291509191
 30
0.0
 10
200.0024552311
 20
94.3560615157
 30
0.0
 10
202.5880340734
 20
96.5498043147
 30
0.0
 10
205.0537088594
 20
99.1116262692
 30
0.0
 10
206.5633672562
 20
101.0049976216
 30
0.0
 10
207.2867329917
 20
101.9986121355
 30
0.0
  0
SPLINE
  5
2D7
100
AcDbEntity
  8
0
100
AcDbSpline
 62
7
  6
CONTINUOUS
 70
0
 71
3
 72
18
 73
14
 74
0
 42
0.0000001
 43
0.0000001
 44
0.0000000001
 40
0.0
 40
0.0
 40
0.0
 40
0.0
 40
0.156861925
 40
0.3074024484
 40
0.44907166
 40
0.5799832602
 40
0.6992101801
 40
0.7545790853
 40
0.8073123282
 40
0.8577280829
 40
0.9062661171
 40
0.953477232
 40
1.0
 40
1.0
 40
1.0
 40
1.0
 10
211.815651415
 20
109.8484892759
 30
0.0
 10
212.3868981935
 20
111.1370418325
 30
0.0
 10
213.3803162722
 20
113.7207790151
 30
0.0
 10
214.4162086579
 20
117.6291799587
 30
0.0
 10
214.9470113487
 20
121.4046366318
 30
0.0
 10
214.956089937
 20
124.9373634913
 30
0.0
 10
214.5138878604
 20
127.6640197011
 30
0.0
 10
213.8813757952
 20
129.6100197156
 30
0.0
 10
213.2924904757
 20
130.9105560067
 30
0.0
 10
212.581279155
 20
132.0775906482
 30
0.0
 10
211.752459569
 20
133.1018673756
 30
0.0
 10
210.812291817
 20
133.974491352
 30
0.0
 10
210.1136245889
 20
134.4515522373
 30
0.0
 10
209.7515937377
 20
134.6605673266
 30
0.0
  0
SPLINE
  5
2D8
100
AcDbEntity
  8
0
100
AcDbSpline
 62
7
  6
CONTINUOUS
 70
0
 71
3
 72
11
 73
7
 74
0
 42
0.0000001
 43
0.0000001
 44
0.0000000001
 40
0.0
 40
0.0
 40
0.0
 40
0.0
 40
0.289799778
 40
0.5490490151
 40
0.7822276429
 40
1.0
 40
1.0
 40
1.0
 40
1.0
 10
208.7068618272
 20
149.0173526765
 30
0.0
 10
208.9263298495
 20
149.1440618419
 30
0.0
 10
209.3627019224
 20
149.3518073733
 30
0.0
 10
210.0335759357
 20
149.5135912421
 30
0.0
 10
210.6629327032
 20
149.4978295763
 30
0.0
 10
211.0418934465
 20
149.360200113
 30
0.0
 10
211.2068151416
 20
149.2649847068
 30
0.0
  0
SPLINE
  5
2D9
100
AcDbEntity
  8
0
100
AcDbSpline
 62
7
  6
CONTINUOUS
 70
0
 71
3
 72
10
 73
6
 74
0
 42
0.0000001
 43
0.0000001
 44
0.0000000001
 40
0.0
 40
0.0
 40
0.0
 40
0.0
 40
0.5232856774
 40
0.7649792103
 40
1.0
 40
1.0
 40
1.0
 40
1.0
 10
213.3309762605
 20
106.3822967786
 30
0.0
 10
213.4632987939
 20
106.411371194
 30
0.0
 10
213.6658141721
 20
106.4275382044
 30
0.0
 10
213.9203186667
 20
106.3729253997
 30
0.0
 10
214.0341545955
 20
106.3224570436
 30
0.0
 10
214.0868553408
 20
106.2920432956
 30
0.0
  0
SPLINE
  5
2DA
100
AcDbEntity
  8
0
100
AcDbSpline
 62
7
  6
CONTINUOUS
 70
0
 71
3
 72
17
 73
13
 74
0
 42
0.0000001
 43
0.0000001
 44
0.0000000001
 40
0.0
 40
0.0
 40
0.0
 40
0.0
 40
0.1286938287
 40
0.2702786484
 40
0.4174347437
 40
0.5617788623
 40
0.6954492664
 40
0.8127116048
 40
0.8646776308
 40
0.9125100673
 40
0.9571398924
 40
1.0
 40
1.0
 40
1.0
 40
1.0
 10
177.6155402549
 20
83.7343136604
 30
0.0
 10
177.6155402549
 20
83.9565571757
 30
0.0
 10
177.6777071987
 20
84.423840315
 30
0.0
 10
177.9097788772
 20
85.1099359464
 30
0.0
 10
178.2673367253
 20
85.7708733733
 30
0.0
 10
178.7216832407
 20
86.352449472
 30
0.0
 10
179.2356847601
 20
86.807695341
 30
0.0
 10
179.7009381238
 20
87.0620415233
 30
0.0
 10
180.0648606464
 20
87.1589226152
 30
0.0
 10
180.3153408
 20
87.1772905628
 30
0.0
 10
180.54858643
 20
87.1431649087
 30
0.0
 10
180.6898739943
 20
87.0844099002
 30
0.0
 10
180.7539804545
 20
87.0474138821
 30
0.0
  0
SPLINE
  5
2DB
100
AcDbEntity
  8
0
100
AcDbSpline
 62
7
  6
CONTINUOUS
 70
0
 71
3
 72
17
 73
13
 74
0
 42
0.0000001
 43
0.0000001
 44
0.0000000001
 40
0.0
 40
0.0
 40
0.0
 40
0.0
 40
0.1286938287
 40
0.2702786484
 40
0.4174347437
 40
0.5617788623
 40
0.6954492664
 40
0.8127116048
 40
0.8646776308
 40
0.9125100673
 40
0.9571398924
 40
1.0
 40
1.0
 40
1.0
 40
1.0
 10
210.9484151411
 20
141.4688670174
 30
0.0
 10
210.9484151411
 20
141.6911105326
 30
0.0
 10
211.010582085
 20
142.1583936719
 30
0.0
 10
211.2426537635
 20
142.8444893034
 30
0.0
 10
211.6002116116
 20
143.5054267303
 30
0.0
 10
212.054558127
 20
144.087002829
 30
0.0
 10
212.5685596464
 20
144.542248698
 30
0.0
 10
213.0338130101
 20
144.7965948803
 30
0.0
 10
213.3977355326
 20
144.8934759722
 30
0.0
 10
213.6482156863
 20
144.9118439198
 30
0.0
 10
213.8814613163
 20
144.8777182657
 30
0.0
 10
214.0227488806
 20
144.8189632571
 30
0.0
 10
214.0868553408
 20
144.7819672391
 30
0.0
  0
SPLINE
  5
2DC
100
AcDbEntity
  8
0
100
AcDbSpline
 62
7
  6
CONTINUOUS
 70
0
 71
3
 72
17
 73
13
 74
0
 42
0.0000001
 43
0.0000001
 44
0.0000000001
 40
0.0
 40
0.0
 40
0.0
 40
0.0
 40
0.1286938287
 40
0.2702786484
 40
0.4174347437
 40
0.5617788623
 40
0.6954492664
 40
0.8127116048
 40
0.8646776308
 40
0.9125100673
 40
0.9571398924
 40
1.0
 40
1.0
 40
1.0
 40
1.0
 10
177.6155402549
 20
122.2242376039
 30
0.0
 10
177.6155402549
 20
122.4464811191
 30
0.0
 10
177.6777071987
 20
122.9137642584
 30
0.0
 10
177.9097788772
 20
123.5998598899
 30
0.0
 10
178.2673367253
 20
124.2607973168
 30
0.0
 10
178.7216832407
 20
124.8423734155
 30
0.0
 10
179.2356847601
 20
125.2976192845
 30
0.0
 10
179.7009381238
 20
125.5519654668
 30
0.0
 10
180.0648606464
 20
125.6488465587
 30
0.0
 10
180.3153408
 20
125.6672145063
 30
0.0
 10
180.54858643
 20
125.6330888522
 30
0.0
 10
180.6898739943
 20
125.5743338436
 30
0.0
 10
180.7539804545
 20
125.5373378256
 30
0.0
  0
SPLINE
  5
2DD
100
AcDbEntity
  8
0
100
AcDbSpline
 62
7
  6
CONTINUOUS
 70
0
 71
3
 72
11
 73
7
 74
0
 42
0.0000001
 43
0.0000001
 44
0.0000000001
 40
0.0
 40
0.0
 40
0.0
 40
0.0
 40
0.2898012489
 40
0.5490510236
 40
0.7822290598
 40
1.0
 40
1.0
 40
1.0
 40
1.0
 10
216.3436174191
 20
144.608264984
 30
0.0
 10
216.3436174191
 20
144.861695775
 30
0.0
 10
216.3053436756
 20
145.3434988181
 30
0.0
 10
216.1100076305
 20
146.0054122986
 30
0.0
 10
215.7816644511
 20
146.5425895261
 30
0.0
 10
215.4729786943
 20
146.8019697569
 30
0.0
 10
215.3080515475
 20
146.8971883306
 30
0.0
  0
SPLINE
  5
2DE
100
AcDbEntity
  8
0
100
AcDbSpline
 62
7
  6
CONTINUOUS
 70
0
 71
3
 72
15
 73
11
 74
0
 42
0.0000001
 43
0.0000001
 44
0.0000000001
 40
0.0
 40
0.0
 40
0.0
 40
0.0
 40
0.1141543519
 40
0.237325601
 40
0.366974755
 40
0.4999984147
 40
0.6330222943
 40
0.7626720931
 40
0.8858443543
 40
1.0
 40
1.0
 40
1.0
 40
1.0
 10
212.808098233
 20
99.9456180405
 30
0.0
 10
213.05013301
 20
100.08535605
 30
0.0
 10
213.5281950289
 20
100.4204741453
 30
0.0
 10
214.1859822635
 20
101.0358874816
 30
0.0
 10
214.7921687475
 20
101.7633519652
 30
0.0
 10
215.3239221447
 20
102.5755780748
 30
0.0
 10
215.7614503262
 20
103.4422066386
 30
0.0
 10
216.0883576663
 20
104.3309174202
 30
0.0
 10
216.2924270293
 20
105.208292047
 30
0.0
 10
216.3436174191
 20
105.7898704577
 30
0.0
 10
216.3436174191
 20
106.0693508955
 30
0.0
  0
SPLINE
  5
2DF
100
AcDbEntity
  8
0
100
AcDbSpline
 62
7
  6
CONTINUOUS
 70
0
 71
3
 72
25
 73
21
 74
0
 42
0.0000001
 43
0.0000001
 44
0.0000000001
 40
0.0
 40
0.0
 40
0.0
 40
0.0
 40
0.0213320791
 40
0.0428926617
 40
0.0648979477
 40
0.0875428516
 40
0.1353180106
 40
0.1872190276
 40
0.2436567825
 40
0.304604725
 40
0.3696925383
 40
0.4382898856
 40
0.5095763441
 40
0.5826005951
 40
0.656332067
 40
0.7297091863
 40
0.8016853277
 40
0.8712781831
 40
0.9376162149
 40
1.0
 40
1.0
 40
1.0
 40
1.0
 10
183.6206770419
 20
92.0122975207
 30
0.0
 10
183.3135312775
 20
92.1896247474
 30
0.0
 10
182.7180938252
 20
92.5861905954
 30
0.0
 10
181.9009667334
 20
93.2948702507
 30
0.0
 10
181.1619412359
 20
94.1143778804
 30
0.0
 10
180.2709702118
 20
95.3700042412
 30
0.0
 10
179.3789566752
 20
97.2149907589
 30
0.0
 10
178.6990393024
 20
99.7322177831
 30
0.0
 10
178.3960237941
 20
102.5402453761
 30
0.0
 10
178.4734369452
 20
105.5806256481
 30
0.0
 10
178.927823271
 20
108.7908458024
 30
0.0
 10
179.7490682423
 20
112.1037564303
 30
0.0
 10
180.9195578366
 20
115.4494762689
 30
0.0
 10
182.4143659622
 20
118.7569594119
 30
0.0
 10
184.2016215631
 20
121.9557407918
 30
0.0
 10
186.2432153616
 20
124.9775814259
 30
0.0
 10
188.4955686339
 20
127.7580358253
 30
0.0
 10
190.9110148352
 20
130.2380241653
 30
0.0
 10
193.4378752905
 20
132.3645677166
 30
0.0
 10
195.2222300032
 20
133.5570024483
 30
0.0
 10
196.1204476748
 20
134.0755855672
 30
0.0
  0
SPLINE
  5
2E0
100
AcDbEntity
  8
0
100
AcDbSpline
 62
7
  6
CONTINUOUS
 70
0
 71
3
 72
25
 73
21
 74
0
 42
0.0000001
 43
0.0000001
 44
0.0000000001
 40
0.0
 40
0.0
 40
0.0
 40
0.0
 40
0.0623836167
 40
0.1287213509
 40
0.1983140001
 40
0.2702900758
 40
0.3436673578
 40
0.4173990717
 40
0.4904234985
 40
0.5617100966
 40
0.6303076041
 40
0.6953955537
 40
0.7563435331
 40
0.8127812253
 40
0.8646821605
 40
0.9124572692
 40
0.9351021548
 40
0.9571074167
 40
0.9786679641
 40
1.0
 40
1.0
 40
1.0
 40
1.0
 10
197.251823235
 20
133.42240036
 30
0.0
 10
196.3536079908
 20
132.9038186425
 30
0.0
 10
194.569259346
 20
131.711388853
 30
0.0
 10
192.0424068139
 20
129.5848533592
 30
0.0
 10
189.6269648608
 20
127.1048741813
 30
0.0
 10
187.3746106397
 20
124.3244228813
 30
0.0
 10
185.3330112927
 20
121.3025791909
 30
0.0
 10
183.5457493459
 20
118.1037902616
 30
0.0
 10
182.0509364162
 20
114.7962991018
 30
0.0
 10
180.8804438751
 20
111.4505718996
 30
0.0
 10
180.0591974255
 20
108.1376541425
 30
0.0
 10
179.6048113668
 20
104.9274283227
 30
0.0
 10
179.5273998303
 20
101.8870461444
 30
0.0
 10
179.8304172112
 20
99.0790205712
 30
0.0
 10
180.5103355464
 20
96.5617971661
 30
0.0
 10
181.4023494084
 20
94.7168136735
 30
0.0
 10
182.2933199508
 20
93.4611888582
 30
0.0
 10
183.0323451944
 20
92.641682761
 30
0.0
 10
183.8494711712
 20
91.9330044013
 30
0.0
 10
184.4449077971
 20
91.5364397615
 30
0.0
 10
184.7520527323
 20
91.3591125369
 30
0.0
  0
SPLINE
  5
2E1
100
AcDbEntity
  8
0
100
AcDbSpline
 62
7
  6
CONTINUOUS
 70
0
 71
3
 72
11
 73
7
 74
0
 42
0.0000001
 43
0.0000001
 44
0.0000000001
 40
0.0
 40
0.0
 40
0.0
 40
0.0
 40
0.2177798312
 40
0.4509239181
 40
0.7102597115
 40
1.0
 40
1.0
 40
1.0
 40
1.0
 10
180.7539804545
 20
125.5373378256
 30
0.0
 10
180.83975366
 20
125.4878378681
 30
0.0
 10
181.0002109243
 20
125.352911259
 30
0.0
 10
181.1710388894
 20
125.0736170869
 30
0.0
 10
181.2725363206
 20
124.7293966537
 30
0.0
 10
181.2924802084
 20
124.4788617804
 30
0.0
 10
181.2924802084
 20
124.3471072041
 30
0.0
  0
SPLINE
  5
2E2
100
AcDbEntity
  8
0
100
AcDbSpline
 62
7
  6
CONTINUOUS
 70
0
 71
3
 72
11
 73
7
 74
0
 42
0.0000001
 43
0.0000001
 44
0.0000000001
 40
0.0
 40
0.0
 40
0.0
 40
0.0
 40
0.2177798312
 40
0.4509239181
 40
0.7102597115
 40
1.0
 40
1.0
 40
1.0
 40
1.0
 10
214.0868553408
 20
144.7819672391
 30
0.0
 10
214.1726285463
 20
144.7324672816
 30
0.0
 10
214.3330858106
 20
144.5975406725
 30
0.0
 10
214.5039137757
 20
144.3182465004
 30
0.0
 10
214.6054112069
 20
143.9740260672
 30
0.0
 10
214.6253550946
 20
143.7234911939
 30
0.0
 10
214.6253550946
 20
143.5917366176
 30
0.0
  0
SPLINE
  5
2E3
100
AcDbEntity
  8
0
100
AcDbSpline
 62
7
  6
CONTINUOUS
 70
0
 71
3
 72
17
 73
13
 74
0
 42
0.0000001
 43
0.0000001
 44
0.0000000001
 40
0.0
 40
0.0
 40
0.0
 40
0.0
 40
0.1286938287
 40
0.2702786484
 40
0.4174347437
 40
0.5617788623
 40
0.6954492664
 40
0.8127116048
 40
0.8646776308
 40
0.9125100673
 40
0.9571398924
 40
1.0
 40
1.0
 40
1.0
 40
1.0
 10
214.6253550946
 20
105.1018126741
 30
0.0
 10
214.6253550946
 20
104.8795691588
 30
0.0
 10
214.5631881508
 20
104.4122860195
 30
0.0
 10
214.3311164723
 20
103.7261903881
 30
0.0
 10
213.9735586242
 20
103.0652529612
 30
0.0
 10
213.5192121088
 20
102.4836768625
 30
0.0
 10
213.0052105894
 20
102.0284309935
 30
0.0
 10
212.5399572257
 20
101.7740848112
 30
0.0
 10
212.1760347032
 20
101.6772037193
 30
0.0
 10
211.9255545495
 20
101.6588357717
 30
0.0
 10
211.6923089195
 20
101.6929614258
 30
0.0
 10
211.5510213552
 20
101.7517164343
 30
0.0
 10
211.486914895
 20
101.7887124524
 30
0.0
  0
SPLINE
  5
2E4
100
AcDbEntity
  8
0
100
AcDbSpline
 62
7
  6
CONTINUOUS
 70
0
 71
3
 72
11
 73
7
 74
0
 42
0.0000001
 43
0.0000001
 44
0.0000000001
 40
0.0
 40
0.0
 40
0.0
 40
0.0
 40
0.2177798312
 40
0.4509239181
 40
0.7102597115
 40
1.0
 40
1.0
 40
1.0
 40
1.0
 10
180.7539804545
 20
87.0474138821
 30
0.0
 10
180.83975366
 20
86.9979139246
 30
0.0
 10
181.0002109243
 20
86.8629873155
 30
0.0
 10
181.1710388894
 20
86.5836931434
 30
0.0
 10
181.2725363206
 20
86.2394727102
 30
0.0
 10
181.2924802084
 20
85.9889378369
 30
0.0
 10
181.2924802084
 20
85.8571832606
 30
0.0
  0
SPLINE
  5
2E5
100
AcDbEntity
  8
0
100
AcDbSpline
 62
7
  6
CONTINUOUS
 70
0
 71
3
 72
14
 73
10
 74
0
 42
0.0000001
 43
0.0000001
 44
0.0000000001
 40
0.0
 40
0.0
 40
0.0
 40
0.0
 40
0.1080475137
 40
0.2181321489
 40
0.3321060709
 40
0.4515035024
 40
0.5774632158
 40
0.7107208695
 40
1.0
 40
1.0
 40
1.0
 40
1.0
 10
209.7515937377
 20
134.6605673266
 30
0.0
 10
209.3417187153
 20
134.8972047959
 30
0.0
 10
208.4714872872
 20
135.3047318284
 30
0.0
 10
207.0634034814
 20
135.694098615
 30
0.0
 10
205.5623372667
 20
135.8614915014
 30
0.0
 10
203.9843363346
 20
135.806597934
 30
0.0
 10
202.3443863882
 20
135.5314965142
 30
0.0
 10
200.0339154926
 20
134.8578141642
 30
0.0
 10
198.3491920111
 20
134.0559627365
 30
0.0
 10
197.251823235
 20
133.42240036
 30
0.0
  0
SPLINE
  5
2E6
100
AcDbEntity
  8
0
100
AcDbSpline
 62
7
  6
CONTINUOUS
 70
0
 71
3
 72
17
 73
13
 74
0
 42
0.0000001
 43
0.0000001
 44
0.0000000001
 40
0.0
 40
0.0
 40
0.0
 40
0.0
 40
0.1286938287
 40
0.2702786484
 40
0.4174347437
 40
0.5617788623
 40
0.6954492664
 40
0.8127116048
 40
0.8646776308
 40
0.9125100673
 40
0.9571398924
 40
1.0
 40
1.0
 40
1.0
 40
1.0
 10
181.2924802084
 20
85.8571832606
 30
0.0
 10
181.2924802084
 20
85.6349397453
 30
0.0
 10
181.2303132646
 20
85.167656606
 30
0.0
 10
180.9982415861
 20
84.4815609746
 30
0.0
 10
180.6406837379
 20
83.8206235476
 30
0.0
 10
180.1863372225
 20
83.239047449
 30
0.0
 10
179.6723357031
 20
82.78380158
 30
0.0
 10
179.2070823394
 20
82.5294553977
 30
0.0
 10
178.8431598169
 20
82.4325743058
 30
0.0
 10
178.5926796632
 20
82.4142063582
 30
0.0
 10
178.3594340333
 20
82.4483320123
 30
0.0
 10
178.2181464689
 20
82.5070870208
 30
0.0
 10
178.1540400088
 20
82.5440830389
 30
0.0
  0
SPLINE
  5
2E7
100
AcDbEntity
  8
0
100
AcDbSpline
 62
7
  6
CONTINUOUS
 70
0
 71
3
 72
17
 73
13
 74
0
 42
0.0000001
 43
0.0000001
 44
0.0000000001
 40
0.0
 40
0.0
 40
0.0
 40
0.0
 40
0.1286938287
 40
0.2702786484
 40
0.4174347437
 40
0.5617788623
 40
0.6954492664
 40
0.8127116048
 40
0.8646776308
 40
0.9125100673
 40
0.9571398924
 40
1.0
 40
1.0
 40
1.0
 40
1.0
 10
214.6253550946
 20
143.5917366176
 30
0.0
 10
214.6253550946
 20
143.3694931023
 30
0.0
 10
214.5631881508
 20
142.902209963
 30
0.0
 10
214.3311164723
 20
142.2161143316
 30
0.0
 10
213.9735586242
 20
141.5551769046
 30
0.0
 10
213.5192121088
 20
140.973600806
 30
0.0
 10
213.0052105894
 20
140.518354937
 30
0.0
 10
212.5399572257
 20
140.2640087547
 30
0.0
 10
212.1760347032
 20
140.1671276628
 30
0.0
 10
211.9255545495
 20
140.1487597152
 30
0.0
 10
211.6923089195
 20
140.1828853692
 30
0.0
 10
211.5510213552
 20
140.2416403778
 30
0.0
 10
211.486914895
 20
140.2786363958
 30
0.0
  0
SPLINE
  5
2E8
100
AcDbEntity
  8
0
100
AcDbSpline
 62
7
  6
CONTINUOUS
 70
0
 71
3
 72
11
 73
7
 74
0
 42
0.0000001
 43
0.0000001
 44
0.0000000001
 40
0.0
 40
0.0
 40
0.0
 40
0.0
 40
0.2177723674
 40
0.4509510027
 40
0.7102002307
 40
1.0
 40
1.0
 40
1.0
 40
1.0
 10
215.3080515475
 20
146.8971883306
 30
0.0
 10
215.1431298531
 20
146.9924037564
 30
0.0
 10
214.7641690815
 20
147.1300332061
 30
0.0
 10
214.1348123104
 20
147.1457948611
 30
0.0
 10
213.4639383045
 20
146.9840109936
 30
0.0
 10
213.027566249
 20
146.776265462
 30
0.0
 10
212.808098233
 20
146.6495563003
 30
0.0
  0
SPLINE
  5
2E9
100
AcDbEntity
  8
0
100
AcDbSpline
 62
7
  6
CONTINUOUS
 70
0
 71
3
 72
15
 73
11
 74
0
 42
0.0000001
 43
0.0000001
 44
0.0000000001
 40
0.0
 40
0.0
 40
0.0
 40
0.0
 40
0.1141543519
 40
0.237325601
 40
0.366974755
 40
0.4999984147
 40
0.6330222943
 40
0.7626720931
 40
0.8858443543
 40
1.0
 40
1.0
 40
1.0
 40
1.0
 10
179.4327971165
 20
127.3804322375
 30
0.0
 10
179.1907623396
 20
127.240694228
 30
0.0
 10
178.7127003207
 20
126.9055761327
 30
0.0
 10
178.054913086
 20
126.2901627964
 30
0.0
 10
177.448726602
 20
125.5626983128
 30
0.0
 10
176.9169732048
 20
124.7504722032
 30
0.0
 10
176.4794450233
 20
123.8838436394
 30
0.0
 10
176.1525376832
 20
122.9951328578
 30
0.0
 10
175.9484683202
 20
122.117758231
 30
0.0
 10
175.8972779304
 20
121.5361798202
 30
0.0
 10
175.8972779304
 20
121.2566993825
 30
0.0
  0
SPLINE
  5
2EA
100
AcDbEntity
  8
0
100
AcDbSpline
 62
7
  6
CONTINUOUS
 70
0
 71
3
 72
11
 73
7
 74
0
 42
0.0000001
 43
0.0000001
 44
0.0000000001
 40
0.0
 40
0.0
 40
0.0
 40
0.0
 40
0.2177798312
 40
0.4509239181
 40
0.7102597115
 40
1.0
 40
1.0
 40
1.0
 40
1.0
 10
214.0868553408
 20
106.2920432956
 30
0.0
 10
214.1726285463
 20
106.2425433381
 30
0.0
 10
214.3330858106
 20
106.1076167291
 30
0.0
 10
214.5039137757
 20
105.8283225569
 30
0.0
 10
214.6054112069
 20
105.4841021237
 30
0.0
 10
214.6253550946
 20
105.2335672504
 30
0.0
 10
214.6253550946
 20
105.1018126741
 30
0.0
  0
SPLINE
  5
2EB
100
AcDbEntity
  8
0
100
AcDbSpline
 62
7
  6
CONTINUOUS
 70
0
 71
3
 72
11
 73
7
 74
0
 42
0.0000001
 43
0.0000001
 44
0.0000000001
 40
0.0
 40
0.0
 40
0.0
 40
0.0
 40
0.2898012489
 40
0.5490510236
 40
0.7822290598
 40
1.0
 40
1.0
 40
1.0
 40
1.0
 10
175.8972779304
 20
82.717785294
 30
0.0
 10
175.8972779304
 20
82.464354503
 30
0.0
 10
175.9355516739
 20
81.9825514599
 30
0.0
 10
176.130887719
 20
81.3206379794
 30
0.0
 10
176.4592308984
 20
80.7834607519
 30
0.0
 10
176.7679166553
 20
80.5240805211
 30
0.0
 10
176.932843802
 20
80.4288619474
 30
0.0
  0
SPLINE
  5
2EC
100
AcDbEntity
  8
0
100
AcDbSpline
 62
7
  6
CONTINUOUS
 70
0
 71
3
 72
17
 73
13
 74
0
 42
0.0000001
 43
0.0000001
 44
0.0000000001
 40
0.0
 40
0.0
 40
0.0
 40
0.0
 40
0.1286938287
 40
0.2702786484
 40
0.4174347437
 40
0.5617788623
 40
0.6954492664
 40
0.8127116048
 40
0.8646776308
 40
0.9125100673
 40
0.9571398924
 40
1.0
 40
1.0
 40
1.0
 40
1.0
 10
181.2924802084
 20
124.3471072041
 30
0.0
 10
181.2924802084
 20
124.1248636888
 30
0.0
 10
181.2303132646
 20
123.6575805495
 30
0.0
 10
180.9982415861
 20
122.9714849181
 30
0.0
 10
180.6406837379
 20
122.3105474911
 30
0.0
 10
180.1863372225
 20
121.7289713925
 30
0.0
 10
179.6723357031
 20
121.2737255235
 30
0.0
 10
179.2070823394
 20
121.0193793412
 30
0.0
 10
178.8431598169
 20
120.9224982493
 30
0.0
 10
178.5926796632
 20
120.9041303017
 30
0.0
 10
178.3594340333
 20
120.9382559557
 30
0.0
 10
178.2181464689
 20
120.9970109643
 30
0.0
 10
178.1540400088
 20
121.0340069823
 30
0.0
  0
SPLINE
  5
2ED
100
AcDbEntity
  8
0
100
AcDbSpline
 62
7
  6
CONTINUOUS
 70
0
 71
3
 72
14
 73
10
 74
0
 42
0.0000001
 43
0.0000001
 44
0.0000000001
 40
0.0
 40
0.0
 40
0.0
 40
0.0
 40
0.2892785655
 40
0.4225359229
 40
0.548495559
 40
0.6678929073
 40
0.7818669841
 40
0.891952011
 40
1.0
 40
1.0
 40
1.0
 40
1.0
 10
196.1204476748
 20
134.0755855672
 30
0.0
 10
197.2178143459
 20
134.7091467284
 30
0.0
 10
198.9025341249
 20
135.5109973814
 30
0.0
 10
201.2130010012
 20
136.1846786138
 30
0.0
 10
202.8529483519
 20
136.4597836381
 30
0.0
 10
204.4309494653
 20
136.5146775762
 30
0.0
 10
205.9320175849
 20
136.3472852841
 30
0.0
 10
207.3401071773
 20
135.9579215113
 30
0.0
 10
208.2103411924
 20
135.5503907987
 30
0.0
 10
208.6202183076
 20
135.3137527573
 30
0.0
  0
SPLINE
  5
2EE
100
AcDbEntity
  8
0
100
AcDbSpline
 62
7
  6
CONTINUOUS
 70
0
 71
3
 72
11
 73
7
 74
0
 42
0.0000001
 43
0.0000001
 44
0.0000000001
 40
0.0
 40
0.0
 40
0.0
 40
0.0
 40
0.2372251801
 40
0.5000005261
 40
0.7627755858
 40
1.0
 40
1.0
 40
1.0
 40
1.0
 10
117.1361259249
 20
232.9931936902
 30
0.0
 10
116.8349757094
 20
233.1670589148
 30
0.0
 10
116.1346197544
 20
233.4208052479
 30
0.0
 10
115.0148022462
 20
233.5423531954
 30
0.0
 10
113.8949864276
 20
233.4208001377
 30
0.0
 10
113.1946332273
 20
233.1670503271
 30
0.0
 10
112.8934852378
 20
232.9931834921
 30
0.0
  0
SPLINE
  5
2EF
100
AcDbEntity
  8
0
100
AcDbSpline
 62
7
  6
CONTINUOUS
 70
0
 71
3
 72
11
 73
7
 74
0
 42
0.0000001
 43
0.0000001
 44
0.0000000001
 40
0.0
 40
0.0
 40
0.0
 40
0.0
 40
0.2177753738
 40
0.4509336309
 40
0.7102261693
 40
1.0
 40
1.0
 40
1.0
 40
1.0
 10
111.0951885902
 20
237.3206253621
 30
0.0
 10
111.0951885883
 20
237.4729761827
 30
0.0
 10
111.0389231126
 20
237.7905607939
 30
0.0
 10
110.7981544634
 20
238.2329495437
 30
0.0
 10
110.4176572514
 20
238.6329888295
 30
0.0
 10
110.0991837204
 20
238.8522440254
 30
0.0
 10
109.9236226258
 20
238.9536019776
 30
0.0
  0
SPLINE
  5
2F0
100
AcDbEntity
  8
0
100
AcDbSpline
 62
7
  6
CONTINUOUS
 70
0
 71
3
 72
11
 73
7
 74
0
 42
0.0000001
 43
0.0000001
 44
0.0000000001
 40
0.0
 40
0.0
 40
0.0
 40
0.0
 40
0.2372279391
 40
0.4999994739
 40
0.762771295
 40
1.0
 40
1.0
 40
1.0
 40
1.0
 10
81.6395339046
 20
205.8857288677
 30
0.0
 10
81.3383816193
 20
205.7118595526
 30
0.0
 10
80.6380264145
 20
205.45811494
 30
0.0
 10
79.5182168962
 20
205.3365653766
 30
0.0
 10
78.3984056882
 20
205.4581098298
 30
0.0
 10
77.6980477288
 20
205.7118509648
 30
0.0
 10
77.3968932175
 20
205.8857186696
 30
0.0
  0
SPLINE
  5
2F1
100
AcDbEntity
  8
0
100
AcDbSpline
 62
7
  6
CONTINUOUS
 70
0
 71
3
 72
11
 73
7
 74
0
 42
0.0000001
 43
0.0000001
 44
0.0000000001
 40
0.0
 40
0.0
 40
0.0
 40
0.0
 40
0.2177796924
 40
0.4509239527
 40
0.7102593987
 40
1.0
 40
1.0
 40
1.0
 40
1.0
 10
40.7987100917
 20
236.5039126081
 30
0.0
 10
40.7987302991
 20
236.3896495071
 30
0.0
 10
40.7564749076
 20
236.1514777516
 30
0.0
 10
40.5759452654
 20
235.819659326
 30
0.0
 10
40.2905452743
 20
235.5196604802
 30
0.0
 10
40.0517097252
 20
235.3551995218
 30
0.0
 10
39.9200571769
 20
235.2791903413
 30
0.0
  0
SPLINE
  5
2F2
100
AcDbEntity
  8
0
100
AcDbSpline
 62
7
  6
CONTINUOUS
 70
0
 71
3
 72
15
 73
11
 74
0
 42
0.0000001
 43
0.0000001
 44
0.0000000001
 40
0.0
 40
0.0
 40
0.0
 40
0.0
 40
0.122681148
 40
0.2568619433
 40
0.397426131
 40
0.5383207409
 40
0.6734720337
 40
0.7372546802
 40
0.797743823
 40
1.0
 40
1.0
 40
1.0
 40
1.0
 10
75.416669805
 20
255.7730468657
 30
0.0
 10
75.224158107
 20
255.6619008484
 30
0.0
 10
74.7936346507
 20
255.4756901869
 30
0.0
 10
74.0903451272
 20
255.3083933205
 30
0.0
 10
73.3368503087
 20
255.2472522236
 30
0.0
 10
72.5808801963
 20
255.2964691262
 30
0.0
 10
71.9768536756
 20
255.4290005947
 30
0.0
 10
71.5338017214
 20
255.5899950629
 30
0.0
 10
71.0018843271
 20
255.8427040319
 30
0.0
 10
70.6012877417
 20
256.1641020101
 30
0.0
 10
70.4286083853
 20
256.4873498083
 30
0.0
  0
SPLINE
  5
2F3
100
AcDbEntity
  8
0
100
AcDbSpline
 62
7
  6
CONTINUOUS
 70
0
 71
3
 72
9
 73
5
 74
0
 42
0.0000001
 43
0.0000001
 44
0.0000000001
 40
0.0
 40
0.0
 40
0.0
 40
0.0
 40
0.5104125976
 40
1.0
 40
1.0
 40
1.0
 40
1.0
 10
70.4286083853
 20
256.4873498083
 30
0.0
 10
70.3859930967
 20
256.567123665
 30
0.0
 10
70.3188961885
 20
256.733115163
 30
0.0
 10
70.2953738816
 20
256.9110162934
 30
0.0
 10
70.2953585394
 20
256.9977691261
 30
0.0
  0
SPLINE
  5
2F4
100
AcDbEntity
  8
0
100
AcDbSpline
 62
7
  6
CONTINUOUS
 70
0
 71
3
 72
11
 73
7
 74
0
 42
0.0000001
 43
0.0000001
 44
0.0000000001
 40
0.0
 40
0.0
 40
0.0
 40
0.0
 40
0.2897781767
 40
0.5490726313
 40
0.7822276909
 40
1.0
 40
1.0
 40
1.0
 40
1.0
 10
112.8935029016
 20
231.6868321509
 30
0.0
 10
112.7618305407
 20
231.7628515042
 30
0.0
 10
112.5229750239
 20
231.9272966041
 30
0.0
 10
112.2376036658
 20
232.2273281828
 30
0.0
 10
112.0570341519
 20
232.5591193757
 30
0.0
 10
112.0148364671
 20
232.7973034824
 30
0.0
 10
112.0148364656
 20
232.9115646126
 30
0.0
  0
SPLINE
  5
2F5
100
AcDbEntity
  8
0
100
AcDbSpline
 62
7
  6
CONTINUOUS
 70
0
 71
3
 72
10
 73
6
 74
0
 42
0.0000001
 43
0.0000001
 44
0.0000000001
 40
0.0
 40
0.0
 40
0.0
 40
0.0
 40
0.4588857921
 40
0.7187804199
 40
1.0
 40
1.0
 40
1.0
 40
1.0
 10
76.2283610619
 20
256.2185377608
 30
0.0
 10
76.1641989179
 20
256.390892292
 30
0.0
 10
75.9962105635
 20
256.6370572709
 30
0.0
 10
75.6960218448
 20
256.9029887383
 30
0.0
 10
75.5142587511
 20
257.0230462793
 30
0.0
 10
75.4166521412
 20
257.0793982069
 30
0.0
  0
SPLINE
  5
2F6
100
AcDbEntity
  8
0
100
AcDbSpline
 62
7
  6
CONTINUOUS
 70
0
 71
3
 72
11
 73
7
 74
0
 42
0.0000001
 43
0.0000001
 44
0.0000000001
 40
0.0
 40
0.0
 40
0.0
 40
0.0
 40
0.2228964003
 40
0.4583021121
 40
0.7156030448
 40
1.0
 40
1.0
 40
1.0
 40
1.0
 10
118.7218991421
 20
230.4620590608
 30
0.0
 10
118.7218991408
 20
230.5627640136
 30
0.0
 10
118.689634575
 20
230.7709811929
 30
0.0
 10
118.5495795588
 20
231.0664603514
 30
0.0
 10
118.3252644996
 20
231.340207194
 30
0.0
 10
118.1344597409
 20
231.4958960771
 30
0.0
 10
118.0289351406
 20
231.5692070344
 30
0.0
  0
SPLINE
  5
2F7
100
AcDbEntity
  8
0
100
AcDbSpline
 62
7
  6
CONTINUOUS
 70
0
 71
3
 72
11
 73
7
 74
0
 42
0.0000001
 43
0.0000001
 44
0.0000000001
 40
0.0
 40
0.0
 40
0.0
 40
0.0
 40
0.2177727701
 40
0.4509280213
 40
0.7102223029
 40
1.0
 40
1.0
 40
1.0
 40
1.0
 10
118.7218991421
 20
228.0125518094
 30
0.0
 10
118.7218991436
 20
227.8982919093
 30
0.0
 10
118.6797024223
 20
227.6601105508
 30
0.0
 10
118.4991368147
 20
227.3283225704
 30
0.0
 10
118.2137712523
 20
227.0282932156
 30
0.0
 10
117.9749202685
 20
226.8638487435
 30
0.0
 10
117.8432503699
 20
226.7878295459
 30
0.0
  0
SPLINE
  5
2F8
100
AcDbEntity
  8
0
100
AcDbSpline
 62
7
  6
CONTINUOUS
 70
0
 71
3
 72
11
 73
7
 74
0
 42
0.0000001
 43
0.0000001
 44
0.0000000001
 40
0.0
 40
0.0
 40
0.0
 40
0.0
 40
0.2372251801
 40
0.5000005261
 40
0.7627755858
 40
1.0
 40
1.0
 40
1.0
 40
1.0
 10
75.4166521412
 20
257.0793982069
 30
0.0
 10
75.1155019257
 20
257.2532634315
 30
0.0
 10
74.4151459708
 20
257.5070097646
 30
0.0
 10
73.2953284625
 20
257.6285577121
 30
0.0
 10
72.1755126439
 20
257.5070046544
 30
0.0
 10
71.4751594436
 20
257.2532548438
 30
0.0
 10
71.1740114542
 20
257.0793880088
 30
0.0
  0
SPLINE
  5
2F9
100
AcDbEntity
  8
0
100
AcDbSpline
 62
7
  6
CONTINUOUS
 70
0
 71
3
 72
11
 73
7
 74
0
 42
0.0000001
 43
0.0000001
 44
0.0000000001
 40
0.0
 40
0.0
 40
0.0
 40
0.0
 40
0.2897733512
 40
0.5490657165
 40
0.7822241652
 40
1.0
 40
1.0
 40
1.0
 40
1.0
 10
77.3968726097
 20
212.4993269678
 30
0.0
 10
77.265204251
 20
212.4233086592
 30
0.0
 10
77.0263536357
 20
212.2588678901
 30
0.0
 10
76.7409865225
 20
211.9588406496
 30
0.0
 10
76.560413942
 20
211.6270522998
 30
0.0
 10
76.5182157987
 20
211.3888665896
 30
0.0
 10
76.5182158002
 20
211.2746047042
 30
0.0
  0
SPLINE
  5
2FA
100
AcDbEntity
  8
0
100
AcDbSpline
 62
7
  6
CONTINUOUS
 70
0
 71
3
 72
11
 73
7
 74
0
 42
0.0000001
 43
0.0000001
 44
0.0000000001
 40
0.0
 40
0.0
 40
0.0
 40
0.0
 40
0.2897733512
 40
0.5490657165
 40
0.7822241652
 40
1.0
 40
1.0
 40
1.0
 40
1.0
 10
35.677398826
 20
236.5855314845
 30
0.0
 10
35.5457304673
 20
236.5095131759
 30
0.0
 10
35.306879852
 20
236.3450724068
 30
0.0
 10
35.0215127388
 20
236.0450451663
 30
0.0
 10
34.8409401583
 20
235.7132568165
 30
0.0
 10
34.7987420151
 20
235.4750711063
 30
0.0
 10
34.7987420165
 20
235.3608092209
 30
0.0
  0
SPLINE
  5
2FB
100
AcDbEntity
  8
0
100
AcDbSpline
 62
7
  6
CONTINUOUS
 70
0
 71
3
 72
11
 73
7
 74
0
 42
0.0000001
 43
0.0000001
 44
0.0000000001
 40
0.0
 40
0.0
 40
0.0
 40
0.0
 40
0.2897733512
 40
0.5490657165
 40
0.7822241652
 40
1.0
 40
1.0
 40
1.0
 40
1.0
 10
104.2667683764
 20
238.9535883802
 30
0.0
 10
104.0912105648
 20
238.8522306354
 30
0.0
 10
103.7727430777
 20
238.6329762766
 30
0.0
 10
103.3922535935
 20
238.2329399559
 30
0.0
 10
103.1514901528
 20
237.7905554895
 30
0.0
 10
103.0952259618
 20
237.4729745426
 30
0.0
 10
103.0952259638
 20
237.3206253621
 30
0.0
  0
SPLINE
  5
2FC
100
AcDbEntity
  8
0
100
AcDbSpline
 62
7
  6
CONTINUOUS
 70
0
 71
3
 72
13
 73
9
 74
0
 42
0.0000001
 43
0.0000001
 44
0.0000000001
 40
0.0
 40
0.0
 40
0.0
 40
0.0
 40
0.1142466307
 40
0.237544229
 40
0.5000005226
 40
0.7624565301
 40
0.8857537943
 40
1.0
 40
1.0
 40
1.0
 40
1.0
 10
109.9236226258
 20
238.9536019776
 30
0.0
 10
109.7300106771
 20
239.0653813595
 30
0.0
 10
109.3065700068
 20
239.2625728814
 30
0.0
 10
108.3681285499
 20
239.5475882237
 30
0.0
 10
107.0951910701
 20
239.6860435339
 30
0.0
 10
105.8222548144
 20
239.5475823382
 30
0.0
 10
104.8838168743
 20
239.2625623795
 30
0.0
 10
104.4603787987
 20
239.0653687424
 30
0.0
 10
104.2667683764
 20
238.9535883802
 30
0.0
  0
SPLINE
  5
2FD
100
AcDbEntity
  8
0
100
AcDbSpline
 62
7
  6
CONTINUOUS
 70
0
 71
3
 72
11
 73
7
 74
0
 42
0.0000001
 43
0.0000001
 44
0.0000000001
 40
0.0
 40
0.0
 40
0.0
 40
0.0
 40
0.2177753738
 40
0.4509336309
 40
0.7102261693
 40
1.0
 40
1.0
 40
1.0
 40
1.0
 10
118.0148003982
 20
231.7684612286
 30
0.0
 10
118.0148003967
 20
231.882724344
 30
0.0
 10
117.97260129
 20
232.1209128024
 30
0.0
 10
117.7920248031
 20
232.4527043648
 30
0.0
 10
117.5066518941
 20
232.7527338292
 30
0.0
 10
117.2677967459
 20
232.917175226
 30
0.0
 10
117.1361259249
 20
232.9931936902
 30
0.0
  0
SPLINE
  5
2FE
100
AcDbEntity
  8
0
100
AcDbSpline
 62
7
  6
CONTINUOUS
 70
0
 71
3
 72
11
 73
7
 74
0
 42
0.0000001
 43
0.0000001
 44
0.0000000001
 40
0.0
 40
0.0
 40
0.0
 40
0.0
 40
0.2177753738
 40
0.4509336309
 40
0.7102261693
 40
1.0
 40
1.0
 40
1.0
 40
1.0
 10
82.5181877701
 20
211.2746047042
 30
0.0
 10
82.5181877686
 20
211.3888678197
 30
0.0
 10
82.4759886619
 20
211.6270562781
 30
0.0
 10
82.295412175
 20
211.9588478404
 30
0.0
 10
82.010039266
 20
212.2588773048
 30
0.0
 10
81.7711841177
 20
212.4233187017
 30
0.0
 10
81.6395132968
 20
212.4993371658
 30
0.0
  0
SPLINE
  5
2FF
100
AcDbEntity
  8
0
100
AcDbSpline
 62
7
  6
CONTINUOUS
 70
0
 71
3
 72
11
 73
7
 74
0
 42
0.0000001
 43
0.0000001
 44
0.0000000001
 40
0.0
 40
0.0
 40
0.0
 40
0.0
 40
0.237228705
 40
0.5000005261
 40
0.7627720609
 40
1.0
 40
1.0
 40
1.0
 40
1.0
 10
77.3968932175
 20
208.335225921
 30
0.0
 10
77.6980477288
 20
208.1613582162
 30
0.0
 10
78.3984056882
 20
207.9076170812
 30
0.0
 10
79.5182168962
 20
207.786072628
 30
0.0
 10
80.6380264145
 20
207.9076221914
 30
0.0
 10
81.3383816193
 20
208.161366804
 30
0.0
 10
81.6395339046
 20
208.3352361191
 30
0.0
  0
SPLINE
  5
300
100
AcDbEntity
  8
0
100
AcDbSpline
 62
7
  6
CONTINUOUS
 70
0
 71
3
 72
17
 73
13
 74
0
 42
0.0000001
 43
0.0000001
 44
0.0000000001
 40
0.0
 40
0.0
 40
0.0
 40
0.0
 40
0.1286923651
 40
0.2702770074
 40
0.417433908
 40
0.5617794078
 40
0.6954504941
 40
0.8127129393
 40
0.8646788001
 40
0.9125109544
 40
0.9571403961
 40
1.0
 40
1.0
 40
1.0
 40
1.0
 10
81.6395309606
 20
208.7434785732
 30
0.0
 10
81.4174533795
 20
208.6152627874
 30
0.0
 10
80.9146509736
 20
208.4078001203
 30
0.0
 10
80.0951740429
 20
208.2438781987
 30
0.0
 10
79.2284354792
 20
208.2198641139
 30
0.0
 10
78.385158588
 20
208.3383519249
 30
0.0
 10
77.6337036311
 20
208.5893326921
 30
0.0
 10
77.1111264232
 20
208.9075033181
 30
0.0
 10
76.8043600736
 20
209.2152630124
 30
0.0
 10
76.6414977168
 20
209.4549598711
 30
0.0
 10
76.5410335484
 20
209.7077194472
 30
0.0
 10
76.5182347983
 20
209.882798684
 30
0.0
 10
76.5182196949
 20
209.9682008336
 30
0.0
  0
SPLINE
  5
301
100
AcDbEntity
  8
0
100
AcDbSpline
 62
7
  6
CONTINUOUS
 70
0
 71
3
 72
11
 73
7
 74
0
 42
0.0000001
 43
0.0000001
 44
0.0000000001
 40
0.0
 40
0.0
 40
0.0
 40
0.0
 40
0.2372279391
 40
0.4999994739
 40
0.762771295
 40
1.0
 40
1.0
 40
1.0
 40
1.0
 10
77.3968726097
 20
213.6424303518
 30
0.0
 10
77.6980248949
 20
213.8162996669
 30
0.0
 10
78.3983800997
 20
214.0700442794
 30
0.0
 10
79.5181896181
 20
214.1915938429
 30
0.0
 10
80.638000826
 20
214.0700493896
 30
0.0
 10
81.3383587854
 20
213.8163082546
 30
0.0
 10
81.6395132968
 20
213.6424405498
 30
0.0
  0
SPLINE
  5
302
100
AcDbEntity
  8
0
100
AcDbSpline
 62
7
  6
CONTINUOUS
 70
0
 71
3
 72
17
 73
13
 74
0
 42
0.0000001
 43
0.0000001
 44
0.0000000001
 40
0.0
 40
0.0
 40
0.0
 40
0.0
 40
0.1286923651
 40
0.2702770074
 40
0.417433908
 40
0.5617794078
 40
0.6954504941
 40
0.8127129393
 40
0.8646788001
 40
0.9125109544
 40
0.9571403961
 40
1.0
 40
1.0
 40
1.0
 40
1.0
 10
35.677398826
 20
237.7286348685
 30
0.0
 10
35.8994764071
 20
237.8568506543
 30
0.0
 10
36.402278813
 20
238.0643133214
 30
0.0
 10
37.2217557438
 20
238.228235243
 30
0.0
 10
38.0884943075
 20
238.2522493278
 30
0.0
 10
38.9317711986
 20
238.1337615168
 30
0.0
 10
39.6832261555
 20
237.8827807496
 30
0.0
 10
40.2058033635
 20
237.5646101236
 30
0.0
 10
40.512569713
 20
237.2568504293
 30
0.0
 10
40.6754320698
 20
237.0171535706
 30
0.0
 10
40.7758962382
 20
236.7643939945
 30
0.0
 10
40.7986949883
 20
236.5893147577
 30
0.0
 10
40.7987100917
 20
236.5039126081
 30
0.0
  0
SPLINE
  5
303
100
AcDbEntity
  8
0
100
AcDbSpline
 62
7
  6
CONTINUOUS
 70
0
 71
3
 72
11
 73
7
 74
0
 42
0.0000001
 43
0.0000001
 44
0.0000000001
 40
0.0
 40
0.0
 40
0.0
 40
0.0
 40
0.2177796924
 40
0.4509239527
 40
0.7102593987
 40
1.0
 40
1.0
 40
1.0
 40
1.0
 10
70.2953585394
 20
256.9977691261
 30
0.0
 10
70.2953383319
 20
257.112032227
 30
0.0
 10
70.3375937235
 20
257.3502039826
 30
0.0
 10
70.5181233657
 20
257.6820224081
 30
0.0
 10
70.8035233568
 20
257.982021254
 30
0.0
 10
71.0423589059
 20
258.1464822123
 30
0.0
 10
71.1740114542
 20
258.2224913928
 30
0.0
  0
SPLINE
  5
304
100
AcDbEntity
  8
0
100
AcDbSpline
 62
7
  6
CONTINUOUS
 70
0
 71
3
 72
17
 73
13
 74
0
 42
0.0000001
 43
0.0000001
 44
0.0000000001
 40
0.0
 40
0.0
 40
0.0
 40
0.0
 40
0.1286902347
 40
0.2702748016
 40
0.4174293138
 40
0.5617764465
 40
0.6954484688
 40
0.8127147336
 40
0.8646780237
 40
0.9125120584
 40
0.9571415929
 40
1.0
 40
1.0
 40
1.0
 40
1.0
 10
109.9236461776
 20
232.829903884
 30
0.0
 10
109.6275473132
 20
232.6589521455
 30
0.0
 10
108.9571470323
 20
232.3823441376
 30
0.0
 10
107.8645276
 20
232.1637578287
 30
0.0
 10
106.7088776811
 20
232.1317322547
 30
0.0
 10
105.5845003908
 20
232.2897270038
 30
0.0
 10
104.5825749126
 20
232.6244089202
 30
0.0
 10
103.8857198266
 20
233.0485522185
 30
0.0
 10
103.4767850648
 20
233.4589870667
 30
0.0
 10
103.2595492713
 20
233.7785249685
 30
0.0
 10
103.1256597836
 20
234.1155682173
 30
0.0
 10
103.0952394931
 20
234.349000426
 30
0.0
 10
103.0952368091
 20
234.4628669057
 30
0.0
  0
SPLINE
  5
305
100
AcDbEntity
  8
0
100
AcDbSpline
 62
7
  6
CONTINUOUS
 70
0
 71
3
 72
11
 73
7
 74
0
 42
0.0000001
 43
0.0000001
 44
0.0000000001
 40
0.0
 40
0.0
 40
0.0
 40
0.0
 40
0.2177753738
 40
0.4509336309
 40
0.7102261693
 40
1.0
 40
1.0
 40
1.0
 40
1.0
 10
103.0952259638
 20
237.3206253621
 30
0.0
 10
103.0952259657
 20
237.1682745415
 30
0.0
 10
103.1514914413
 20
236.8506899303
 30
0.0
 10
103.3922600905
 20
236.4083011805
 30
0.0
 10
103.7727573026
 20
236.0082618946
 30
0.0
 10
104.0912308336
 20
235.7890066988
 30
0.0
 10
104.2667919281
 20
235.6876487466
 30
0.0
  0
SPLINE
  5
306
100
AcDbEntity
  8
0
100
AcDbSpline
 62
7
  6
CONTINUOUS
 70
0
 71
3
 72
11
 73
7
 74
0
 42
0.0000001
 43
0.0000001
 44
0.0000000001
 40
0.0
 40
0.0
 40
0.0
 40
0.0
 40
0.2897776971
 40
0.5490719787
 40
0.7822272299
 40
1.0
 40
1.0
 40
1.0
 40
1.0
 10
117.8432503699
 20
229.2373367973
 30
0.0
 10
117.9749202685
 20
229.3133559949
 30
0.0
 10
118.2137712523
 20
229.477800467
 30
0.0
 10
118.4991368147
 20
229.7778298218
 30
0.0
 10
118.6797024223
 20
230.1096178022
 30
0.0
 10
118.7218991436
 20
230.3477991607
 30
0.0
 10
118.7218991421
 20
230.4620590608
 30
0.0
  0
SPLINE
  5
307
100
AcDbEntity
  8
0
100
AcDbSpline
 62
7
  6
CONTINUOUS
 70
0
 71
3
 72
9
 73
5
 74
0
 42
0.0000001
 43
0.0000001
 44
0.0000000001
 40
0.0
 40
0.0
 40
0.0
 40
0.0
 40
0.2709897213
 40
1.0
 40
1.0
 40
1.0
 40
1.0
 10
71.1740114542
 20
257.0793880088
 30
0.0
 10
71.1076175917
 20
257.0410557233
 30
0.0
 10
70.8687945013
 20
256.8899227765
 30
0.0
 10
70.6539324686
 20
256.6954562337
 30
0.0
 10
70.5320877339
 20
256.5290540194
 30
0.0
  0
SPLINE
  5
308
100
AcDbEntity
  8
0
100
AcDbSpline
 62
7
  6
CONTINUOUS
 70
0
 71
3
 72
9
 73
5
 74
0
 42
0.0000001
 43
0.0000001
 44
0.0000000001
 40
0.0
 40
0.0
 40
0.0
 40
0.0
 40
0.4750938762
 40
1.0
 40
1.0
 40
1.0
 40
1.0
 10
117.1361435887
 20
229.2373350976
 30
0.0
 10
116.8828760822
 20
229.0911119074
 30
0.0
 10
116.3029243337
 20
228.8635541252
 30
0.0
 10
115.691258001
 20
228.7642756063
 30
0.0
 10
115.3689068796
 20
228.7421435522
 30
0.0
  0
SPLINE
  5
309
100
AcDbEntity
  8
0
100
AcDbSpline
 62
7
  6
CONTINUOUS
 70
0
 71
3
 72
11
 73
7
 74
0
 42
0.0000001
 43
0.0000001
 44
0.0000000001
 40
0.0
 40
0.0
 40
0.0
 40
0.0
 40
0.2372251801
 40
0.5000005261
 40
0.7627755858
 40
1.0
 40
1.0
 40
1.0
 40
1.0
 10
81.6395132968
 20
212.4993371658
 30
0.0
 10
81.3383630812
 20
212.6732023905
 30
0.0
 10
80.6380071263
 20
212.9269487236
 30
0.0
 10
79.5181896181
 20
213.0484966711
 30
0.0
 10
78.3983737994
 20
212.9269436134
 30
0.0
 10
77.6980205992
 20
212.6731938027
 30
0.0
 10
77.3968726097
 20
212.4993269678
 30
0.0
  0
SPLINE
  5
30A
100
AcDbEntity
  8
0
100
AcDbSpline
 62
7
  6
CONTINUOUS
 70
0
 71
3
 72
11
 73
7
 74
0
 42
0.0000001
 43
0.0000001
 44
0.0000000001
 40
0.0
 40
0.0
 40
0.0
 40
0.0
 40
0.2897733512
 40
0.5490657165
 40
0.7822241652
 40
1.0
 40
1.0
 40
1.0
 40
1.0
 10
81.6395309606
 20
210.0498824407
 30
0.0
 10
81.7711993193
 20
210.1259007492
 30
0.0
 10
82.0100499346
 20
210.2903415183
 30
0.0
 10
82.2954170478
 20
210.5903687588
 30
0.0
 10
82.4759896283
 20
210.9221571087
 30
0.0
 10
82.5181877715
 20
211.1603428188
 30
0.0
 10
82.5181877701
 20
211.2746047042
 30
0.0
  0
SPLINE
  5
30B
100
AcDbEntity
  8
0
100
AcDbSpline
 62
7
  6
CONTINUOUS
 70
0
 71
3
 72
11
 73
7
 74
0
 42
0.0000001
 43
0.0000001
 44
0.0000000001
 40
0.0
 40
0.0
 40
0.0
 40
0.0
 40
0.2372251801
 40
0.5000005261
 40
0.7627755858
 40
1.0
 40
1.0
 40
1.0
 40
1.0
 10
77.3968902735
 20
210.0498722426
 30
0.0
 10
77.6980404891
 20
209.8760070179
 30
0.0
 10
78.398396444
 20
209.6222606848
 30
0.0
 10
79.5182139522
 20
209.5007127374
 30
0.0
 10
80.6380297709
 20
209.6222657951
 30
0.0
 10
81.3383829711
 20
209.8760156057
 30
0.0
 10
81.6395309606
 20
210.0498824407
 30
0.0
  0
SPLINE
  5
30C
100
AcDbEntity
  8
0
100
AcDbSpline
 62
7
  6
CONTINUOUS
 70
0
 71
3
 72
11
 73
7
 74
0
 42
0.0000001
 43
0.0000001
 44
0.0000000001
 40
0.0
 40
0.0
 40
0.0
 40
0.0
 40
0.2897733512
 40
0.5490657165
 40
0.7822241652
 40
1.0
 40
1.0
 40
1.0
 40
1.0
 10
117.1361435887
 20
230.543738965
 30
0.0
 10
117.2678119474
 20
230.6197572736
 30
0.0
 10
117.5066625628
 20
230.7841980427
 30
0.0
 10
117.7920296759
 20
231.0842252832
 30
0.0
 10
117.9726022564
 20
231.416013633
 30
0.0
 10
118.0148003997
 20
231.6541993431
 30
0.0
 10
118.0148003982
 20
231.7684612286
 30
0.0
  0
SPLINE
  5
30D
100
AcDbEntity
  8
0
100
AcDbSpline
 62
7
  6
CONTINUOUS
 70
0
 71
3
 72
14
 73
10
 74
0
 42
0.0000001
 43
0.0000001
 44
0.0000000001
 40
0.0
 40
0.0
 40
0.0
 40
0.0
 40
0.3072080201
 40
0.4497478615
 40
0.5815297174
 40
0.701315719
 40
0.8092838373
 40
0.9074709308
 40
1.0
 40
1.0
 40
1.0
 40
1.0
 10
37.4406288398
 20
232.3347744438
 30
0.0
 10
37.0914068845
 20
232.3589963131
 30
0.0
 10
36.5805462764
 20
232.4461922409
 30
0.0
 10
35.9571878248
 20
232.6752095778
 30
0.0
 10
35.5595433901
 20
232.8876515334
 30
0.0
 10
35.2329729417
 20
233.138685504
 30
0.0
 10
34.9879683806
 20
233.4220330313
 30
0.0
 10
34.8342676634
 20
233.7303377059
 30
0.0
 10
34.7987645576
 20
233.9489692555
 30
0.0
 10
34.7987459112
 20
234.0544053503
 30
0.0
  0
SPLINE
  5
30E
100
AcDbEntity
  8
0
100
AcDbSpline
 62
7
  6
CONTINUOUS
 70
0
 71
3
 72
9
 73
5
 74
0
 42
0.0000001
 43
0.0000001
 44
0.0000000001
 40
0.0
 40
0.0
 40
0.0
 40
0.0
 40
0.2270441754
 40
1.0
 40
1.0
 40
1.0
 40
1.0
 10
40.6405204008
 20
235.9158389023
 30
0.0
 10
40.6026455386
 20
235.9804986731
 30
0.0
 10
40.4113991319
 20
236.2511031965
 30
0.0
 10
40.1409759794
 20
236.4579868399
 30
0.0
 10
39.9200395131
 20
236.5855416825
 30
0.0
  0
SPLINE
  5
30F
100
AcDbEntity
  8
0
100
AcDbSpline
 62
7
  6
CONTINUOUS
 70
0
 71
3
 72
11
 73
7
 74
0
 42
0.0000001
 43
0.0000001
 44
0.0000000001
 40
0.0
 40
0.0
 40
0.0
 40
0.0
 40
0.2177753738
 40
0.4509336309
 40
0.7102261693
 40
1.0
 40
1.0
 40
1.0
 40
1.0
 10
76.5182158002
 20
211.2746047042
 30
0.0
 10
76.5182158017
 20
211.1603415887
 30
0.0
 10
76.5604149084
 20
210.9221531304
 30
0.0
 10
76.7409913953
 20
210.590361568
 30
0.0
 10
77.0263643043
 20
210.2903321036
 30
0.0
 10
77.2652194526
 20
210.1258907067
 30
0.0
 10
77.3968902735
 20
210.0498722426
 30
0.0
  0
SPLINE
  5
310
100
AcDbEntity
  8
0
100
AcDbSpline
 62
7
  6
CONTINUOUS
 70
0
 71
3
 72
11
 73
7
 74
0
 42
0.0000001
 43
0.0000001
 44
0.0000000001
 40
0.0
 40
0.0
 40
0.0
 40
0.0
 40
0.2372251801
 40
0.5000005261
 40
0.7627755858
 40
1.0
 40
1.0
 40
1.0
 40
1.0
 10
39.9200395131
 20
236.5855416825
 30
0.0
 10
39.6188892976
 20
236.7594069072
 30
0.0
 10
38.9185333426
 20
237.0131532403
 30
0.0
 10
37.7987158344
 20
237.1347011878
 30
0.0
 10
36.6789000158
 20
237.0131481301
 30
0.0
 10
35.9785468155
 20
236.7593983194
 30
0.0
 10
35.677398826
 20
236.5855314845
 30
0.0
  0
SPLINE
  5
311
100
AcDbEntity
  8
0
100
AcDbSpline
 62
7
  6
CONTINUOUS
 70
0
 71
3
 72
9
 73
5
 74
0
 42
0.0000001
 43
0.0000001
 44
0.0000000001
 40
0.0
 40
0.0
 40
0.0
 40
0.0
 40
0.4752390475
 40
1.0
 40
1.0
 40
1.0
 40
1.0
 10
35.6774164898
 20
234.1360767593
 30
0.0
 10
35.925101515
 20
233.9930789784
 30
0.0
 10
36.4911559007
 20
233.7689385073
 30
0.0
 10
37.0884024615
 20
233.6680915222
 30
0.0
 10
37.4032773165
 20
233.6438991382
 30
0.0
  0
SPLINE
  5
312
100
AcDbEntity
  8
0
100
AcDbSpline
 62
7
  6
CONTINUOUS
 70
0
 71
3
 72
11
 73
7
 74
0
 42
0.0000001
 43
0.0000001
 44
0.0000000001
 40
0.0
 40
0.0
 40
0.0
 40
0.0
 40
0.2177753738
 40
0.4509336309
 40
0.7102261693
 40
1.0
 40
1.0
 40
1.0
 40
1.0
 10
34.7987420165
 20
235.3608092209
 30
0.0
 10
34.798742018
 20
235.2465461054
 30
0.0
 10
34.8409411247
 20
235.0083576471
 30
0.0
 10
35.0215176116
 20
234.6765660847
 30
0.0
 10
35.3068905207
 20
234.3765366203
 30
0.0
 10
35.5457456689
 20
234.2120952234
 30
0.0
 10
35.6774164898
 20
234.1360767593
 30
0.0
  0
SPLINE
  5
313
100
AcDbEntity
  8
0
100
AcDbSpline
 62
7
  6
CONTINUOUS
 70
0
 71
3
 72
11
 73
7
 74
0
 42
0.0000001
 43
0.0000001
 44
0.0000000001
 40
0.0
 40
0.0
 40
0.0
 40
0.0
 40
0.2897733512
 40
0.5490657165
 40
0.7822241652
 40
1.0
 40
1.0
 40
1.0
 40
1.0
 10
109.9236461776
 20
235.687662344
 30
0.0
 10
110.0992039892
 20
235.7890200888
 30
0.0
 10
110.4176714763
 20
236.0082744475
 30
0.0
 10
110.7981609605
 20
236.4083107683
 30
0.0
 10
111.0389244012
 20
236.8506952347
 30
0.0
 10
111.0951885922
 20
237.1682761815
 30
0.0
 10
111.0951885902
 20
237.3206253621
 30
0.0
  0
SPLINE
  5
314
100
AcDbEntity
  8
0
100
AcDbSpline
 62
7
  6
CONTINUOUS
 70
0
 71
3
 72
13
 73
9
 74
0
 42
0.0000001
 43
0.0000001
 44
0.0000000001
 40
0.0
 40
0.0
 40
0.0
 40
0.0
 40
0.1142466307
 40
0.237544229
 40
0.5000005226
 40
0.7624565301
 40
0.8857537943
 40
1.0
 40
1.0
 40
1.0
 40
1.0
 10
104.2667919281
 20
235.6876487466
 30
0.0
 10
104.4604038768
 20
235.5758693647
 30
0.0
 10
104.8838445472
 20
235.3786778427
 30
0.0
 10
105.8222860041
 20
235.0936625004
 30
0.0
 10
107.0952234838
 20
234.9552071903
 30
0.0
 10
108.3681597395
 20
235.093668386
 30
0.0
 10
109.3065976796
 20
235.3786883447
 30
0.0
 10
109.7300357553
 20
235.5758819818
 30
0.0
 10
109.9236461776
 20
235.687662344
 30
0.0
  0
SPLINE
  5
315
100
AcDbEntity
  8
0
100
AcDbSpline
 62
7
  6
CONTINUOUS
 70
0
 71
3
 72
11
 73
7
 74
0
 42
0.0000001
 43
0.0000001
 44
0.0000000001
 40
0.0
 40
0.0
 40
0.0
 40
0.0
 40
0.2177727366
 40
0.450931526
 40
0.7102279717
 40
1.0
 40
1.0
 40
1.0
 40
1.0
 10
111.0951777449
 20
234.4628668986
 30
0.0
 10
111.0951813361
 20
234.3105202629
 30
0.0
 10
111.0389173121
 20
233.9929416958
 30
0.0
 10
110.7981603396
 20
233.5505545396
 30
0.0
 10
110.4176699489
 20
233.1505171047
 30
0.0
 10
110.0992027528
 20
232.931260915
 30
0.0
 10
109.9236461776
 20
232.829903884
 30
0.0
  0
SPLINE
  5
316
100
AcDbEntity
  8
0
100
AcDbSpline
 62
7
  6
CONTINUOUS
 70
0
 71
3
 72
9
 73
5
 74
0
 42
0.0000001
 43
0.0000001
 44
0.0000000001
 40
0.0
 40
0.0
 40
0.0
 40
0.0
 40
0.5247613351
 40
1.0
 40
1.0
 40
1.0
 40
1.0
 10
115.4103044001
 20
230.0515541642
 30
0.0
 10
115.7251759885
 20
230.0757487443
 30
0.0
 10
116.3224155237
 20
230.1765989267
 30
0.0
 10
116.8884623971
 20
230.400741016
 30
0.0
 10
117.1361435887
 20
230.543738965
 30
0.0
  0
SPLINE
  5
317
100
AcDbEntity
  8
0
100
AcDbSpline
 62
7
  6
CONTINUOUS
 70
0
 71
3
 72
11
 73
7
 74
0
 42
0.0000001
 43
0.0000001
 44
0.0000000001
 40
0.0
 40
0.0
 40
0.0
 40
0.0
 40
0.2177796924
 40
0.4509239527
 40
0.7102593987
 40
1.0
 40
1.0
 40
1.0
 40
1.0
 10
118.0147965035
 20
230.4620573643
 30
0.0
 10
118.014816711
 20
230.3477942634
 30
0.0
 10
117.9725613194
 20
230.1096225078
 30
0.0
 10
117.7920316772
 20
229.7778040823
 30
0.0
 10
117.5066316861
 20
229.4778052364
 30
0.0
 10
117.267796137
 20
229.3133442781
 30
0.0
 10
117.1361435887
 20
229.2373350976
 30
0.0
  0
SPLINE
  5
318
100
AcDbEntity
  8
0
100
AcDbSpline
 62
7
  6
CONTINUOUS
 70
0
 71
3
 72
11
 73
7
 74
0
 42
0.0000001
 43
0.0000001
 44
0.0000000001
 40
0.0
 40
0.0
 40
0.0
 40
0.0
 40
0.2177727701
 40
0.4509280213
 40
0.7102223029
 40
1.0
 40
1.0
 40
1.0
 40
1.0
 10
82.5181797328
 20
209.9682008368
 30
0.0
 10
82.5181797342
 20
209.8539409367
 30
0.0
 10
82.475983013
 20
209.6157595782
 30
0.0
 10
82.2954174054
 20
209.2839715978
 30
0.0
 10
82.010051843
 20
208.983942243
 30
0.0
 10
81.7712008592
 20
208.8194977709
 30
0.0
 10
81.6395309606
 20
208.7434785732
 30
0.0
  0
SPLINE
  5
319
100
AcDbEntity
  8
0
100
AcDbSpline
 62
7
  6
CONTINUOUS
 70
0
 71
3
 72
11
 73
7
 74
0
 42
0.0000001
 43
0.0000001
 44
0.0000000001
 40
0.0
 40
0.0
 40
0.0
 40
0.0
 40
0.2177727701
 40
0.4509280213
 40
0.7102223029
 40
1.0
 40
1.0
 40
1.0
 40
1.0
 10
112.0148364656
 20
232.9115646126
 30
0.0
 10
112.0148364642
 20
233.0258245127
 30
0.0
 10
112.0570331854
 20
233.2640058712
 30
0.0
 10
112.2375987931
 20
233.5957938516
 30
0.0
 10
112.5229643554
 20
233.8958232064
 30
0.0
 10
112.7618153392
 20
234.0602676785
 30
0.0
 10
112.8934852378
 20
234.1362868761
 30
0.0
  0
SPLINE
  5
31A
100
AcDbEntity
  8
0
100
AcDbSpline
 62
7
  6
CONTINUOUS
 70
0
 71
3
 72
9
 73
5
 74
0
 42
0.0000001
 43
0.0000001
 44
0.0000000001
 40
0.0
 40
0.0
 40
0.0
 40
0.0
 40
0.2744293402
 40
1.0
 40
1.0
 40
1.0
 40
1.0
 10
112.8934852378
 20
232.9931834921
 30
0.0
 10
112.8179224656
 20
232.9495575656
 30
0.0
 10
112.5506120182
 20
232.7784195282
 30
0.0
 10
112.3136802957
 20
232.5503039669
 30
0.0
 10
112.1917423323
 20
232.3544768102
 30
0.0
  0
SPLINE
  5
31B
100
AcDbEntity
  8
0
100
AcDbSpline
 62
7
  6
CONTINUOUS
 70
0
 71
3
 72
11
 73
7
 74
0
 42
0.0000001
 43
0.0000001
 44
0.0000000001
 40
0.0
 40
0.0
 40
0.0
 40
0.0
 40
0.2177731171
 40
0.4509285976
 40
0.710222822
 40
1.0
 40
1.0
 40
1.0
 40
1.0
 10
134.5820022959
 20
112.2397359235
 30
0.0
 10
134.450060475
 20
112.3159108529
 30
0.0
 10
134.203152049
 20
112.5234287523
 30
0.0
 10
133.940400148
 20
112.9531343156
 30
0.0
 10
133.7841909877
 20
113.482684255
 30
0.0
 10
133.7535383117
 20
113.8681291181
 30
0.0
 10
133.7535383117
 20
114.0708550507
 30
0.0
  0
SPLINE
  5
31C
100
AcDbEntity
  8
0
100
AcDbSpline
 62
7
  6
CONTINUOUS
 70
0
 71
3
 72
11
 73
7
 74
0
 42
0.0000001
 43
0.0000001
 44
0.0000000001
 40
0.0
 40
0.0
 40
0.0
 40
0.0
 40
0.2897757032
 40
0.5490693955
 40
0.7822254653
 40
1.0
 40
1.0
 40
1.0
 40
1.0
 10
164.5832656142
 20
167.4698055464
 30
0.0
 10
164.7588238353
 20
167.5711635276
 30
0.0
 10
165.1079404381
 20
167.7373319933
 30
0.0
 10
165.6446264015
 20
167.8668203555
 30
0.0
 10
166.1481191184
 20
167.8541258958
 30
0.0
 10
166.4512795258
 20
167.7440640283
 30
0.0
 10
166.5832169788
 20
167.6678916206
 30
0.0
  0
SPLINE
  5
31D
100
AcDbEntity
  8
0
100
AcDbSpline
 62
7
  6
CONTINUOUS
 70
0
 71
3
 72
13
 73
9
 74
0
 42
0.0000001
 43
0.0000001
 44
0.0000000001
 40
0.0
 40
0.0
 40
0.0
 40
0.0
 40
0.1142494128
 40
0.2375488016
 40
0.500001607
 40
0.7624535328
 40
0.8857518943
 40
1.0
 40
1.0
 40
1.0
 40
1.0
 10
140.5417351489
 20
150.3234946462
 30
0.0
 10
140.5417351489
 20
150.5470627901
 30
0.0
 10
140.5826827817
 20
151.0123783916
 30
0.0
 10
140.8050687379
 20
151.967603931
 30
0.0
 10
141.3216240348
 20
153.1392193611
 30
0.0
 10
142.0779886636
 20
154.1723795942
 30
0.0
 10
142.7940390258
 20
154.8425818158
 30
0.0
 10
143.176536732
 20
155.1106986377
 30
0.0
 10
143.3701504978
 20
155.2224809302
 30
0.0
  0
SPLINE
  5
31E
100
AcDbEntity
  8
0
100
AcDbSpline
 62
7
  6
CONTINUOUS
 70
0
 71
3
 72
15
 73
11
 74
0
 42
0.0000001
 43
0.0000001
 44
0.0000000001
 40
0.0
 40
0.0
 40
0.0
 40
0.0
 40
0.1141452366
 40
0.2373326637
 40
0.3669736904
 40
0.49999842
 40
0.6330233684
 40
0.762665039
 40
0.8858534719
 40
1.0
 40
1.0
 40
1.0
 40
1.0
 10
137.2890574978
 20
143.8731580025
 30
0.0
 10
137.5117113521
 20
144.0017064979
 30
0.0
 10
137.9515201456
 20
144.3100499273
 30
0.0
 10
138.5567221992
 20
144.8761852904
 30
0.0
 10
139.1143796429
 20
145.5455069715
 30
0.0
 10
139.6036171174
 20
146.292720337
 30
0.0
 10
140.0061008566
 20
147.0900223743
 30
0.0
 10
140.3069197175
 20
147.9076339107
 30
0.0
 10
140.4946057484
 20
148.7148288245
 30
0.0
 10
140.5417351489
 20
149.2498911783
 30
0.0
 10
140.5417351489
 20
149.5069922291
 30
0.0
  0
SPLINE
  5
31F
100
AcDbEntity
  8
0
100
AcDbSpline
 62
7
  6
CONTINUOUS
 70
0
 71
3
 72
13
 73
9
 74
0
 42
0.0000001
 43
0.0000001
 44
0.0000000001
 40
0.0
 40
0.0
 40
0.0
 40
0.0
 40
0.1142494128
 40
0.2375488016
 40
0.500001607
 40
0.7624535328
 40
0.8857518943
 40
1.0
 40
1.0
 40
1.0
 40
1.0
 10
133.7535383117
 20
138.5659275646
 30
0.0
 10
133.7535383117
 20
138.7894957085
 30
0.0
 10
133.7944859444
 20
139.25481131
 30
0.0
 10
134.0168719007
 20
140.2100368494
 30
0.0
 10
134.5334271975
 20
141.3816522795
 30
0.0
 10
135.2897918264
 20
142.4148125126
 30
0.0
 10
136.0058421885
 20
143.0850147342
 30
0.0
 10
136.3883398947
 20
143.3531315561
 30
0.0
 10
136.5819536605
 20
143.4649138486
 30
0.0
  0
SPLINE
  5
320
100
AcDbEntity
  8
0
100
AcDbSpline
 62
7
  6
CONTINUOUS
 70
0
 71
3
 72
11
 73
7
 74
0
 42
0.0000001
 43
0.0000001
 44
0.0000000001
 40
0.0
 40
0.0
 40
0.0
 40
0.0
 40
0.289777178
 40
0.5490714024
 40
0.7822268829
 40
1.0
 40
1.0
 40
1.0
 40
1.0
 10
162.7450370427
 20
97.3329841154
 30
0.0
 10
162.7450370427
 20
97.1302581828
 30
0.0
 10
162.7756897188
 20
96.7448133197
 30
0.0
 10
162.9318988791
 20
96.2152633803
 30
0.0
 10
163.19465078
 20
95.7855578169
 30
0.0
 10
163.441559206
 20
95.5780399176
 30
0.0
 10
163.573501027
 20
95.5018649881
 30
0.0
  0
SPLINE
  5
321
100
AcDbEntity
  8
0
100
AcDbSpline
 62
7
  6
CONTINUOUS
 70
0
 71
3
 72
11
 73
7
 74
0
 42
0.0000001
 43
0.0000001
 44
0.0000000001
 40
0.0
 40
0.0
 40
0.0
 40
0.0
 40
0.2177745347
 40
0.4509306045
 40
0.7102242968
 40
1.0
 40
1.0
 40
1.0
 40
1.0
 10
195.5747157098
 20
150.9300206853
 30
0.0
 10
195.4427782568
 20
151.006193093
 30
0.0
 10
195.1396178495
 20
151.1162549605
 30
0.0
 10
194.6361251325
 20
151.1289494202
 30
0.0
 10
194.0994391691
 20
150.999461058
 30
0.0
 10
193.7503225663
 20
150.8332925922
 30
0.0
 10
193.5747643452
 20
150.731934611
 30
0.0
  0
SPLINE
  5
322
100
AcDbEntity
  8
0
100
AcDbSpline
 62
7
  6
CONTINUOUS
 70
0
 71
3
 72
9
 73
5
 74
0
 42
0.0000001
 43
0.0000001
 44
0.0000000001
 40
0.0
 40
0.0
 40
0.0
 40
0.0
 40
0.2379869593
 40
1.0
 40
1.0
 40
1.0
 40
1.0
 10
169.53323388
 20
132.7691212938
 30
0.0
 10
169.53323388
 20
132.6737654133
 30
0.0
 10
169.5199095107
 20
132.2731201013
 30
0.0
 10
169.4573402979
 20
131.8747829154
 30
0.0
 10
169.3884298444
 20
131.5773400083
 30
0.0
  0
SPLINE
  5
323
100
AcDbEntity
  8
0
100
AcDbSpline
 62
7
  6
CONTINUOUS
 70
0
 71
3
 72
9
 73
5
 74
0
 42
0.0000001
 43
0.0000001
 44
0.0000000001
 40
0.0
 40
0.0
 40
0.0
 40
0.0
 40
0.2439847325
 40
1.0
 40
1.0
 40
1.0
 40
1.0
 10
169.3884298444
 20
131.5773400083
 30
0.0
 10
169.3672305405
 20
131.4858360022
 30
0.0
 10
169.2719641366
 20
131.1127647194
 30
0.0
 10
169.1445689644
 20
130.7480786977
 30
0.0
 10
169.0330794877
 20
130.4792336237
 30
0.0
  0
SPLINE
  5
324
100
AcDbEntity
  8
0
100
AcDbSpline
 62
7
  6
CONTINUOUS
 70
0
 71
3
 72
9
 73
5
 74
0
 42
0.0000001
 43
0.0000001
 44
0.0000000001
 40
0.0
 40
0.0
 40
0.0
 40
0.0
 40
0.2556064337
 40
1.0
 40
1.0
 40
1.0
 40
1.0
 10
168.0135171779
 20
128.7133091877
 30
0.0
 10
167.9536520712
 20
128.6352255304
 30
0.0
 10
167.7135545578
 20
128.3343334024
 30
0.0
 10
167.4496810525
 20
128.052168087
 30
0.0
 10
167.2402683255
 20
127.8565851509
 30
0.0
  0
SPLINE
  5
325
100
AcDbEntity
  8
0
100
AcDbSpline
 62
7
  6
CONTINUOUS
 70
0
 71
3
 72
9
 73
5
 74
0
 42
0.0000001
 43
0.0000001
 44
0.0000000001
 40
0.0
 40
0.0
 40
0.0
 40
0.0
 40
0.2616093359
 40
1.0
 40
1.0
 40
1.0
 40
1.0
 10
167.2402683255
 20
127.8565851509
 30
0.0
 10
167.1636676651
 20
127.7850432619
 30
0.0
 10
166.8641289669
 20
127.5190204661
 30
0.0
 10
166.5367579949
 20
127.2832043429
 30
0.0
 10
166.2805562288
 20
127.1352870672
 30
0.0
  0
SPLINE
  5
326
100
AcDbEntity
  8
0
100
AcDbSpline
 62
7
  6
CONTINUOUS
 70
0
 71
3
 72
13
 73
9
 74
0
 42
0.0000001
 43
0.0000001
 44
0.0000000001
 40
0.0
 40
0.0
 40
0.0
 40
0.0
 40
0.1142481057
 40
0.2375464672
 40
0.499998393
 40
0.7624511984
 40
0.8857505872
 40
1.0
 40
1.0
 40
1.0
 40
1.0
 10
172.3616492288
 20
138.4846099949
 30
0.0
 10
172.168035463
 20
138.3728277023
 30
0.0
 10
171.7855377568
 20
138.1047108805
 30
0.0
 10
171.0694873947
 20
137.4345086589
 30
0.0
 10
170.3131227658
 20
136.4013484258
 30
0.0
 10
169.796567469
 20
135.2297329957
 30
0.0
 10
169.5741815127
 20
134.2745074562
 30
0.0
 10
169.53323388
 20
133.8091918548
 30
0.0
 10
169.53323388
 20
133.5856237109
 30
0.0
  0
SPLINE
  5
327
100
AcDbEntity
  8
0
100
AcDbSpline
 62
7
  6
CONTINUOUS
 70
0
 71
3
 72
13
 73
9
 74
0
 42
0.0000001
 43
0.0000001
 44
0.0000000001
 40
0.0
 40
0.0
 40
0.0
 40
0.0
 40
0.1142481057
 40
0.2375464672
 40
0.499998393
 40
0.7624511984
 40
0.8857505872
 40
1.0
 40
1.0
 40
1.0
 40
1.0
 10
165.5734523916
 20
126.7270429133
 30
0.0
 10
165.3798386257
 20
126.6152606207
 30
0.0
 10
164.9973409195
 20
126.3471437989
 30
0.0
 10
164.2812905574
 20
125.6769415773
 30
0.0
 10
163.5249259285
 20
124.6437813441
 30
0.0
 10
163.0083706317
 20
123.4721659141
 30
0.0
 10
162.7859846754
 20
122.5169403746
 30
0.0
 10
162.7450370427
 20
122.0516247732
 30
0.0
 10
162.7450370427
 20
121.8280566293
 30
0.0
  0
SPLINE
  5
328
100
AcDbEntity
  8
0
100
AcDbSpline
 62
7
  6
CONTINUOUS
 70
0
 71
3
 72
11
 73
7
 74
0
 42
0.0000001
 43
0.0000001
 44
0.0000000001
 40
0.0
 40
0.0
 40
0.0
 40
0.0
 40
0.2177839237
 40
0.4509111717
 40
0.7102971901
 40
1.0
 40
1.0
 40
1.0
 40
1.0
 10
66.704482062
 20
143.1112241575
 30
0.0
 10
66.8034387348
 20
143.0540928382
 30
0.0
 10
67.0308068995
 20
142.971581071
 30
0.0
 10
67.4084607684
 20
142.9620221756
 30
0.0
 10
67.8109508306
 20
143.0592199179
 30
0.0
 10
68.0728145228
 20
143.1837960266
 30
0.0
 10
68.2044491268
 20
143.259794847
 30
0.0
  0
SPLINE
  5
329
100
AcDbEntity
  8
0
100
AcDbSpline
 62
7
  6
CONTINUOUS
 70
0
 71
3
 72
11
 73
7
 74
0
 42
0.0000001
 43
0.0000001
 44
0.0000000001
 40
0.0
 40
0.0
 40
0.0
 40
0.0
 40
0.2177825102
 40
0.4509091639
 40
0.7102957096
 40
1.0
 40
1.0
 40
1.0
 40
1.0
 10
33.8238798427
 20
162.0944192426
 30
0.0
 10
33.7249199187
 20
162.1515525003
 30
0.0
 10
33.5397697122
 20
162.3072064602
 30
0.0
 10
33.3426556352
 20
162.6294962957
 30
0.0
 10
33.2255815322
 20
163.0266783538
 30
0.0
 10
33.2025353958
 20
163.3157596026
 30
0.0
 10
33.2025353958
 20
163.4677647219
 30
0.0
  0
SPLINE
  5
32A
100
AcDbEntity
  8
0
100
AcDbSpline
 62
7
  6
CONTINUOUS
 70
0
 71
3
 72
11
 73
7
 74
0
 42
0.0000001
 43
0.0000001
 44
0.0000000001
 40
0.0
 40
0.0
 40
0.0
 40
0.0
 40
0.2372398078
 40
0.4999994051
 40
0.7627593222
 40
1.0
 40
1.0
 40
1.0
 40
1.0
 10
81.6395339046
 20
182.7787104629
 30
0.0
 10
81.338366654
 20
182.6048325076
 30
0.0
 10
80.6380060901
 20
182.3511034599
 30
0.0
 10
79.5182171538
 20
182.2295390194
 30
0.0
 10
78.3984263652
 20
182.3510982538
 30
0.0
 10
77.6980628262
 20
182.6048238438
 30
0.0
 10
77.3968932175
 20
182.7787002648
 30
0.0
  0
SPLINE
  5
32B
100
AcDbEntity
  8
0
100
AcDbSpline
 62
7
  6
CONTINUOUS
 70
0
 71
3
 72
11
 73
7
 74
0
 42
0.0000001
 43
0.0000001
 44
0.0000000001
 40
0.0
 40
0.0
 40
0.0
 40
0.0
 40
0.2177821605
 40
0.4509085882
 40
0.7102951949
 40
1.0
 40
1.0
 40
1.0
 40
1.0
 10
118.7219062249
 20
204.9055334047
 30
0.0
 10
118.7219061928
 20
204.7912693941
 30
0.0
 10
118.6796805191
 20
204.5531072083
 30
0.0
 10
118.4991307165
 20
204.2212704688
 30
0.0
 10
118.2137068009
 20
203.9213029896
 30
0.0
 10
117.9748862071
 20
203.7568106735
 30
0.0
 10
117.8432503699
 20
203.6808111411
 30
0.0
  0
SPLINE
  5
32C
100
AcDbEntity
  8
0
100
AcDbSpline
 62
7
  6
CONTINUOUS
 70
0
 71
3
 72
11
 73
7
 74
0
 42
0.0000001
 43
0.0000001
 44
0.0000000001
 40
0.0
 40
0.0
 40
0.0
 40
0.0
 40
0.2897042895
 40
0.5490907647
 40
0.7822174449
 40
1.0
 40
1.0
 40
1.0
 40
1.0
 10
66.0831376151
 20
144.4845696368
 30
0.0
 10
66.0831376151
 20
144.3325645174
 30
0.0
 10
66.1061836998
 20
144.043483301
 30
0.0
 10
66.2232578325
 20
143.6463012662
 30
0.0
 10
66.4203719027
 20
143.3240114499
 30
0.0
 10
66.6055220907
 20
143.168357381
 30
0.0
 10
66.704482062
 20
143.1112241575
 30
0.0
  0
SPLINE
  5
32D
100
AcDbEntity
  8
0
100
AcDbSpline
 62
7
  6
CONTINUOUS
 70
0
 71
3
 72
9
 73
5
 74
0
 42
0.0000001
 43
0.0000001
 44
0.0000000001
 40
0.0
 40
0.0
 40
0.0
 40
0.0
 40
0.2349022509
 40
1.0
 40
1.0
 40
1.0
 40
1.0
 10
77.3968932175
 20
205.8857186696
 30
0.0
 10
77.4703265522
 20
205.8433228732
 30
0.0
 10
77.7910957807
 20
205.6770483393
 30
0.0
 10
78.1378303841
 20
205.5635966926
 30
0.0
 10
78.4069687042
 20
205.501635872
 30
0.0
  0
SPLINE
  5
32E
100
AcDbEntity
  8
0
100
AcDbSpline
 62
7
  6
CONTINUOUS
 70
0
 71
3
 72
9
 73
5
 74
0
 42
0.0000001
 43
0.0000001
 44
0.0000000001
 40
0.0
 40
0.0
 40
0.0
 40
0.0
 40
0.2465708886
 40
1.0
 40
1.0
 40
1.0
 40
1.0
 10
78.4069687042
 20
205.501635872
 30
0.0
 10
78.4500324615
 20
205.4917217664
 30
0.0
 10
78.6252671536
 20
205.4540822711
 30
0.0
 10
78.8026563373
 20
205.4265751856
 30
0.0
 10
78.9368170837
 20
205.4112875725
 30
0.0
  0
SPLINE
  5
32F
100
AcDbEntity
  8
0
100
AcDbSpline
 62
7
  6
CONTINUOUS
 70
0
 71
3
 72
9
 73
5
 74
0
 42
0.0000001
 43
0.0000001
 44
0.0000000001
 40
0.0
 40
0.0
 40
0.0
 40
0.0
 40
0.2532154778
 40
1.0
 40
1.0
 40
1.0
 40
1.0
 10
80.09956292
 20
205.4112842159
 30
0.0
 10
80.1446482218
 20
205.4164214132
 30
0.0
 10
80.3224130304
 20
205.4391243679
 30
0.0
 10
80.4989524588
 20
205.4715972463
 30
0.0
 10
80.6293677338
 20
205.5016190657
 30
0.0
  0
SPLINE
  5
330
100
AcDbEntity
  8
0
100
AcDbSpline
 62
7
  6
CONTINUOUS
 70
0
 71
3
 72
9
 73
5
 74
0
 42
0.0000001
 43
0.0000001
 44
0.0000000001
 40
0.0
 40
0.0
 40
0.0
 40
0.0
 40
0.2642673046
 40
1.0
 40
1.0
 40
1.0
 40
1.0
 10
80.6293677338
 20
205.5016190657
 30
0.0
 10
80.7223235864
 20
205.5230176619
 30
0.0
 10
81.0712220953
 20
205.615111059
 30
0.0
 10
81.4095500515
 20
205.7529484208
 30
0.0
 10
81.6395339046
 20
205.8857288677
 30
0.0
  0
SPLINE
  5
331
100
AcDbEntity
  8
0
100
AcDbSpline
 62
7
  6
CONTINUOUS
 70
0
 71
3
 72
9
 73
5
 74
0
 42
0.0000001
 43
0.0000001
 44
0.0000000001
 40
0.0
 40
0.0
 40
0.0
 40
0.0
 40
0.2604112263
 40
1.0
 40
1.0
 40
1.0
 40
1.0
 10
118.5085108001
 20
227.3709885632
 30
0.0
 10
118.5292524771
 20
227.4010194787
 30
0.0
 10
118.6045194785
 20
227.5192448053
 30
0.0
 10
118.6606931249
 20
227.6500943242
 30
0.0
 10
118.6872682863
 20
227.750285822
 30
0.0
  0
SPLINE
  5
332
100
AcDbEntity
  8
0
100
AcDbSpline
 62
7
  6
CONTINUOUS
 70
0
 71
3
 72
9
 73
5
 74
0
 42
0.0000001
 43
0.0000001
 44
0.0000000001
 40
0.0
 40
0.0
 40
0.0
 40
0.0
 40
0.2527278947
 40
1.0
 40
1.0
 40
1.0
 40
1.0
 10
118.6872682863
 20
227.750285822
 30
0.0
 10
118.6929908788
 20
227.7718606715
 30
0.0
 10
118.7129783319
 20
227.8579071391
 30
0.0
 10
118.7219062371
 20
227.9465528443
 30
0.0
 10
118.7219062249
 20
228.0125518094
 30
0.0
  0
ENDSEC
  0
SECTION
  2
OBJECTS
  0
DICTIONARY
  5
C
100
AcDbDictionary
280
0
281
1
  3
ACAD_GROUP
350
D
  3
ACAD_MLINESTYLE
350
17
  3
ACAD_LAYOUT
350
1A
  3
ACAD_PLOTSETTINGS
350
19
  3
ACAD_PLOTSTYLENAME
350
E
  0
DICTIONARY
  5
D
102
{ACAD_REACTORS
330
C
102
}
100
AcDbDictionary
280
0
281
1
  0
ACDBDICTIONARYWDFLT
  5
E
102
{ACAD_REACTORS
330
C
102
}
100
AcDbDictionary
281
1
  3
Normal
350
F
100
AcDbDictionaryWithDefault
340
F
  0
DICTIONARY
  5
17
102
{ACAD_REACTORS
330
C
102
}
100
AcDbDictionary
280
0
281
1
  3
Standard
350
18
  0
DICTIONARY
  5
19
102
{ACAD_REACTORS
330
C
102
}
100
AcDbDictionary
281
1
  0
DICTIONARY
  5
1A
102
{ACAD_REACTORS
330
C
102
}
100
AcDbDictionary
281
1
  3
Model
350
333
  3
Layout1
350
334
  0
ACDBPLACEHOLDER
  5
F
102
{ACAD_REACTORS
330
E
102
}
  0
MLINESTYLE
  5
18
102
{ACAD_REACTORS
330
17
102
}
100
AcDbMlineStyle
  2
STANDARD
 70
0
  3

 62
256
 51
90.0
 52
90.0
 71
2
 49
0.5
 62
256
  6
BYLAYER
 49
-0.5
 62
256
  6
BYLAYER
  0
LAYOUT
  5
333
102
{ACAD_REACTORS
330
1A
102
}
100
AcDbPlotSettings
  1

  2
none_device
  4

  6

 40
0.0
 41
0.0
 42
0.0
 43
0.0
 44
210.0
 45
297.0
 46
0.0
 47
0.0
 48
0.0
 49
0.0
140
0.0
141
0.0
142
1.0
143
1.0
 70
1024
 72
1
 73
0
 74
0
  7

 75
0
147
1.0
148
0.0
149
0.0
100
AcDbLayout
  1
Model
 70
0
 71
0
 10
0.0
 20
0.0
 11
210.0
 21
297.0
 12
0.0
 22
0.0
 32
0.0
 14
0.0
 24
0.0
 34
0.0
 15
0.0
 25
0.0
 35
0.0
146
0.0
 13
0.0
 23
0.0
 33
0.0
 16
1.0
 26
0.0
 36
0.0
 17
0.0
 27
1.0
 37
0.0
 76
0
330
210
345
0
346
0
  0
LAYOUT
  5
334
102
{ACAD_REACTORS
330
1A
102
}
100
AcDbPlotSettings
  1

  2
none_device
  4

  6

 40
0.0
 41
0.0
 42
0.0
 43
0.0
 44
210.0
 45
297.0
 46
0.0
 47
0.0
 48
0.0
 49
0.0
140
0.0
141
0.0
142
1.0
143
1.0
 70
0
 72
1
 73
0
 74
0
  7

 75
0
147
1.0
148
0.0
149
0.0
100
AcDbLayout
  1
Layout1
 70
0
 71
1
 10
0.0
 20
0.0
 11
210.0
 21
297.0
 12
0.0
 22
0.0
 32
0.0
 14
0.0
 24
0.0
 34
0.0
 15
0.0
 25
0.0
 35
0.0
146
0.0
 13
0.0
 23
0.0
 33
0.0
 16
1.0
 26
0.0
 36
0.0
 17
0.0
 27
1.0
 37
0.0
 76
0
330
211
345
0
346
0
  0
ENDSEC
  0
EOF
