999
DXF file: C:\Users\sesa63760\Dev\_Creo\CAD\MCADID0004237_3D-CAD\drw0001_6.dxf
999
Pro/ENGINEER 2019471 by Parametric Technology Corporation
  0
SECTION
  2
HEADER
  9
$ACADVER
  1
AC1024
  9
$DWGCODEPAGE
  3
ANSI_1252
  9
$EXTMAX
 10
1403.1098733506
 20
1984.398249453
 30
0.0
  9
$EXTMIN
 10
0.0
 20
0.0
 30
0.0
  9
$LIMMIN
 10
0.0
 20
0.0
  9
$LIMMAX
 10
1403.1098733506
 20
1984.398249453
  9
$VIEWCTR
 10
701.5549366753
 20
992.1991247265
  9
$VIEWSIZE
 40
1984.398249453
  9
$CLAYER
  8
0
  9
$LTSCALE
 40
129.3533673717
  9
$CELTYPE
  6
BYLAYER
  9
$DIMSCALE
 40
1.0
  9
$DIMASZ
 40
16.7036889685
  9
$DIMEXO
 40
1.0
  9
$DIMDLI
 40
89.3714174568
  9
$DIMEXE
 40
1.0
  9
$DIMCEN
 40
21.1669146608
  9
$DIMLFAC
 40
1.0
  9
$DIMBLK
  1
_FILLED
  9
$DIMALT
 70
0
  9
$DIMALTF
 40
0.0393700787
  9
$DIMTXT
 40
23.3851645558
  9
$DIMTOL
 70
1
  9
$DIMLIM
 70
0
  9
$DIMTFAC
 40
1.0
  9
$DIMTP
 40
0.01
  9
$DIMTM
 40
0.01
  9
$DIMGAP
 40
0.625
  9
$DIMDSEP
 70
46
  9
$AUNITS
 70
0
  9
$PDMODE
 70
3
  9
$PDSIZE
 40
0.3125
  9
$HANDSEED
  5
2BD
  9
$TILEMODE
 70
1
  9
$MEASUREMENT
 70
1
  9
$INSUNITS
 70
4
  0
ENDSEC
  0
SECTION
  2
CLASSES
  0
CLASS
  1
ACDBDICTIONARYWDFLT
  2
AcDbDictionaryWithDefault
  3
AutoCAD 2000
 90
0
 91
1
280
0
281
0
  0
CLASS
  1
ACDBPLACEHOLDER
  2
AcDbPlaceHolder
  3
AutoCAD 2000
 90
0
 91
1
280
0
281
0
  0
CLASS
  1
LAYOUT
  2
AcDbLayout
  3
AutoCAD 2000
 90
0
 91
0
280
0
281
0
  0
ENDSEC
  0
SECTION
  2
TABLES
  0
TABLE
  2
VPORT
  5
8
100
AcDbSymbolTable
 70
2
  0
VPORT
  5
1F4
100
AcDbSymbolTableRecord
100
AcDbViewportTableRecord
  2
*ACTIVE
 70
0
 10
0.0
 20
0.0
 11
1.0
 21
1.0
 12
701.5549366753
 22
992.1991247265
 13
0.0
 23
0.0
 14
1.0
 24
1.0
 15
0.0
 25
0.0
 16
0.0
 26
0.0
 36
1.0
 17
0.0
 27
0.0
 37
0.0
 40
1984.398249453
 41
0.7070707071
 42
50.0
 43
0.0
 44
0.0
 50
0.0
 51
0.0
 71
0
 72
100
 73
1
 74
1
 75
0
 76
0
 77
0
 78
0
  0
ENDTAB
  0
TABLE
  2
LTYPE
  5
5
100
AcDbSymbolTable
 70
6
  0
LTYPE
  5
14
100
AcDbSymbolTableRecord
100
AcDbLinetypeTableRecord
  2
BYBLOCK
 70
0
  3

 72
65
 73
0
 40
0.0
  0
LTYPE
  5
15
100
AcDbSymbolTableRecord
100
AcDbLinetypeTableRecord
  2
BYLAYER
 70
0
  3

 72
65
 73
0
 40
0.0
  0
LTYPE
  5
16
100
AcDbSymbolTableRecord
100
AcDbLinetypeTableRecord
  2
CONTINUOUS
 70
64
  3
Solid line
 72
65
 73
0
 40
0.0
  0
LTYPE
  5
1F5
100
AcDbSymbolTableRecord
100
AcDbLinetypeTableRecord
  2
CENTER
 70
64
  3
____ _ ____ _ ____ _ ____ _ ____ _ ____ _ ____
 72
65
 73
4
 40
0.6
 49
0.375
 74
0
 49
-0.075
 74
0
 49
0.075
 74
0
 49
-0.075
 74
0
  0
LTYPE
  5
1F6
100
AcDbSymbolTableRecord
100
AcDbLinetypeTableRecord
  2
HIDDEN
 70
64
  3
- - - - - - - - - - - - - - - - - - - -
 72
65
 73
2
 40
0.2
 49
0.1
 74
0
 49
-0.1
 74
0
  0
LTYPE
  5
1F7
100
AcDbSymbolTableRecord
100
AcDbLinetypeTableRecord
  2
PHANTOM
 70
64
  3
_____ _ _ _____ _ _ _____ _ _ _____
 72
65
 73
6
 40
0.8
 49
0.45
 74
0
 49
-0.05
 74
0
 49
0.1
 74
0
 49
-0.05
 74
0
 49
0.1
 74
0
 49
-0.05
 74
0
  0
LTYPE
  5
1F8
100
AcDbSymbolTableRecord
100
AcDbLinetypeTableRecord
  2
DOT
 70
64
  3
. . . . . . . . . . . . . . . . . . . .
 72
65
 73
2
 40
0.2
 49
0.1
 74
0
 49
-0.1
 74
0
  0
LTYPE
  5
1F9
100
AcDbSymbolTableRecord
100
AcDbLinetypeTableRecord
  2
DASHED
 70
64
  3
- - - - - - - - - - - - - - - - - - - -
 72
65
 73
2
 40
0.2
 49
0.1
 74
0
 49
-0.1
 74
0
  0
ENDTAB
  0
TABLE
  2
LAYER
  5
2
100
AcDbSymbolTable
 70
36
  0
LAYER
  5
10
100
AcDbSymbolTableRecord
100
AcDbLayerTableRecord
  2
0
 70
0
 62
7
  6
CONTINUOUS
370
-3
390
F
  0
LAYER
  5
1FA
100
AcDbSymbolTableRecord
100
AcDbLayerTableRecord
  2
DEFAULT_1
 70
0
 62
7
  6
CENTER
370
-3
390
F
  0
LAYER
  5
1FB
100
AcDbSymbolTableRecord
100
AcDbLayerTableRecord
  2
DEFAULT_2
 70
0
 62
7
  6
HIDDEN
370
-3
390
F
  0
LAYER
  5
1FC
100
AcDbSymbolTableRecord
100
AcDbLayerTableRecord
  2
DEFAULT_3
 70
0
 62
7
  6
PHANTOM
370
-3
390
F
  0
LAYER
  5
1FD
100
AcDbSymbolTableRecord
100
AcDbLayerTableRecord
  2
00_COMPONENTS
 70
0
 62
7
  6
CONTINUOUS
370
-3
390
F
  0
LAYER
  5
1FE
100
AcDbSymbolTableRecord
100
AcDbLayerTableRecord
  2
01_1_DEFAULT_DATUMS
 70
0
 62
7
  6
CONTINUOUS
370
-3
390
F
  0
LAYER
  5
1FF
100
AcDbSymbolTableRecord
100
AcDbLayerTableRecord
  2
01_PLANES
 70
0
 62
7
  6
CONTINUOUS
370
-3
390
F
  0
LAYER
  5
200
100
AcDbSymbolTableRecord
100
AcDbLayerTableRecord
  2
02_COORD_SYS
 70
0
 62
7
  6
CONTINUOUS
370
-3
390
F
  0
LAYER
  5
201
100
AcDbSymbolTableRecord
100
AcDbLayerTableRecord
  2
03_AXES
 70
0
 62
7
  6
CONTINUOUS
370
-3
390
F
  0
LAYER
  5
202
100
AcDbSymbolTableRecord
100
AcDbLayerTableRecord
  2
04_POINTS
 70
0
 62
7
  6
CONTINUOUS
370
-3
390
F
  0
LAYER
  5
203
100
AcDbSymbolTableRecord
100
AcDbLayerTableRecord
  2
05_CURVES
 70
0
 62
7
  6
CONTINUOUS
370
-3
390
F
  0
LAYER
  5
204
100
AcDbSymbolTableRecord
100
AcDbLayerTableRecord
  2
06_SURFS
 70
0
 62
7
  6
CONTINUOUS
370
-3
390
F
  0
LAYER
  5
205
100
AcDbSymbolTableRecord
100
AcDbLayerTableRecord
  2
07_COSMETICS
 70
0
 62
7
  6
CONTINUOUS
370
-3
390
F
  0
LAYER
  5
206
100
AcDbSymbolTableRecord
100
AcDbLayerTableRecord
  2
10_NOTES
 70
0
 62
7
  6
CONTINUOUS
370
-3
390
F
  0
LAYER
  5
207
100
AcDbSymbolTableRecord
100
AcDbLayerTableRecord
  2
11_NOTES_PUB
 70
0
 62
7
  6
CONTINUOUS
370
-3
390
F
  0
LAYER
  5
208
100
AcDbSymbolTableRecord
100
AcDbLayerTableRecord
  2
13_REF_GTOL
 70
0
 62
7
  6
CONTINUOUS
370
-3
390
F
  0
LAYER
  5
209
100
AcDbSymbolTableRecord
100
AcDbLayerTableRecord
  2
16_MISC
 70
0
 62
7
  6
CONTINUOUS
370
-3
390
F
  0
LAYER
  5
20A
100
AcDbSymbolTableRecord
100
AcDbLayerTableRecord
  2
17_NO_PRINT
 70
0
 62
7
  6
CONTINUOUS
370
-3
390
F
  0
LAYER
  5
20B
100
AcDbSymbolTableRecord
100
AcDbLayerTableRecord
  2
18_DATUM_CAMS_JOINTS
 70
0
 62
7
  6
CONTINUOUS
370
-3
390
F
  0
LAYER
  5
20C
100
AcDbSymbolTableRecord
100
AcDbLayerTableRecord
  2
19_DATUM_FUNCTIONAL
 70
0
 62
7
  6
CONTINUOUS
370
-3
390
F
  0
LAYER
  5
20D
100
AcDbSymbolTableRecord
100
AcDbLayerTableRecord
  2
20_DATUM_KINEMATIC_SCHEME
 70
0
 62
7
  6
CONTINUOUS
370
-3
390
F
  0
LAYER
  5
20E
100
AcDbSymbolTableRecord
100
AcDbLayerTableRecord
  2
4
 70
0
 62
7
  6
CONTINUOUS
370
-3
390
F
  0
LAYER
  5
20F
100
AcDbSymbolTableRecord
100
AcDbLayerTableRecord
  2
7
 70
0
 62
7
  6
CONTINUOUS
370
-3
390
F
  0
ENDTAB
  0
TABLE
  2
STYLE
  5
3
100
AcDbSymbolTable
 70
1
  0
STYLE
  5
11
100
AcDbSymbolTableRecord
100
AcDbTextStyleTableRecord
  2
STANDARD
 70
0
 40
0.0
 41
1.0
 50
0.0
 71
0
 42
0.2
  3
ARIAL.TTF
  4

  0
STYLE
  5
210
100
AcDbSymbolTableRecord
100
AcDbTextStyleTableRecord
  2
TEXTSTYLE_1
 70
0
 40
0.0
 41
0.8
 50
0.0
 71
0
 42
0.2
  3
gdt
  4

  0
ENDTAB
  0
TABLE
  2
VIEW
  5
6
100
AcDbSymbolTable
 70
0
  0
ENDTAB
  0
TABLE
  2
UCS
  5
7
100
AcDbSymbolTable
 70
0
  0
ENDTAB
  0
TABLE
  2
APPID
  5
9
100
AcDbSymbolTable
 70
1
  0
APPID
  5
211
100
AcDbSymbolTableRecord
100
AcDbRegAppTableRecord
  2
ACAD
 70
0
  0
ENDTAB
  0
TABLE
  2
BLOCK_RECORD
  5
1
100
AcDbSymbolTable
 70
0
  0
BLOCK_RECORD
  5
212
100
AcDbSymbolTableRecord
100
AcDbBlockTableRecord
  2
*Model_Space
  0
BLOCK_RECORD
  5
213
100
AcDbSymbolTableRecord
100
AcDbBlockTableRecord
  2
*Paper_Space
  0
BLOCK_RECORD
  5
214
100
AcDbSymbolTableRecord
100
AcDbBlockTableRecord
  2
_FILLED
  0
ENDTAB
  0
TABLE
  2
DIMSTYLE
  5
A
100
AcDbSymbolTable
 70
1
100
AcDbDimStyleTable
 71
0
  0
DIMSTYLE
105
215
100
AcDbSymbolTableRecord
100
AcDbDimStyleTableRecord
  2
STANDARD
 70
0
  3

  4

 40
1.0
 41
16.7036889685
 42
1.0
 43
0.38
 44
1.0
 45
0.0
 46
0.0
 47
0.01
 48
0.01
140
23.3851645558
141
0.09
142
0.0
143
25.4
144
1.0
145
0.0
146
1.0
147
0.625
 71
1
 72
0
 73
0
 74
0
 75
0
 76
0
 77
1
 78
8
 79
2
170
0
171
1
172
0
173
0
174
0
175
0
176
0
177
0
178
0
270
2
179
2
271
2
272
2
273
2
274
2
275
0
280
0
281
0
282
0
283
1
284
8
285
0
286
0
287
3
288
0
340
11
278
46
341
214
342
214
343
214
344
214
  0
ENDTAB
  0
ENDSEC
  0
SECTION
  2
BLOCKS
  0
BLOCK
  5
20
100
AcDbEntity
  8
0
100
AcDbBlockBegin
  2
*Model_Space
 70
0
 10
0.0
 20
0.0
 30
0.0
  3
*Model_Space
  1

  0
ENDBLK
  5
21
100
AcDbEntity
  8
0
100
AcDbBlockEnd
  0
BLOCK
  5
1C
100
AcDbEntity
  8
0
100
AcDbBlockBegin
  2
*Paper_Space
 70
0
 10
0.0
 20
0.0
 30
0.0
  3
*Paper_Space
  1

  0
ENDBLK
  5
1D
100
AcDbEntity
  8
0
100
AcDbBlockEnd
  0
BLOCK
  5
216
100
AcDbEntity
  8
0
100
AcDbBlockBegin
  2
_FILLED
 70
64
 10
0.0
 20
0.0
  3
_FILLED
  1

  0
SOLID
  5
217
100
AcDbEntity
  8
0
  6
BYBLOCK
 62
0
100
AcDbTrace
 10
0.0
 20
0.0
 11
-1.0
 21
0.25
 12
-1.0
 22
-0.25
 13
-1.0
 23
-0.25
  0
ENDBLK
  5
218
100
AcDbEntity
  8
0
  6
BYBLOCK
 62
0
100
AcDbBlockEnd
  0
ENDSEC
  0
SECTION
  2
ENTITIES
  0
LINE
  5
219
100
AcDbEntity
  8
7
100
AcDbLine
 62
7
  6
BYLAYER
 10
158.6993568066
 20
1068.1689637035
 11
158.6993568066
 21
1082.4518205605
  0
LINE
  5
21A
100
AcDbEntity
  8
7
100
AcDbLine
 62
7
  6
BYLAYER
 10
160.1993568066
 20
1086.0225347748
 11
160.1993568066
 21
1064.5982494892
  0
LINE
  5
21B
100
AcDbEntity
  8
7
100
AcDbLine
 62
7
  6
BYLAYER
 10
170.6993568066
 20
1060.310392132
 11
170.6993568066
 21
1090.310392132
  0
LINE
  5
21C
100
AcDbEntity
  8
7
100
AcDbLine
 62
7
  6
BYLAYER
 10
173.6993568066
 20
1059.8104007493
 11
173.6993568066
 21
1090.8103835147
  0
LINE
  5
21D
100
AcDbEntity
  8
7
100
AcDbLine
 62
7
  6
BYLAYER
 10
174.6993568066
 20
1058.810392132
 11
174.6993568066
 21
1091.810392132
  0
LINE
  5
21E
100
AcDbEntity
  8
7
100
AcDbLine
 62
7
  6
BYLAYER
 10
175.6993568066
 20
1091.8102488269
 11
175.6993568066
 21
1058.8117169457
  0
LINE
  5
21F
100
AcDbEntity
  8
7
100
AcDbLine
 62
7
  6
BYLAYER
 10
178.6993568066
 20
1091.8102557436
 11
178.6993568066
 21
1058.8105285204
  0
LINE
  5
220
100
AcDbEntity
  8
7
100
AcDbLine
 62
7
  6
BYLAYER
 10
182.6993568066
 20
1091.810392132
 11
182.6993568066
 21
1058.810392132
  0
LINE
  5
221
100
AcDbEntity
  8
4
100
AcDbLine
 62
7
  6
BYLAYER
 10
183.6993568066
 20
894.277078046
 11
183.6993568066
 21
944.277078046
  0
LINE
  5
222
100
AcDbEntity
  8
7
100
AcDbLine
 62
7
  6
BYLAYER
 10
183.6993568066
 20
1050.310392132
 11
183.6993568066
 21
1100.310392132
  0
LINE
  5
223
100
AcDbEntity
  8
7
100
AcDbLine
 62
7
  6
BYLAYER
 10
201.1993568066
 20
1100.310392132
 11
201.1993568066
 21
1050.310392132
  0
LINE
  5
224
100
AcDbEntity
  8
4
100
AcDbLine
 62
7
  6
BYLAYER
 10
201.1993568066
 20
944.277078046
 11
201.1993568066
 21
894.277078046
  0
LINE
  5
225
100
AcDbEntity
  8
4
100
AcDbLine
 62
7
  6
BYLAYER
 10
236.8838927866
 20
884.0878573209
 11
236.8838927866
 21
894.277078046
  0
LINE
  5
226
100
AcDbEntity
  8
7
100
AcDbLine
 62
7
  6
BYLAYER
 10
236.8838927866
 20
1040.1211714069
 11
236.8838927866
 21
1050.310392132
  0
LINE
  5
227
100
AcDbEntity
  8
7
100
AcDbLine
 62
7
  6
BYLAYER
 10
173.6993568066
 20
1090.810392132
 11
174.6993568066
 21
1091.810392132
  0
LINE
  5
228
100
AcDbEntity
  8
7
100
AcDbLine
 62
7
  6
BYLAYER
 10
286.8838927866
 20
1050.310392132
 11
286.8838927866
 21
1040.1211714069
  0
LINE
  5
229
100
AcDbEntity
  8
4
100
AcDbLine
 62
7
  6
BYLAYER
 10
286.8838927866
 20
894.277078046
 11
286.8838927866
 21
884.0878573209
  0
LINE
  5
22A
100
AcDbEntity
  8
7
100
AcDbLine
 62
7
  6
BYLAYER
 10
173.6993568066
 20
1059.810392132
 11
174.6993568066
 21
1058.810392132
  0
LINE
  5
22B
100
AcDbEntity
  8
4
100
AcDbLine
 62
7
  6
BYLAYER
 10
236.8838927866
 20
884.0878573209
 11
286.8838927866
 21
884.0878573209
  0
LINE
  5
22C
100
AcDbEntity
  8
4
100
AcDbLine
 62
7
  6
BYLAYER
 10
714.4411479011
 20
884.0878573209
 11
764.4411479011
 21
884.0878573209
  0
LINE
  5
22D
100
AcDbEntity
  8
4
100
AcDbLine
 62
7
  6
BYLAYER
 10
1158.2775505833
 20
884.0878573209
 11
1208.2775505833
 21
884.0878573209
  0
LINE
  5
22E
100
AcDbEntity
  8
4
100
AcDbLine
 62
7
  6
BYLAYER
 10
1208.2775505833
 20
891.0878573209
 11
1158.2775505833
 21
891.0878573209
  0
LINE
  5
22F
100
AcDbEntity
  8
4
100
AcDbLine
 62
7
  6
BYLAYER
 10
764.4411479011
 20
891.0878573209
 11
714.4411479011
 21
891.0878573209
  0
LINE
  5
230
100
AcDbEntity
  8
4
100
AcDbLine
 62
7
  6
BYLAYER
 10
286.8838927866
 20
891.0878573209
 11
236.8838927866
 21
891.0878573209
  0
LINE
  5
231
100
AcDbEntity
  8
4
100
AcDbLine
 62
7
  6
BYLAYER
 10
183.6993568066
 20
894.277078046
 11
1257.1993568066
 21
894.277078046
  0
LINE
  5
232
100
AcDbEntity
  8
4
100
AcDbLine
 62
7
  6
BYLAYER
 10
1257.1993568066
 20
894.6618385695
 11
183.6993568066
 21
894.6618385695
  0
LINE
  5
233
100
AcDbEntity
  8
4
100
AcDbLine
 62
7
  6
BYLAYER
 10
183.6993568066
 20
895.8626329762
 11
1257.1993568066
 21
895.8626329762
  0
LINE
  5
234
100
AcDbEntity
  8
4
100
AcDbLine
 62
7
  6
BYLAYER
 10
183.6993568066
 20
897.7856808715
 11
1257.1993568066
 21
897.7856808715
  0
LINE
  5
235
100
AcDbEntity
  8
4
100
AcDbLine
 62
7
  6
BYLAYER
 10
183.6993568066
 20
898.0419906475
 11
201.1993568066
 21
898.0419906475
  0
LINE
  5
236
100
AcDbEntity
  8
4
100
AcDbLine
 62
7
  6
BYLAYER
 10
891.1993568066
 20
898.0419906475
 11
1257.1993568066
 21
898.0419906475
  0
LINE
  5
237
100
AcDbEntity
  8
4
100
AcDbLine
 62
7
  6
BYLAYER
 10
1257.1993568066
 20
899.8308450295
 11
183.6993568066
 21
899.8308450295
  0
LINE
  5
238
100
AcDbEntity
  8
4
100
AcDbLine
 62
7
  6
BYLAYER
 10
183.6993568066
 20
900.2252722205
 11
1257.1993568066
 21
900.2252722205
  0
LINE
  5
239
100
AcDbEntity
  8
4
100
AcDbLine
 62
7
  6
BYLAYER
 10
1239.6993568066
 20
900.2770780459
 11
183.6993568066
 21
900.278058625
  0
LINE
  5
23A
100
AcDbEntity
  8
4
100
AcDbLine
 62
7
  6
BYLAYER
 10
201.1993568066
 20
900.278058625
 11
1257.1993568066
 21
900.278058625
  0
LINE
  5
23B
100
AcDbEntity
  8
4
100
AcDbLine
 62
7
  6
BYLAYER
 10
1258.1993568066
 20
902.5242429286
 11
1257.1993568066
 21
902.5242429286
  0
LINE
  5
23C
100
AcDbEntity
  8
4
100
AcDbLine
 62
7
  6
BYLAYER
 10
1263.6993568066
 20
902.527078046
 11
1258.1993568066
 21
902.527078046
  0
LINE
  5
23D
100
AcDbEntity
  8
4
100
AcDbLine
 62
7
  6
BYLAYER
 10
1267.6993568066
 20
904.277078046
 11
1259.9993568066
 21
904.277078046
  0
LINE
  5
23E
100
AcDbEntity
  8
4
100
AcDbLine
 62
7
  6
BYLAYER
 10
1267.6993568066
 20
916.277078046
 11
1259.9993568066
 21
916.277078046
  0
LINE
  5
23F
100
AcDbEntity
  8
4
100
AcDbLine
 62
7
  6
BYLAYER
 10
1263.6993568066
 20
918.027078046
 11
1258.1993568066
 21
918.027078046
  0
LINE
  5
240
100
AcDbEntity
  8
4
100
AcDbLine
 62
7
  6
BYLAYER
 10
1258.1993568066
 20
918.0299131634
 11
1257.1993568066
 21
918.0299131634
  0
LINE
  5
241
100
AcDbEntity
  8
4
100
AcDbLine
 62
7
  6
BYLAYER
 10
1258.1993568066
 20
920.5242429286
 11
1257.1993568066
 21
920.5242429286
  0
LINE
  5
242
100
AcDbEntity
  8
4
100
AcDbLine
 62
7
  6
BYLAYER
 10
1263.6993568066
 20
920.527078046
 11
1258.1993568066
 21
920.527078046
  0
LINE
  5
243
100
AcDbEntity
  8
4
100
AcDbLine
 62
7
  6
BYLAYER
 10
1263.6993568066
 20
936.027078046
 11
1258.1993568066
 21
936.027078046
  0
LINE
  5
244
100
AcDbEntity
  8
4
100
AcDbLine
 62
7
  6
BYLAYER
 10
1258.1993568066
 20
936.0299131634
 11
1257.1993568066
 21
936.0299131634
  0
LINE
  5
245
100
AcDbEntity
  8
4
100
AcDbLine
 62
7
  6
BYLAYER
 10
1257.1993568066
 20
938.2760974669
 11
183.6993568066
 21
938.2760974669
  0
LINE
  5
246
100
AcDbEntity
  8
4
100
AcDbLine
 62
7
  6
BYLAYER
 10
741.1993568063
 20
938.2764811717
 11
1239.6993568066
 21
938.2770780459
  0
LINE
  5
247
100
AcDbEntity
  8
4
100
AcDbLine
 62
7
  6
BYLAYER
 10
1257.1993568066
 20
938.3288838714
 11
183.6993568066
 21
938.3288838714
  0
LINE
  5
248
100
AcDbEntity
  8
4
100
AcDbLine
 62
7
  6
BYLAYER
 10
183.6993568066
 20
938.7233110624
 11
1257.1993568066
 21
938.7233110624
  0
LINE
  5
249
100
AcDbEntity
  8
4
100
AcDbLine
 62
7
  6
BYLAYER
 10
183.6993568066
 20
940.5121654444
 11
1257.1993568066
 21
940.5121654444
  0
LINE
  5
24A
100
AcDbEntity
  8
4
100
AcDbLine
 62
7
  6
BYLAYER
 10
183.6993568066
 20
940.7684752204
 11
201.1993568066
 21
940.7684752204
  0
LINE
  5
24B
100
AcDbEntity
  8
4
100
AcDbLine
 62
7
  6
BYLAYER
 10
891.1993568066
 20
940.7684752204
 11
1257.1993568066
 21
940.7684752204
  0
LINE
  5
24C
100
AcDbEntity
  8
4
100
AcDbLine
 62
7
  6
BYLAYER
 10
1257.1993568066
 20
942.6915231157
 11
183.6993568066
 21
942.6915231157
  0
LINE
  5
24D
100
AcDbEntity
  8
4
100
AcDbLine
 62
7
  6
BYLAYER
 10
183.6993568066
 20
943.8923175224
 11
1257.1993568066
 21
943.8923175224
  0
LINE
  5
24E
100
AcDbEntity
  8
4
100
AcDbLine
 62
7
  6
BYLAYER
 10
1257.1993568066
 20
944.277078046
 11
183.6993568066
 21
944.277078046
  0
LINE
  5
24F
100
AcDbEntity
  8
4
100
AcDbLine
 62
7
  6
BYLAYER
 10
714.4411479011
 20
884.0878573209
 11
714.4411479011
 21
894.277078046
  0
LINE
  5
250
100
AcDbEntity
  8
7
100
AcDbLine
 62
7
  6
BYLAYER
 10
714.4411479011
 20
1040.1211714069
 11
714.4411479011
 21
1050.310392132
  0
LINE
  5
251
100
AcDbEntity
  8
7
100
AcDbLine
 62
7
  6
BYLAYER
 10
764.4411479011
 20
1050.310392132
 11
764.4411479011
 21
1040.1211714069
  0
LINE
  5
252
100
AcDbEntity
  8
4
100
AcDbLine
 62
7
  6
BYLAYER
 10
764.4411479011
 20
894.277078046
 11
764.4411479011
 21
884.0878573209
  0
LINE
  5
253
100
AcDbEntity
  8
7
100
AcDbLine
 62
7
  6
BYLAYER
 10
236.8838927866
 20
1040.1211714069
 11
286.8838927866
 21
1040.1211714069
  0
LINE
  5
254
100
AcDbEntity
  8
7
100
AcDbLine
 62
7
  6
BYLAYER
 10
714.4411479011
 20
1040.1211714069
 11
764.4411479011
 21
1040.1211714069
  0
LINE
  5
255
100
AcDbEntity
  8
7
100
AcDbLine
 62
7
  6
BYLAYER
 10
1158.2775505833
 20
1040.1211714069
 11
1208.2775505833
 21
1040.1211714069
  0
LINE
  5
256
100
AcDbEntity
  8
7
100
AcDbLine
 62
7
  6
BYLAYER
 10
1208.2775505833
 20
1047.1211714069
 11
1158.2775505833
 21
1047.1211714069
  0
LINE
  5
257
100
AcDbEntity
  8
7
100
AcDbLine
 62
7
  6
BYLAYER
 10
764.4411479011
 20
1047.1211714069
 11
714.4411479011
 21
1047.1211714069
  0
LINE
  5
258
100
AcDbEntity
  8
7
100
AcDbLine
 62
7
  6
BYLAYER
 10
286.8838927866
 20
1047.1211714069
 11
236.8838927866
 21
1047.1211714069
  0
LINE
  5
259
100
AcDbEntity
  8
7
100
AcDbLine
 62
7
  6
BYLAYER
 10
183.6993568066
 20
1050.310392132
 11
1257.1993568066
 21
1050.310392132
  0
LINE
  5
25A
100
AcDbEntity
  8
7
100
AcDbLine
 62
7
  6
BYLAYER
 10
1257.1993568066
 20
1050.6951526555
 11
183.6993568066
 21
1050.6951526555
  0
LINE
  5
25B
100
AcDbEntity
  8
7
100
AcDbLine
 62
7
  6
BYLAYER
 10
183.6993568066
 20
1051.8959470622
 11
1257.1993568066
 21
1051.8959470622
  0
LINE
  5
25C
100
AcDbEntity
  8
7
100
AcDbLine
 62
7
  6
BYLAYER
 10
183.6993568066
 20
1053.8189949575
 11
1257.1993568066
 21
1053.8189949575
  0
LINE
  5
25D
100
AcDbEntity
  8
7
100
AcDbLine
 62
7
  6
BYLAYER
 10
183.6993568066
 20
1054.0753047335
 11
201.1993568066
 21
1054.0753047335
  0
LINE
  5
25E
100
AcDbEntity
  8
7
100
AcDbLine
 62
7
  6
BYLAYER
 10
891.1993568066
 20
1054.0753047335
 11
1257.1993568066
 21
1054.0753047335
  0
LINE
  5
25F
100
AcDbEntity
  8
7
100
AcDbLine
 62
7
  6
BYLAYER
 10
1257.1993568066
 20
1055.8641591155
 11
183.6993568066
 21
1055.8641591155
  0
LINE
  5
260
100
AcDbEntity
  8
7
100
AcDbLine
 62
7
  6
BYLAYER
 10
183.6993568066
 20
1056.2585863065
 11
1257.1993568066
 21
1056.2585863065
  0
LINE
  5
261
100
AcDbEntity
  8
7
100
AcDbLine
 62
7
  6
BYLAYER
 10
1239.6993568066
 20
1056.310392132
 11
183.6993568066
 21
1056.311372711
  0
LINE
  5
262
100
AcDbEntity
  8
7
100
AcDbLine
 62
7
  6
BYLAYER
 10
201.1993568066
 20
1056.311372711
 11
1257.1993568066
 21
1056.311372711
  0
LINE
  5
263
100
AcDbEntity
  8
7
100
AcDbLine
 62
7
  6
BYLAYER
 10
1258.1993568066
 20
1058.5575570146
 11
1257.1993568066
 21
1058.5575570146
  0
LINE
  5
264
100
AcDbEntity
  8
7
100
AcDbLine
 62
7
  6
BYLAYER
 10
1263.6993568066
 20
1058.560392132
 11
1258.1993568066
 21
1058.560392132
  0
LINE
  5
265
100
AcDbEntity
  8
7
100
AcDbLine
 62
7
  6
BYLAYER
 10
174.6993568066
 20
1058.810392132
 11
182.6993568066
 21
1058.810392132
  0
LINE
  5
266
100
AcDbEntity
  8
7
100
AcDbLine
 62
7
  6
BYLAYER
 10
1267.6993568066
 20
1060.310392132
 11
1259.9993568066
 21
1060.310392132
  0
LINE
  5
267
100
AcDbEntity
  8
7
100
AcDbLine
 62
7
  6
BYLAYER
 10
170.6993568066
 20
1060.310392132
 11
173.6993568066
 21
1060.310392132
  0
LINE
  5
268
100
AcDbEntity
  8
7
100
AcDbLine
 62
7
  6
BYLAYER
 10
1267.6993568066
 20
1072.310392132
 11
1259.9993568066
 21
1072.310392132
  0
LINE
  5
269
100
AcDbEntity
  8
7
100
AcDbLine
 62
7
  6
BYLAYER
 10
1263.6993568066
 20
1074.060392132
 11
1258.1993568066
 21
1074.060392132
  0
LINE
  5
26A
100
AcDbEntity
  8
7
100
AcDbLine
 62
7
  6
BYLAYER
 10
1258.1993568066
 20
1074.0632272494
 11
1257.1993568066
 21
1074.0632272494
  0
LINE
  5
26B
100
AcDbEntity
  8
7
100
AcDbLine
 62
7
  6
BYLAYER
 10
1259.9993568066
 20
1076.5575570146
 11
1258.9993568066
 21
1076.5575570146
  0
LINE
  5
26C
100
AcDbEntity
  8
7
100
AcDbLine
 62
7
  6
BYLAYER
 10
1258.1993568066
 20
1076.5575570146
 11
1257.1993568066
 21
1076.5575570146
  0
LINE
  5
26D
100
AcDbEntity
  8
7
100
AcDbLine
 62
7
  6
BYLAYER
 10
1265.4993568066
 20
1076.560392132
 11
1259.9993568066
 21
1076.560392132
  0
LINE
  5
26E
100
AcDbEntity
  8
7
100
AcDbLine
 62
7
  6
BYLAYER
 10
1258.9993568066
 20
1076.560392132
 11
1258.1993568066
 21
1076.560392132
  0
LINE
  5
26F
100
AcDbEntity
  8
7
100
AcDbLine
 62
7
  6
BYLAYER
 10
170.6993568066
 20
1090.310392132
 11
173.6993568066
 21
1090.310392132
  0
LINE
  5
270
100
AcDbEntity
  8
7
100
AcDbLine
 62
7
  6
BYLAYER
 10
174.6993568066
 20
1091.810392132
 11
182.6993568066
 21
1091.810392132
  0
LINE
  5
271
100
AcDbEntity
  8
7
100
AcDbLine
 62
7
  6
BYLAYER
 10
1265.4993568066
 20
1092.060392132
 11
1259.9993568066
 21
1092.060392132
  0
LINE
  5
272
100
AcDbEntity
  8
7
100
AcDbLine
 62
7
  6
BYLAYER
 10
1258.9993568066
 20
1092.060392132
 11
1258.1993568066
 21
1092.060392132
  0
LINE
  5
273
100
AcDbEntity
  8
7
100
AcDbLine
 62
7
  6
BYLAYER
 10
1259.9993568066
 20
1092.0632272494
 11
1258.9993568066
 21
1092.0632272494
  0
LINE
  5
274
100
AcDbEntity
  8
7
100
AcDbLine
 62
7
  6
BYLAYER
 10
1258.1993568066
 20
1092.0632272494
 11
1257.1993568066
 21
1092.0632272494
  0
LINE
  5
275
100
AcDbEntity
  8
7
100
AcDbLine
 62
7
  6
BYLAYER
 10
183.6993568066
 20
1094.3094115529
 11
1257.1993568066
 21
1094.3094115529
  0
LINE
  5
276
100
AcDbEntity
  8
7
100
AcDbLine
 62
7
  6
BYLAYER
 10
201.1993568066
 20
1094.3094115529
 11
1239.6993568066
 21
1094.310392132
  0
LINE
  5
277
100
AcDbEntity
  8
7
100
AcDbLine
 62
7
  6
BYLAYER
 10
1257.1993568066
 20
1094.3621979574
 11
183.6993568066
 21
1094.3621979574
  0
LINE
  5
278
100
AcDbEntity
  8
7
100
AcDbLine
 62
7
  6
BYLAYER
 10
183.6993568066
 20
1094.7566251484
 11
1257.1993568066
 21
1094.7566251484
  0
LINE
  5
279
100
AcDbEntity
  8
7
100
AcDbLine
 62
7
  6
BYLAYER
 10
183.6993568066
 20
1096.5454795304
 11
1257.1993568066
 21
1096.5454795304
  0
LINE
  5
27A
100
AcDbEntity
  8
7
100
AcDbLine
 62
7
  6
BYLAYER
 10
183.6993568066
 20
1096.8017893064
 11
201.1993568066
 21
1096.8017893064
  0
LINE
  5
27B
100
AcDbEntity
  8
7
100
AcDbLine
 62
7
  6
BYLAYER
 10
891.1993568066
 20
1096.8017893064
 11
1257.1993568066
 21
1096.8017893064
  0
LINE
  5
27C
100
AcDbEntity
  8
7
100
AcDbLine
 62
7
  6
BYLAYER
 10
1257.1993568066
 20
1098.7248372017
 11
183.6993568066
 21
1098.7248372017
  0
LINE
  5
27D
100
AcDbEntity
  8
7
100
AcDbLine
 62
7
  6
BYLAYER
 10
183.6993568066
 20
1099.9256316084
 11
1257.1993568066
 21
1099.9256316084
  0
LINE
  5
27E
100
AcDbEntity
  8
7
100
AcDbLine
 62
7
  6
BYLAYER
 10
1257.1993568066
 20
1100.310392132
 11
183.6993568066
 21
1100.310392132
  0
LINE
  5
27F
100
AcDbEntity
  8
7
100
AcDbLine
 62
7
  6
BYLAYER
 10
891.1993568066
 20
1098.7248372017
 11
891.1993568066
 21
1096.5454795304
  0
LINE
  5
280
100
AcDbEntity
  8
7
100
AcDbLine
 62
7
  6
BYLAYER
 10
891.1993568066
 20
1055.8641591155
 11
891.1993568066
 21
1053.8189949575
  0
LINE
  5
281
100
AcDbEntity
  8
4
100
AcDbLine
 62
7
  6
BYLAYER
 10
891.1993568066
 20
942.6915231157
 11
891.1993568066
 21
940.5121654444
  0
LINE
  5
282
100
AcDbEntity
  8
4
100
AcDbLine
 62
7
  6
BYLAYER
 10
891.1993568066
 20
899.8308450295
 11
891.1993568066
 21
897.7856808715
  0
LINE
  5
283
100
AcDbEntity
  8
4
100
AcDbLine
 62
7
  6
BYLAYER
 10
1158.2775505833
 20
884.0878573209
 11
1158.2775505833
 21
894.277078046
  0
LINE
  5
284
100
AcDbEntity
  8
7
100
AcDbLine
 62
7
  6
BYLAYER
 10
1158.2775505833
 20
1040.1211714069
 11
1158.2775505833
 21
1050.310392132
  0
LINE
  5
285
100
AcDbEntity
  8
7
100
AcDbLine
 62
7
  6
BYLAYER
 10
1208.2775505833
 20
1050.310392132
 11
1208.2775505833
 21
1040.1211714069
  0
LINE
  5
286
100
AcDbEntity
  8
4
100
AcDbLine
 62
7
  6
BYLAYER
 10
1208.2775505833
 20
894.277078046
 11
1208.2775505833
 21
884.0878573209
  0
LINE
  5
287
100
AcDbEntity
  8
7
100
AcDbLine
 62
7
  6
BYLAYER
 10
1239.6993568066
 20
1100.310392132
 11
1239.6993568066
 21
1050.310392132
  0
LINE
  5
288
100
AcDbEntity
  8
4
100
AcDbLine
 62
7
  6
BYLAYER
 10
1239.6993568066
 20
944.277078046
 11
1239.6993568066
 21
894.277078046
  0
LINE
  5
289
100
AcDbEntity
  8
7
100
AcDbLine
 62
7
  6
BYLAYER
 10
1257.1993568066
 20
1100.310392132
 11
1257.1993568066
 21
1050.310392132
  0
LINE
  5
28A
100
AcDbEntity
  8
4
100
AcDbLine
 62
7
  6
BYLAYER
 10
1257.1993568066
 20
944.277078046
 11
1257.1993568066
 21
894.277078046
  0
LINE
  5
28B
100
AcDbEntity
  8
7
100
AcDbLine
 62
7
  6
BYLAYER
 10
1258.1993568066
 20
1092.063160505
 11
1258.1993568066
 21
1076.5576237591
  0
LINE
  5
28C
100
AcDbEntity
  8
4
100
AcDbLine
 62
7
  6
BYLAYER
 10
1258.1993568066
 20
936.029846419
 11
1258.1993568066
 21
920.524309673
  0
LINE
  5
28D
100
AcDbEntity
  8
4
100
AcDbLine
 62
7
  6
BYLAYER
 10
1258.1993568066
 20
902.5271449182
 11
1258.1993568066
 21
918.0270111738
  0
LINE
  5
28E
100
AcDbEntity
  8
7
100
AcDbLine
 62
7
  6
BYLAYER
 10
1258.1993568066
 20
1058.5604590042
 11
1258.1993568066
 21
1074.0603252598
  0
LINE
  5
28F
100
AcDbEntity
  8
7
100
AcDbLine
 62
7
  6
BYLAYER
 10
1258.9993568066
 20
1076.5576237591
 11
1258.9993568066
 21
1092.063160505
  0
LINE
  5
290
100
AcDbEntity
  8
7
100
AcDbLine
 62
7
  6
BYLAYER
 10
1259.9993568066
 20
1092.063160505
 11
1259.9993568066
 21
1076.5576237591
  0
LINE
  5
291
100
AcDbEntity
  8
7
100
AcDbLine
 62
7
  6
BYLAYER
 10
1259.9993568066
 20
1074.0603252598
 11
1259.9993568066
 21
1058.5604590042
  0
LINE
  5
292
100
AcDbEntity
  8
4
100
AcDbLine
 62
7
  6
BYLAYER
 10
1259.9993568066
 20
918.0270111738
 11
1259.9993568066
 21
902.5271449182
  0
LINE
  5
293
100
AcDbEntity
  8
7
100
AcDbLine
 62
7
  6
BYLAYER
 10
1263.6993568066
 20
1074.060392132
 11
1263.6993568066
 21
1072.310392132
  0
LINE
  5
294
100
AcDbEntity
  8
7
100
AcDbLine
 62
7
  6
BYLAYER
 10
1263.6993568066
 20
1060.310392132
 11
1263.6993568066
 21
1058.560392132
  0
LINE
  5
295
100
AcDbEntity
  8
4
100
AcDbLine
 62
7
  6
BYLAYER
 10
1263.6993568066
 20
936.027078046
 11
1263.6993568066
 21
920.527078046
  0
LINE
  5
296
100
AcDbEntity
  8
4
100
AcDbLine
 62
7
  6
BYLAYER
 10
1263.6993568066
 20
918.027078046
 11
1263.6993568066
 21
916.277078046
  0
LINE
  5
297
100
AcDbEntity
  8
4
100
AcDbLine
 62
7
  6
BYLAYER
 10
1263.6993568066
 20
904.277078046
 11
1263.6993568066
 21
902.527078046
  0
LINE
  5
298
100
AcDbEntity
  8
7
100
AcDbLine
 62
7
  6
BYLAYER
 10
1264.6993568066
 20
1073.0603884014
 11
1264.6993568066
 21
1072.310392132
  0
LINE
  5
299
100
AcDbEntity
  8
7
100
AcDbLine
 62
7
  6
BYLAYER
 10
1264.6993568066
 20
1060.310392132
 11
1264.6993568066
 21
1059.5603958626
  0
LINE
  5
29A
100
AcDbEntity
  8
4
100
AcDbLine
 62
7
  6
BYLAYER
 10
1264.6993568066
 20
935.0270743154
 11
1264.6993568066
 21
921.5270817766
  0
LINE
  5
29B
100
AcDbEntity
  8
4
100
AcDbLine
 62
7
  6
BYLAYER
 10
1264.6993568066
 20
917.0270743154
 11
1264.6993568066
 21
916.277078046
  0
LINE
  5
29C
100
AcDbEntity
  8
4
100
AcDbLine
 62
7
  6
BYLAYER
 10
1264.6993568066
 20
904.277078046
 11
1264.6993568066
 21
903.5270817766
  0
LINE
  5
29D
100
AcDbEntity
  8
4
100
AcDbLine
 62
7
  6
BYLAYER
 10
1265.1993568066
 20
931.2770739112
 11
1265.1993568066
 21
925.2770821808
  0
LINE
  5
29E
100
AcDbEntity
  8
7
100
AcDbLine
 62
7
  6
BYLAYER
 10
1265.4993568066
 20
1092.060392132
 11
1265.4993568066
 21
1076.560392132
  0
LINE
  5
29F
100
AcDbEntity
  8
7
100
AcDbLine
 62
7
  6
BYLAYER
 10
1266.4993568066
 20
1091.0603884014
 11
1266.4993568066
 21
1077.5603958626
  0
LINE
  5
2A0
100
AcDbEntity
  8
7
100
AcDbLine
 62
7
  6
BYLAYER
 10
1266.9993568066
 20
1087.3103879972
 11
1266.9993568066
 21
1081.3103962668
  0
LINE
  5
2A1
100
AcDbEntity
  8
7
100
AcDbLine
 62
7
  6
BYLAYER
 10
1267.6993568066
 20
1072.310392132
 11
1267.6993568066
 21
1060.310392132
  0
LINE
  5
2A2
100
AcDbEntity
  8
4
100
AcDbLine
 62
7
  6
BYLAYER
 10
1267.6993568066
 20
916.277078046
 11
1267.6993568066
 21
904.277078046
  0
LINE
  5
2A3
100
AcDbEntity
  8
7
100
AcDbLine
 62
7
  6
BYLAYER
 10
1268.6993568066
 20
1071.310386635
 11
1268.6993568066
 21
1061.310392132
  0
LINE
  5
2A4
100
AcDbEntity
  8
4
100
AcDbLine
 62
7
  6
BYLAYER
 10
1268.6993568066
 20
915.277072549
 11
1268.6993568066
 21
905.277078046
  0
ARC
  5
2A5
100
AcDbEntity
  8
7
100
AcDbCircle
 62
7
  6
BYLAYER
 10
170.6993568066
 20
1075.310392132
 40
15.0
100
AcDbArc
 50
90.0
 51
134.4270040008
  0
ARC
  5
2A6
100
AcDbEntity
  8
7
100
AcDbCircle
 62
7
  6
BYLAYER
 10
170.6993568066
 20
1075.310392132
 40
15.0
100
AcDbArc
 50
225.5729959992
 51
270.0
  0
ARC
  5
2A7
100
AcDbEntity
  8
7
100
AcDbCircle
 62
7
  6
BYLAYER
 10
163.6993568066
 20
1068.1689637035
 40
5.0
100
AcDbArc
 50
180.0
 51
225.5729959992
  0
ARC
  5
2A8
100
AcDbEntity
  8
7
100
AcDbCircle
 62
7
  6
BYLAYER
 10
163.6993568066
 20
1082.4518205605
 40
5.0
100
AcDbArc
 50
134.4270040008
 51
180.0
  0
ARC
  5
2A9
100
AcDbEntity
  8
4
100
AcDbCircle
 62
7
  6
BYLAYER
 10
1264.1993568066
 20
931.277078046
 40
1.0
100
AcDbArc
 50
0.0
 51
59.5436135107
  0
ARC
  5
2AA
100
AcDbEntity
  8
4
100
AcDbCircle
 62
7
  6
BYLAYER
 10
1264.1993568066
 20
925.277078046
 40
1.0
100
AcDbArc
 50
300.4563864893
 51
360.0
  0
ARC
  5
2AB
100
AcDbEntity
  8
4
100
AcDbCircle
 62
7
  6
BYLAYER
 10
1263.6993568066
 20
935.027078046
 40
1.0
100
AcDbArc
 50
0.0
 51
90.0
  0
ARC
  5
2AC
100
AcDbEntity
  8
4
100
AcDbCircle
 62
7
  6
BYLAYER
 10
1263.6993568066
 20
921.527078046
 40
1.0
100
AcDbArc
 50
270.0
 51
360.0
  0
ARC
  5
2AD
100
AcDbEntity
  8
4
100
AcDbCircle
 62
7
  6
BYLAYER
 10
1263.6993568066
 20
917.027078046
 40
1.0
100
AcDbArc
 50
0.0
 51
90.0
  0
ARC
  5
2AE
100
AcDbEntity
  8
4
100
AcDbCircle
 62
7
  6
BYLAYER
 10
1263.6993568066
 20
903.527078046
 40
1.0
100
AcDbArc
 50
270.0
 51
360.0
  0
ARC
  5
2AF
100
AcDbEntity
  8
7
100
AcDbCircle
 62
7
  6
BYLAYER
 10
1263.6993568066
 20
1073.060392132
 40
1.0
100
AcDbArc
 50
0.0
 51
90.0
  0
ARC
  5
2B0
100
AcDbEntity
  8
7
100
AcDbCircle
 62
7
  6
BYLAYER
 10
1263.6993568066
 20
1059.560392132
 40
1.0
100
AcDbArc
 50
270.0
 51
360.0
  0
ARC
  5
2B1
100
AcDbEntity
  8
7
100
AcDbCircle
 62
7
  6
BYLAYER
 10
1265.9993568066
 20
1087.310392132
 40
1.0
100
AcDbArc
 50
0.0
 51
59.5436135107
  0
ARC
  5
2B2
100
AcDbEntity
  8
7
100
AcDbCircle
 62
7
  6
BYLAYER
 10
1265.9993568066
 20
1081.310392132
 40
1.0
100
AcDbArc
 50
300.4563864893
 51
360.0
  0
ARC
  5
2B3
100
AcDbEntity
  8
7
100
AcDbCircle
 62
7
  6
BYLAYER
 10
1265.4993568066
 20
1091.060392132
 40
1.0
100
AcDbArc
 50
0.0
 51
90.0
  0
ARC
  5
2B4
100
AcDbEntity
  8
7
100
AcDbCircle
 62
7
  6
BYLAYER
 10
1265.4993568066
 20
1077.560392132
 40
1.0
100
AcDbArc
 50
270.0
 51
360.0
  0
ARC
  5
2B5
100
AcDbEntity
  8
7
100
AcDbCircle
 62
7
  6
BYLAYER
 10
1267.6993568066
 20
1061.310392132
 40
1.0
100
AcDbArc
 50
270.0
 51
360.0
  0
ARC
  5
2B6
100
AcDbEntity
  8
7
100
AcDbCircle
 62
7
  6
BYLAYER
 10
1267.6993568066
 20
1071.310392132
 40
1.0
100
AcDbArc
 50
0.0
 51
90.0
  0
ARC
  5
2B7
100
AcDbEntity
  8
4
100
AcDbCircle
 62
7
  6
BYLAYER
 10
1267.6993568066
 20
905.277078046
 40
1.0
100
AcDbArc
 50
270.0
 51
360.0
  0
ARC
  5
2B8
100
AcDbEntity
  8
4
100
AcDbCircle
 62
7
  6
BYLAYER
 10
1267.6993568066
 20
915.277078046
 40
1.0
100
AcDbArc
 50
0.0
 51
90.0
  0
ARC
  5
2B9
100
AcDbEntity
  8
7
100
AcDbCircle
 62
7
  6
BYLAYER
 10
182.6993568066
 20
1057.810392132
 40
1.0
100
AcDbArc
 50
0.0
 51
90.0
  0
ARC
  5
2BA
100
AcDbEntity
  8
7
100
AcDbCircle
 62
7
  6
BYLAYER
 10
182.6993568066
 20
1092.810392132
 40
1.0
100
AcDbArc
 50
270.0
 51
360.0
  0
ENDSEC
  0
SECTION
  2
OBJECTS
  0
DICTIONARY
  5
C
100
AcDbDictionary
280
0
281
1
  3
ACAD_GROUP
350
D
  3
ACAD_MLINESTYLE
350
17
  3
ACAD_LAYOUT
350
1A
  3
ACAD_PLOTSETTINGS
350
19
  3
ACAD_PLOTSTYLENAME
350
E
  0
DICTIONARY
  5
D
102
{ACAD_REACTORS
330
C
102
}
100
AcDbDictionary
280
0
281
1
  0
ACDBDICTIONARYWDFLT
  5
E
102
{ACAD_REACTORS
330
C
102
}
100
AcDbDictionary
281
1
  3
Normal
350
F
100
AcDbDictionaryWithDefault
340
F
  0
DICTIONARY
  5
17
102
{ACAD_REACTORS
330
C
102
}
100
AcDbDictionary
280
0
281
1
  3
Standard
350
18
  0
DICTIONARY
  5
19
102
{ACAD_REACTORS
330
C
102
}
100
AcDbDictionary
281
1
  0
DICTIONARY
  5
1A
102
{ACAD_REACTORS
330
C
102
}
100
AcDbDictionary
281
1
  3
Model
350
2BB
  3
Layout1
350
2BC
  0
ACDBPLACEHOLDER
  5
F
102
{ACAD_REACTORS
330
E
102
}
  0
MLINESTYLE
  5
18
102
{ACAD_REACTORS
330
17
102
}
100
AcDbMlineStyle
  2
STANDARD
 70
0
  3

 62
256
 51
90.0
 52
90.0
 71
2
 49
0.5
 62
256
  6
BYLAYER
 49
-0.5
 62
256
  6
BYLAYER
  0
LAYOUT
  5
2BB
102
{ACAD_REACTORS
330
1A
102
}
100
AcDbPlotSettings
  1

  2
none_device
  4

  6

 40
0.0
 41
0.0
 42
0.0
 43
0.0
 44
210.0
 45
297.0
 46
0.0
 47
0.0
 48
0.0
 49
0.0
140
0.0
141
0.0
142
1.0
143
1.0
 70
1024
 72
1
 73
0
 74
0
  7

 75
0
147
1.0
148
0.0
149
0.0
100
AcDbLayout
  1
Model
 70
0
 71
0
 10
0.0
 20
0.0
 11
210.0
 21
297.0
 12
0.0
 22
0.0
 32
0.0
 14
0.0
 24
0.0
 34
0.0
 15
0.0
 25
0.0
 35
0.0
146
0.0
 13
0.0
 23
0.0
 33
0.0
 16
1.0
 26
0.0
 36
0.0
 17
0.0
 27
1.0
 37
0.0
 76
0
330
212
345
0
346
0
  0
LAYOUT
  5
2BC
102
{ACAD_REACTORS
330
1A
102
}
100
AcDbPlotSettings
  1

  2
none_device
  4

  6

 40
0.0
 41
0.0
 42
0.0
 43
0.0
 44
210.0
 45
297.0
 46
0.0
 47
0.0
 48
0.0
 49
0.0
140
0.0
141
0.0
142
1.0
143
1.0
 70
0
 72
1
 73
0
 74
0
  7

 75
0
147
1.0
148
0.0
149
0.0
100
AcDbLayout
  1
Layout1
 70
0
 71
1
 10
0.0
 20
0.0
 11
210.0
 21
297.0
 12
0.0
 22
0.0
 32
0.0
 14
0.0
 24
0.0
 34
0.0
 15
0.0
 25
0.0
 35
0.0
146
0.0
 13
0.0
 23
0.0
 33
0.0
 16
1.0
 26
0.0
 36
0.0
 17
0.0
 27
1.0
 37
0.0
 76
0
330
213
345
0
346
0
  0
ENDSEC
  0
EOF
