999
DXF file: C:\Users\sesa63760\Dev\_Creo\CAD\MCADPD0004093_3D-CAD\drw0001_5.dxf
999
Pro/ENGINEER 2019471 by Parametric Technology Corporation
  0
SECTION
  2
HEADER
  9
$ACADVER
  1
AC1024
  9
$DWGCODEPAGE
  3
ANSI_1252
  9
$EXTMAX
 10
89.4329218107
 20
126.4837037037
 30
0.0
  9
$EXTMIN
 10
0.0
 20
0.0
 30
0.0
  9
$LIMMIN
 10
0.0
 20
0.0
  9
$LIMMAX
 10
89.4329218107
 20
126.4837037037
  9
$VIEWCTR
 10
44.7164609053
 20
63.2418518519
  9
$VIEWSIZE
 40
126.4837037037
  9
$CLAYER
  8
0
  9
$LTSCALE
 40
8.2448636488
  9
$CELTYPE
  6
BYLAYER
  9
$DIMSCALE
 40
1.0
  9
$DIMASZ
 40
1.0646776406
  9
$DIMEXO
 40
1.0
  9
$DIMDLI
 40
5.6964512483
  9
$DIMEXE
 40
1.0
  9
$DIMCEN
 40
1.3491595062
  9
$DIMLFAC
 40
1.0
  9
$DIMBLK
  1
_FILLED
  9
$DIMALT
 70
0
  9
$DIMALTF
 40
0.0393700787
  9
$DIMTXT
 40
1.4905486968
  9
$DIMTOL
 70
1
  9
$DIMLIM
 70
0
  9
$DIMTFAC
 40
1.0
  9
$DIMTP
 40
0.01
  9
$DIMTM
 40
0.01
  9
$DIMGAP
 40
0.625
  9
$DIMDSEP
 70
46
  9
$AUNITS
 70
0
  9
$PDMODE
 70
3
  9
$PDSIZE
 40
0.3125
  9
$HANDSEED
  5
2B6
  9
$TILEMODE
 70
1
  9
$MEASUREMENT
 70
1
  9
$INSUNITS
 70
4
  0
ENDSEC
  0
SECTION
  2
CLASSES
  0
CLASS
  1
ACDBDICTIONARYWDFLT
  2
AcDbDictionaryWithDefault
  3
AutoCAD 2000
 90
0
 91
1
280
0
281
0
  0
CLASS
  1
ACDBPLACEHOLDER
  2
AcDbPlaceHolder
  3
AutoCAD 2000
 90
0
 91
1
280
0
281
0
  0
CLASS
  1
LAYOUT
  2
AcDbLayout
  3
AutoCAD 2000
 90
0
 91
0
280
0
281
0
  0
ENDSEC
  0
SECTION
  2
TABLES
  0
TABLE
  2
VPORT
  5
8
100
AcDbSymbolTable
 70
2
  0
VPORT
  5
1F4
100
AcDbSymbolTableRecord
100
AcDbViewportTableRecord
  2
*ACTIVE
 70
0
 10
0.0
 20
0.0
 11
1.0
 21
1.0
 12
44.7164609053
 22
63.2418518519
 13
0.0
 23
0.0
 14
1.0
 24
1.0
 15
0.0
 25
0.0
 16
0.0
 26
0.0
 36
1.0
 17
0.0
 27
0.0
 37
0.0
 40
126.4837037037
 41
0.7070707071
 42
50.0
 43
0.0
 44
0.0
 50
0.0
 51
0.0
 71
0
 72
100
 73
1
 74
1
 75
0
 76
0
 77
0
 78
0
  0
ENDTAB
  0
TABLE
  2
LTYPE
  5
5
100
AcDbSymbolTable
 70
6
  0
LTYPE
  5
14
100
AcDbSymbolTableRecord
100
AcDbLinetypeTableRecord
  2
BYBLOCK
 70
0
  3

 72
65
 73
0
 40
0.0
  0
LTYPE
  5
15
100
AcDbSymbolTableRecord
100
AcDbLinetypeTableRecord
  2
BYLAYER
 70
0
  3

 72
65
 73
0
 40
0.0
  0
LTYPE
  5
16
100
AcDbSymbolTableRecord
100
AcDbLinetypeTableRecord
  2
CONTINUOUS
 70
64
  3
Solid line
 72
65
 73
0
 40
0.0
  0
LTYPE
  5
1F5
100
AcDbSymbolTableRecord
100
AcDbLinetypeTableRecord
  2
CENTER
 70
64
  3
____ _ ____ _ ____ _ ____ _ ____ _ ____ _ ____
 72
65
 73
4
 40
0.6
 49
0.375
 74
0
 49
-0.075
 74
0
 49
0.075
 74
0
 49
-0.075
 74
0
  0
LTYPE
  5
1F6
100
AcDbSymbolTableRecord
100
AcDbLinetypeTableRecord
  2
HIDDEN
 70
64
  3
- - - - - - - - - - - - - - - - - - - -
 72
65
 73
2
 40
0.2
 49
0.1
 74
0
 49
-0.1
 74
0
  0
LTYPE
  5
1F7
100
AcDbSymbolTableRecord
100
AcDbLinetypeTableRecord
  2
PHANTOM
 70
64
  3
_____ _ _ _____ _ _ _____ _ _ _____
 72
65
 73
6
 40
0.8
 49
0.45
 74
0
 49
-0.05
 74
0
 49
0.1
 74
0
 49
-0.05
 74
0
 49
0.1
 74
0
 49
-0.05
 74
0
  0
LTYPE
  5
1F8
100
AcDbSymbolTableRecord
100
AcDbLinetypeTableRecord
  2
DOT
 70
64
  3
. . . . . . . . . . . . . . . . . . . .
 72
65
 73
2
 40
0.2
 49
0.1
 74
0
 49
-0.1
 74
0
  0
LTYPE
  5
1F9
100
AcDbSymbolTableRecord
100
AcDbLinetypeTableRecord
  2
DASHED
 70
64
  3
- - - - - - - - - - - - - - - - - - - -
 72
65
 73
2
 40
0.2
 49
0.1
 74
0
 49
-0.1
 74
0
  0
ENDTAB
  0
TABLE
  2
LAYER
  5
2
100
AcDbSymbolTable
 70
36
  0
LAYER
  5
10
100
AcDbSymbolTableRecord
100
AcDbLayerTableRecord
  2
0
 70
0
 62
7
  6
CONTINUOUS
370
-3
390
F
  0
LAYER
  5
1FA
100
AcDbSymbolTableRecord
100
AcDbLayerTableRecord
  2
DEFAULT_1
 70
0
 62
7
  6
CENTER
370
-3
390
F
  0
LAYER
  5
1FB
100
AcDbSymbolTableRecord
100
AcDbLayerTableRecord
  2
DEFAULT_2
 70
0
 62
7
  6
HIDDEN
370
-3
390
F
  0
LAYER
  5
1FC
100
AcDbSymbolTableRecord
100
AcDbLayerTableRecord
  2
DEFAULT_3
 70
0
 62
7
  6
PHANTOM
370
-3
390
F
  0
LAYER
  5
1FD
100
AcDbSymbolTableRecord
100
AcDbLayerTableRecord
  2
00_COMPONENTS
 70
0
 62
7
  6
CONTINUOUS
370
-3
390
F
  0
LAYER
  5
1FE
100
AcDbSymbolTableRecord
100
AcDbLayerTableRecord
  2
01_1_DEFAULT_DATUMS
 70
0
 62
7
  6
CONTINUOUS
370
-3
390
F
  0
LAYER
  5
1FF
100
AcDbSymbolTableRecord
100
AcDbLayerTableRecord
  2
01_PLANES
 70
0
 62
7
  6
CONTINUOUS
370
-3
390
F
  0
LAYER
  5
200
100
AcDbSymbolTableRecord
100
AcDbLayerTableRecord
  2
02_COORD_SYS
 70
0
 62
7
  6
CONTINUOUS
370
-3
390
F
  0
LAYER
  5
201
100
AcDbSymbolTableRecord
100
AcDbLayerTableRecord
  2
03_AXES
 70
0
 62
7
  6
CONTINUOUS
370
-3
390
F
  0
LAYER
  5
202
100
AcDbSymbolTableRecord
100
AcDbLayerTableRecord
  2
04_POINTS
 70
0
 62
7
  6
CONTINUOUS
370
-3
390
F
  0
LAYER
  5
203
100
AcDbSymbolTableRecord
100
AcDbLayerTableRecord
  2
05_CURVES
 70
0
 62
7
  6
CONTINUOUS
370
-3
390
F
  0
LAYER
  5
204
100
AcDbSymbolTableRecord
100
AcDbLayerTableRecord
  2
06_SURFS
 70
0
 62
7
  6
CONTINUOUS
370
-3
390
F
  0
LAYER
  5
205
100
AcDbSymbolTableRecord
100
AcDbLayerTableRecord
  2
07_COSMETICS
 70
0
 62
7
  6
CONTINUOUS
370
-3
390
F
  0
LAYER
  5
206
100
AcDbSymbolTableRecord
100
AcDbLayerTableRecord
  2
10_NOTES
 70
0
 62
7
  6
CONTINUOUS
370
-3
390
F
  0
LAYER
  5
207
100
AcDbSymbolTableRecord
100
AcDbLayerTableRecord
  2
11_NOTES_PUB
 70
0
 62
7
  6
CONTINUOUS
370
-3
390
F
  0
LAYER
  5
208
100
AcDbSymbolTableRecord
100
AcDbLayerTableRecord
  2
13_REF_GTOL
 70
0
 62
7
  6
CONTINUOUS
370
-3
390
F
  0
LAYER
  5
209
100
AcDbSymbolTableRecord
100
AcDbLayerTableRecord
  2
16_MISC
 70
0
 62
7
  6
CONTINUOUS
370
-3
390
F
  0
LAYER
  5
20A
100
AcDbSymbolTableRecord
100
AcDbLayerTableRecord
  2
17_NO_PRINT
 70
0
 62
7
  6
CONTINUOUS
370
-3
390
F
  0
LAYER
  5
20B
100
AcDbSymbolTableRecord
100
AcDbLayerTableRecord
  2
18_DATUM_CAMS_JOINTS
 70
0
 62
7
  6
CONTINUOUS
370
-3
390
F
  0
LAYER
  5
20C
100
AcDbSymbolTableRecord
100
AcDbLayerTableRecord
  2
19_DATUM_FUNCTIONAL
 70
0
 62
7
  6
CONTINUOUS
370
-3
390
F
  0
LAYER
  5
20D
100
AcDbSymbolTableRecord
100
AcDbLayerTableRecord
  2
20_DATUM_KINEMATIC_SCHEME
 70
0
 62
7
  6
CONTINUOUS
370
-3
390
F
  0
ENDTAB
  0
TABLE
  2
STYLE
  5
3
100
AcDbSymbolTable
 70
1
  0
STYLE
  5
11
100
AcDbSymbolTableRecord
100
AcDbTextStyleTableRecord
  2
STANDARD
 70
0
 40
0.0
 41
1.0
 50
0.0
 71
0
 42
0.2
  3
ARIAL.TTF
  4

  0
STYLE
  5
20E
100
AcDbSymbolTableRecord
100
AcDbTextStyleTableRecord
  2
TEXTSTYLE_1
 70
0
 40
0.0
 41
0.8
 50
0.0
 71
0
 42
0.2
  3
gdt
  4

  0
ENDTAB
  0
TABLE
  2
VIEW
  5
6
100
AcDbSymbolTable
 70
0
  0
ENDTAB
  0
TABLE
  2
UCS
  5
7
100
AcDbSymbolTable
 70
0
  0
ENDTAB
  0
TABLE
  2
APPID
  5
9
100
AcDbSymbolTable
 70
1
  0
APPID
  5
20F
100
AcDbSymbolTableRecord
100
AcDbRegAppTableRecord
  2
ACAD
 70
0
  0
ENDTAB
  0
TABLE
  2
BLOCK_RECORD
  5
1
100
AcDbSymbolTable
 70
0
  0
BLOCK_RECORD
  5
210
100
AcDbSymbolTableRecord
100
AcDbBlockTableRecord
  2
*Model_Space
  0
BLOCK_RECORD
  5
211
100
AcDbSymbolTableRecord
100
AcDbBlockTableRecord
  2
*Paper_Space
  0
BLOCK_RECORD
  5
212
100
AcDbSymbolTableRecord
100
AcDbBlockTableRecord
  2
_FILLED
  0
ENDTAB
  0
TABLE
  2
DIMSTYLE
  5
A
100
AcDbSymbolTable
 70
1
100
AcDbDimStyleTable
 71
0
  0
DIMSTYLE
105
213
100
AcDbSymbolTableRecord
100
AcDbDimStyleTableRecord
  2
STANDARD
 70
0
  3

  4

 40
1.0
 41
1.0646776406
 42
1.0
 43
0.38
 44
1.0
 45
0.0
 46
0.0
 47
0.01
 48
0.01
140
1.4905486968
141
0.09
142
0.0
143
25.4
144
1.0
145
0.0
146
1.0
147
0.625
 71
1
 72
0
 73
0
 74
0
 75
0
 76
0
 77
1
 78
8
 79
2
170
0
171
1
172
0
173
0
174
0
175
0
176
0
177
0
178
0
270
2
179
2
271
2
272
2
273
2
274
2
275
0
280
0
281
0
282
0
283
1
284
8
285
0
286
0
287
3
288
0
340
11
278
46
341
212
342
212
343
212
344
212
  0
ENDTAB
  0
ENDSEC
  0
SECTION
  2
BLOCKS
  0
BLOCK
  5
20
100
AcDbEntity
  8
0
100
AcDbBlockBegin
  2
*Model_Space
 70
0
 10
0.0
 20
0.0
 30
0.0
  3
*Model_Space
  1

  0
ENDBLK
  5
21
100
AcDbEntity
  8
0
100
AcDbBlockEnd
  0
BLOCK
  5
1C
100
AcDbEntity
  8
0
100
AcDbBlockBegin
  2
*Paper_Space
 70
0
 10
0.0
 20
0.0
 30
0.0
  3
*Paper_Space
  1

  0
ENDBLK
  5
1D
100
AcDbEntity
  8
0
100
AcDbBlockEnd
  0
BLOCK
  5
214
100
AcDbEntity
  8
0
100
AcDbBlockBegin
  2
_FILLED
 70
64
 10
0.0
 20
0.0
  3
_FILLED
  1

  0
SOLID
  5
215
100
AcDbEntity
  8
0
  6
BYBLOCK
 62
0
100
AcDbTrace
 10
0.0
 20
0.0
 11
-1.0
 21
0.25
 12
-1.0
 22
-0.25
 13
-1.0
 23
-0.25
  0
ENDBLK
  5
216
100
AcDbEntity
  8
0
  6
BYBLOCK
 62
0
100
AcDbBlockEnd
  0
ENDSEC
  0
SECTION
  2
ENTITIES
  0
LINE
  5
217
100
AcDbEntity
  8
0
100
AcDbLine
 62
7
  6
BYLAYER
 10
10.4249794239
 20
85.0966441444
 11
10.4249794239
 21
41.3966666667
  0
LINE
  5
218
100
AcDbEntity
  8
0
100
AcDbLine
 62
7
  6
BYLAYER
 10
10.7249794239
 20
85.3966666667
 11
10.7249794239
 21
45.0197733665
  0
LINE
  5
219
100
AcDbEntity
  8
0
100
AcDbLine
 62
7
  6
BYLAYER
 10
11.7249794239
 20
41.3966666667
 11
11.7249794239
 21
35.619348723
  0
LINE
  5
21A
100
AcDbEntity
  8
0
100
AcDbLine
 62
7
  6
BYLAYER
 10
11.8149794239
 20
45.0197733665
 11
11.8149794239
 21
85.3966666667
  0
LINE
  5
21B
100
AcDbEntity
  8
0
100
AcDbLine
 62
7
  6
BYLAYER
 10
13.548424806
 20
84.3942472935
 11
13.548424806
 21
46.2252403506
  0
LINE
  5
21C
100
AcDbEntity
  8
0
100
AcDbLine
 62
7
  6
BYLAYER
 10
14.2249794239
 20
35.619348723
 11
14.2249794239
 21
47.6750462096
  0
LINE
  5
21D
100
AcDbEntity
  8
0
100
AcDbLine
 62
7
  6
BYLAYER
 10
16.4685466229
 20
47.4732339759
 11
16.4685466229
 21
79.3200993574
  0
LINE
  5
21E
100
AcDbEntity
  8
0
100
AcDbLine
 62
7
  6
BYLAYER
 10
35.5249794239
 20
33.3966666667
 11
57.4391142787
 21
33.6291773813
  0
LINE
  5
21F
100
AcDbEntity
  8
0
100
AcDbLine
 62
7
  6
BYLAYER
 10
57.1633775254
 20
34.5016413916
 11
55.1457491445
 21
34.4802341939
  0
LINE
  5
220
100
AcDbEntity
  8
0
100
AcDbLine
 62
7
  6
BYLAYER
 10
54.1694854839
 20
34.5944300775
 11
35.5249794239
 21
34.3966103845
  0
LINE
  5
221
100
AcDbEntity
  8
0
100
AcDbLine
 62
7
  6
BYLAYER
 10
57.4390348168
 20
33.6366666667
 11
59.0249794239
 21
33.6366666667
  0
LINE
  5
222
100
AcDbEntity
  8
0
100
AcDbLine
 62
7
  6
BYLAYER
 10
57.0500577822
 20
33.8933716475
 11
59.0249794239
 21
33.8933716475
  0
LINE
  5
223
100
AcDbEntity
  8
0
100
AcDbLine
 62
7
  6
BYLAYER
 10
14.2249794239
 20
35.619348723
 11
11.7249794239
 21
35.619348723
  0
LINE
  5
224
100
AcDbEntity
  8
0
100
AcDbLine
 62
7
  6
BYLAYER
 10
54.1694854839
 20
34.5944300775
 11
55.1457491445
 21
34.4802341939
  0
LINE
  5
225
100
AcDbEntity
  8
0
100
AcDbLine
 62
7
  6
BYLAYER
 10
19.4749794239
 20
50.1166846273
 11
19.4749794239
 21
76.676648706
  0
LINE
  5
226
100
AcDbEntity
  8
0
100
AcDbLine
 62
7
  6
BYLAYER
 10
28.0378726427
 20
80.9495598855
 11
29.4320862051
 21
82.3437734479
  0
LINE
  5
227
100
AcDbEntity
  8
0
100
AcDbLine
 62
7
  6
BYLAYER
 10
14.2249794239
 20
36.3001196664
 11
11.7249794239
 21
36.3001196664
  0
LINE
  5
228
100
AcDbEntity
  8
0
100
AcDbLine
 62
7
  6
BYLAYER
 10
11.7249794239
 20
38.300204411
 11
14.2249794239
 21
38.300204411
  0
LINE
  5
229
100
AcDbEntity
  8
0
100
AcDbLine
 62
7
  6
BYLAYER
 10
28.0378726427
 20
45.8437734479
 11
29.4320862051
 21
44.4495598855
  0
LINE
  5
22A
100
AcDbEntity
  8
0
100
AcDbLine
 62
7
  6
BYLAYER
 10
60.0249794239
 20
39.0966666667
 11
79.4849794239
 21
39.0966666667
  0
LINE
  5
22B
100
AcDbEntity
  8
0
100
AcDbLine
 62
7
  6
BYLAYER
 10
34.7249794239
 20
39.5966666667
 11
35.5249794239
 21
39.5966666667
  0
LINE
  5
22C
100
AcDbEntity
  8
0
100
AcDbLine
 62
7
  6
BYLAYER
 10
65.844979424
 20
40.3981729476
 11
79.4849794239
 21
40.3981729476
  0
LINE
  5
22D
100
AcDbEntity
  8
0
100
AcDbLine
 62
7
  6
BYLAYER
 10
11.7249794239
 20
41.3966666667
 11
10.4249794239
 21
41.3966666667
  0
LINE
  5
22E
100
AcDbEntity
  8
0
100
AcDbLine
 62
7
  6
BYLAYER
 10
25.7249794239
 20
76.7466485855
 11
25.7249794239
 21
50.0466847479
  0
LINE
  5
22F
100
AcDbEntity
  8
0
100
AcDbLine
 62
7
  6
BYLAYER
 10
27.7449794239
 20
80.2421793755
 11
27.7449794239
 21
46.5511539578
  0
LINE
  5
230
100
AcDbEntity
  8
0
100
AcDbLine
 62
7
  6
BYLAYER
 10
65.844979428
 20
42.1881241535
 11
79.4849794378
 21
42.1881241509
  0
LINE
  5
231
100
AcDbEntity
  8
0
100
AcDbLine
 62
7
  6
BYLAYER
 10
31.2249794239
 20
44.1566666667
 11
30.1391929862
 21
44.1566666667
  0
LINE
  5
232
100
AcDbEntity
  8
0
100
AcDbLine
 62
7
  6
BYLAYER
 10
11.8149794239
 20
45.0197733665
 11
10.7249794239
 21
45.0197733665
  0
LINE
  5
233
100
AcDbEntity
  8
0
100
AcDbLine
 62
7
  6
BYLAYER
 10
28.0378726427
 20
80.9495598855
 11
28.0378726427
 21
45.8437734479
  0
LINE
  5
234
100
AcDbEntity
  8
0
100
AcDbLine
 62
7
  6
BYLAYER
 10
29.4320862051
 20
44.4495598855
 11
29.4320862051
 21
82.3437734479
  0
LINE
  5
235
100
AcDbEntity
  8
0
100
AcDbLine
 62
7
  6
BYLAYER
 10
30.1391929862
 20
82.6366666667
 11
30.1391929862
 21
44.1566666667
  0
LINE
  5
236
100
AcDbEntity
  8
0
100
AcDbLine
 62
7
  6
BYLAYER
 10
16.4685466229
 20
47.4732339759
 11
14.2249794239
 21
43.5747007686
  0
LINE
  5
237
100
AcDbEntity
  8
0
100
AcDbLine
 62
7
  6
BYLAYER
 10
34.7249794239
 20
45.7866666667
 11
32.9249794239
 21
45.7866666667
  0
LINE
  5
238
100
AcDbEntity
  8
0
100
AcDbLine
 62
7
  6
BYLAYER
 10
16.4685466229
 20
79.3200993574
 11
13.548424806
 21
84.3942472935
  0
LINE
  5
239
100
AcDbEntity
  8
0
100
AcDbLine
 62
7
  6
BYLAYER
 10
31.2249794239
 20
44.1566867018
 11
31.2249794239
 21
82.6366466315
  0
LINE
  5
23A
100
AcDbEntity
  8
0
100
AcDbLine
 62
7
  6
BYLAYER
 10
32.2249794239
 20
48.4866547157
 11
32.2249794239
 21
46.4866786177
  0
LINE
  5
23B
100
AcDbEntity
  8
0
100
AcDbLine
 62
7
  6
BYLAYER
 10
32.9249794239
 20
49.1866666667
 11
32.9249794239
 21
45.7866666667
  0
LINE
  5
23C
100
AcDbEntity
  8
0
100
AcDbLine
 62
7
  6
BYLAYER
 10
34.7249794239
 20
49.1866666667
 11
32.9249794239
 21
49.1866666667
  0
LINE
  5
23D
100
AcDbEntity
  8
0
100
AcDbLine
 62
7
  6
BYLAYER
 10
25.7249794239
 20
50.6566666667
 11
19.4749794239
 21
50.6566666667
  0
LINE
  5
23E
100
AcDbEntity
  8
0
100
AcDbLine
 62
7
  6
BYLAYER
 10
34.7249794239
 20
34.3966666667
 11
34.7249794239
 21
92.3966666667
  0
LINE
  5
23F
100
AcDbEntity
  8
0
100
AcDbLine
 62
7
  6
BYLAYER
 10
35.5249794239
 20
93.3966666667
 11
35.5249794239
 21
33.3966666667
  0
LINE
  5
240
100
AcDbEntity
  8
0
100
AcDbLine
 62
7
  6
BYLAYER
 10
31.2249794239
 20
53.3966666667
 11
34.7249794239
 21
53.3966666667
  0
LINE
  5
241
100
AcDbEntity
  8
0
100
AcDbLine
 62
7
  6
BYLAYER
 10
57.0500577822
 20
53.5597167832
 11
59.0249794239
 21
53.5597167832
  0
LINE
  5
242
100
AcDbEntity
  8
0
100
AcDbLine
 62
7
  6
BYLAYER
 10
57.4390348168
 20
55.1414037964
 11
60.0249794239
 21
55.1412199798
  0
LINE
  5
243
100
AcDbEntity
  8
0
100
AcDbLine
 62
7
  6
BYLAYER
 10
57.5255947813
 20
72.9179814967
 11
57.5417660796
 21
72.9265110192
  0
LINE
  5
244
100
AcDbEntity
  8
0
100
AcDbLine
 62
7
  6
BYLAYER
 10
56.7075752393
 20
71.9265218363
 11
60.0249794239
 21
71.9265110977
  0
LINE
  5
245
100
AcDbEntity
  8
0
100
AcDbLine
 62
7
  6
BYLAYER
 10
59.0249794239
 20
72.9265110977
 11
57.5418399987
 21
72.9265110977
  0
LINE
  5
246
100
AcDbEntity
  8
0
100
AcDbLine
 62
7
  6
BYLAYER
 10
57.8596160397
 20
80.5865715762
 11
57.858813941
 21
92.284313306
  0
LINE
  5
247
100
AcDbEntity
  8
0
100
AcDbLine
 62
7
  6
BYLAYER
 10
58.1449794239
 20
72.9265110977
 11
58.1449794239
 21
72.9798582521
  0
LINE
  5
248
100
AcDbEntity
  8
0
100
AcDbLine
 62
7
  6
BYLAYER
 10
58.1449794239
 20
86.9910289215
 11
58.1449794239
 21
92.1672204609
  0
LINE
  5
249
100
AcDbEntity
  8
0
100
AcDbLine
 62
7
  6
BYLAYER
 10
57.4390348168
 20
55.1414037964
 11
57.950607518
 21
59.5630095457
  0
LINE
  5
24A
100
AcDbEntity
  8
0
100
AcDbLine
 62
7
  6
BYLAYER
 10
56.5499769511
 20
55.1412199798
 11
54.1694854839
 21
34.5944300775
  0
LINE
  5
24B
100
AcDbEntity
  8
0
100
AcDbLine
 62
7
  6
BYLAYER
 10
55.1457491445
 20
34.4802341939
 11
57.1633775254
 21
51.8950357235
  0
LINE
  5
24C
100
AcDbEntity
  8
0
100
AcDbLine
 62
7
  6
BYLAYER
 10
31.2249794239
 20
73.3966666667
 11
34.7249794239
 21
73.3966666667
  0
LINE
  5
24D
100
AcDbEntity
  8
0
100
AcDbLine
 62
7
  6
BYLAYER
 10
25.7249794239
 20
76.1366666667
 11
19.4749794239
 21
76.1366666667
  0
LWPOLYLINE
  5
24E
100
AcDbEntity
  8
0
100
AcDbPolyline
 62
7
  6
BYLAYER
 90
3
 70
0
 10
57.5417949962
 20
72.9265101941
 10
57.5092850225
 20
72.9305212124
 10
57.4503262659
 20
72.9647833722
  0
LINE
  5
24F
100
AcDbEntity
  8
0
100
AcDbLine
 62
7
  6
BYLAYER
 10
54.1694854839
 20
92.1989032559
 11
57.9506148109
 21
59.5630095458
  0
LINE
  5
250
100
AcDbEntity
  8
0
100
AcDbLine
 62
7
  6
BYLAYER
 10
57.3775631956
 20
73.0495919849
 11
55.1457491445
 21
92.3130991394
  0
LINE
  5
251
100
AcDbEntity
  8
0
100
AcDbLine
 62
7
  6
BYLAYER
 10
58.8449794239
 20
72.9265110977
 11
58.8449794239
 21
80.218681803
  0
LINE
  5
252
100
AcDbEntity
  8
0
100
AcDbLine
 62
7
  6
BYLAYER
 10
59.0249794239
 20
33.6366666667
 11
59.0249794239
 21
72.9265110977
  0
LINE
  5
253
100
AcDbEntity
  8
0
100
AcDbLine
 62
7
  6
BYLAYER
 10
60.0249794239
 20
34.6366666667
 11
60.0249794239
 21
71.9265110977
  0
LINE
  5
254
100
AcDbEntity
  8
0
100
AcDbLine
 62
7
  6
BYLAYER
 10
60.8449794239
 20
46.386748463
 11
60.8449794239
 21
78.8341538081
  0
LINE
  5
255
100
AcDbEntity
  8
0
100
AcDbLine
 62
7
  6
BYLAYER
 10
57.4622073876
 20
72.9581964013
 11
57.4426605268
 21
73.0004179459
  0
LINE
  5
256
100
AcDbEntity
  8
0
100
AcDbLine
 62
7
  6
BYLAYER
 10
57.4545210209
 20
72.9546379256
 11
57.4545800878
 21
72.9545101617
  0
LWPOLYLINE
  5
257
100
AcDbEntity
  8
0
100
AcDbPolyline
 62
7
  6
BYLAYER
 90
10
 70
0
 10
57.3624838165
 20
76.3759487625
 10
57.3343604069
 20
76.449209215
 10
57.2263433866
 20
76.8119788939
 10
57.0762142945
 20
77.5023117262
 10
56.9022211116
 20
78.583960229
 10
56.7564508978
 20
79.892727803
 10
56.6961258713
 20
80.8575157731
 10
56.6918108296
 20
81.4799436503
 10
56.7160531806
 20
81.8062565122
 10
56.7188936442
 20
81.8242743843
  0
LINE
  5
258
100
AcDbEntity
  8
0
100
AcDbLine
 62
7
  6
BYLAYER
 10
57.4426693375
 20
73.0003989146
 11
57.4545210209
 21
72.9546379256
  0
LINE
  5
259
100
AcDbEntity
  8
0
100
AcDbLine
 62
7
  6
BYLAYER
 10
65.8449796184
 20
40.3981729476
 11
65.8449794239
 21
85.4668257273
  0
LINE
  5
25A
100
AcDbEntity
  8
0
100
AcDbLine
 62
7
  6
BYLAYER
 10
31.2249794239
 20
82.6366666667
 11
30.1391929862
 21
82.6366666667
  0
LINE
  5
25B
100
AcDbEntity
  8
0
100
AcDbLine
 62
7
  6
BYLAYER
 10
79.4849794517
 20
83.5474228005
 11
65.8449794249
 21
83.547422795
  0
LINE
  5
25C
100
AcDbEntity
  8
0
100
AcDbLine
 62
7
  6
BYLAYER
 10
11.8149794239
 20
85.3966666667
 11
10.7249794239
 21
85.3966666667
  0
LINE
  5
25D
100
AcDbEntity
  8
0
100
AcDbLine
 62
7
  6
BYLAYER
 10
79.4849794239
 20
85.4668257273
 11
65.8449794238
 21
85.4668257273
  0
LINE
  5
25E
100
AcDbEntity
  8
0
100
AcDbLine
 62
7
  6
BYLAYER
 10
35.5249794239
 20
87.1966666667
 11
34.7249794239
 21
87.1966666667
  0
LINE
  5
25F
100
AcDbEntity
  8
0
100
AcDbLine
 62
7
  6
BYLAYER
 10
58.1449794239
 20
87.6966666667
 11
79.4849794239
 21
87.6966666667
  0
LINE
  5
260
100
AcDbEntity
  8
0
100
AcDbLine
 62
7
  6
BYLAYER
 10
55.1457491445
 20
92.3130991394
 11
54.1694999779
 21
92.1989049353
  0
LINE
  5
261
100
AcDbEntity
  8
0
100
AcDbLine
 62
7
  6
BYLAYER
 10
35.5249794239
 20
92.3967229488
 11
54.1694854839
 21
92.1989032559
  0
LINE
  5
262
100
AcDbEntity
  8
0
100
AcDbLine
 62
7
  6
BYLAYER
 10
55.1457491445
 20
92.3130991394
 11
57.858813941
 21
92.284313306
  0
LINE
  5
263
100
AcDbEntity
  8
0
100
AcDbLine
 62
7
  6
BYLAYER
 10
57.1555670967
 20
93.1671644102
 11
35.5249794239
 21
93.3966666667
  0
LINE
  5
264
100
AcDbEntity
  8
0
100
AcDbLine
 62
7
  6
BYLAYER
 10
79.4849794239
 20
39.0966666667
 11
79.4849794239
 21
87.6966666667
  0
LINE
  5
265
100
AcDbEntity
  8
0
100
AcDbLine
 62
7
  6
BYLAYER
 10
81.4849794239
 20
41.0968302832
 11
81.4849794239
 21
85.6966564969
  0
ARC
  5
266
100
AcDbEntity
  8
0
100
AcDbCircle
 62
7
  6
BYLAYER
 10
-112.0670350441
 20
105.7266904877
 40
138.9952025135
100
AcDbArc
 50
334.654051226
 51
335.313554005
  0
ARC
  5
267
100
AcDbEntity
  8
0
100
AcDbCircle
 62
7
  6
BYLAYER
 10
80.2596396515
 20
81.9275191239
 40
23.5959979963
100
AcDbArc
 50
184.0887059159
 51
185.1268132291
  0
ARC
  5
268
100
AcDbEntity
  8
0
100
AcDbCircle
 62
7
  6
BYLAYER
 10
40.6432329704
 20
76.6289672297
 40
16.3975587158
100
AcDbArc
 50
6.1043889166
 51
8.9310519797
  0
ARC
  5
269
100
AcDbEntity
  8
0
100
AcDbCircle
 62
7
  6
BYLAYER
 10
60.4408087491
 20
77.4009201908
 40
3.2681801473
100
AcDbArc
 50
198.3859981031
 51
198.5724454826
  0
ARC
  5
26A
100
AcDbEntity
  8
0
100
AcDbCircle
 62
7
  6
BYLAYER
 10
59.8987490696
 20
81.563152072
 40
3.2133245902
100
AcDbArc
 50
174.6339164548
 51
175.1298513781
  0
ARC
  5
26B
100
AcDbEntity
  8
0
100
AcDbCircle
 62
7
  6
BYLAYER
 10
19.4649794239
 20
79.6966501103
 40
3.02
100
AcDbArc
 50
187.1626045532
 51
270.1897214709
  0
ARC
  5
26C
100
AcDbEntity
  8
0
100
AcDbCircle
 62
7
  6
BYLAYER
 10
19.4649794239
 20
47.096683223
 40
3.02
100
AcDbArc
 50
89.8102785291
 51
172.8373954468
  0
ARC
  5
26D
100
AcDbEntity
  8
0
100
AcDbCircle
 62
7
  6
BYLAYER
 10
25.2449794239
 20
79.2001539807
 40
2.5
100
AcDbArc
 50
281.0695249734
 51
360.0
  0
ARC
  5
26E
100
AcDbEntity
  8
0
100
AcDbCircle
 62
7
  6
BYLAYER
 10
25.2449794239
 20
47.5931793527
 40
2.5
100
AcDbArc
 50
0.0
 51
78.9304750266
  0
ARC
  5
26F
100
AcDbEntity
  8
0
100
AcDbCircle
 62
7
  6
BYLAYER
 10
11.8149794239
 20
83.3966666667
 40
2.0
100
AcDbArc
 50
29.92
 51
90.0
  0
ARC
  5
270
100
AcDbEntity
  8
0
100
AcDbCircle
 62
7
  6
BYLAYER
 10
79.4849794239
 20
85.6966666667
 40
2.0
100
AcDbArc
 50
0.0
 51
90.0
  0
ARC
  5
271
100
AcDbEntity
  8
0
100
AcDbCircle
 62
7
  6
BYLAYER
 10
79.4849794239
 20
41.0966666667
 40
2.0
100
AcDbArc
 50
270.0
 51
360.0
  0
ARC
  5
272
100
AcDbEntity
  8
0
100
AcDbCircle
 62
7
  6
BYLAYER
 10
59.0249794239
 20
34.6366666667
 40
1.0
100
AcDbArc
 50
270.0
 51
360.0
  0
ARC
  5
273
100
AcDbEntity
  8
0
100
AcDbCircle
 62
7
  6
BYLAYER
 10
28.7449794239
 20
80.2424531043
 40
1.0
100
AcDbArc
 50
135.0000000003
 51
180.0
  0
ARC
  5
274
100
AcDbEntity
  8
0
100
AcDbCircle
 62
7
  6
BYLAYER
 10
28.7449794239
 20
46.550880229
 40
1.0
100
AcDbArc
 50
180.0
 51
224.9999999997
  0
ARC
  5
275
100
AcDbEntity
  8
0
100
AcDbCircle
 62
7
  6
BYLAYER
 10
30.1391929862
 20
81.6366666667
 40
1.0
100
AcDbArc
 50
90.0
 51
134.9999999998
  0
ARC
  5
276
100
AcDbEntity
  8
0
100
AcDbCircle
 62
7
  6
BYLAYER
 10
30.1391929862
 20
45.1566666667
 40
1.0
100
AcDbArc
 50
225.0000000002
 51
270.0
  0
ARC
  5
277
100
AcDbEntity
  8
0
100
AcDbCircle
 62
7
  6
BYLAYER
 10
59.0249794239
 20
71.9265110977
 40
1.0
100
AcDbArc
 50
0.0
 51
90.0
  0
ARC
  5
278
100
AcDbEntity
  8
0
100
AcDbCircle
 62
7
  6
BYLAYER
 10
57.1449571187
 20
92.1672207121
 40
0.9999999966
100
AcDbArc
 50
359.9999856112
 51
89.3908319547
  0
ARC
  5
279
100
AcDbEntity
  8
0
100
AcDbCircle
 62
7
  6
BYLAYER
 10
35.5249794239
 20
92.3966666667
 40
0.8
100
AcDbArc
 50
90.0
 51
180.0
  0
ARC
  5
27A
100
AcDbEntity
  8
0
100
AcDbCircle
 62
7
  6
BYLAYER
 10
35.5249794239
 20
34.3966666667
 40
0.8
100
AcDbArc
 50
180.0
 51
270.0
  0
ARC
  5
27B
100
AcDbEntity
  8
0
100
AcDbCircle
 62
7
  6
BYLAYER
 10
56.1193687179
 20
82.1769898077
 40
0.7153511324
100
AcDbArc
 50
326.4070435941
 51
329.7545879677
  0
ARC
  5
27C
100
AcDbEntity
  8
0
100
AcDbCircle
 62
7
  6
BYLAYER
 10
32.9249794239
 20
48.4866666667
 40
0.7
100
AcDbArc
 50
90.0
 51
180.0
  0
ARC
  5
27D
100
AcDbEntity
  8
0
100
AcDbCircle
 62
7
  6
BYLAYER
 10
32.9249794239
 20
46.4866666667
 40
0.7
100
AcDbArc
 50
180.0
 51
270.0
  0
ARC
  5
27E
100
AcDbEntity
  8
0
100
AcDbCircle
 62
7
  6
BYLAYER
 10
56.8599218022
 20
75.9280799142
 40
0.6942516454
100
AcDbArc
 50
41.8303935102
 51
48.703886216
  0
ARC
  5
27F
100
AcDbEntity
  8
0
100
AcDbCircle
 62
7
  6
BYLAYER
 10
10.7249794239
 20
85.0966666667
 40
0.3
100
AcDbArc
 50
90.0
 51
180.0
  0
ARC
  5
280
100
AcDbEntity
  8
0
100
AcDbCircle
 62
7
  6
BYLAYER
 10
57.5276705062
 20
73.0691125017
 40
0.1511435571
100
AcDbArc
 50
242.670341841
 51
269.2144519129
  0
SPLINE
  5
281
100
AcDbEntity
  8
0
100
AcDbSpline
 62
7
  6
BYLAYER
 70
0
 71
3
 72
9
 73
5
 74
0
 42
0.0000001
 43
0.0000001
 44
0.0000000001
 40
0.0
 40
0.0
 40
0.0
 40
0.0
 40
0.2942313816
 40
1.0
 40
1.0
 40
1.0
 40
1.0
 10
57.4426605268
 20
73.0004179459
 30
0.0
 10
57.4406543609
 20
73.0047535552
 30
0.0
 10
57.4335715898
 20
73.0193445274
 30
0.0
 10
57.4254642474
 20
73.0335787513
 30
0.0
 10
57.4183838743
 20
73.0425887631
 30
0.0
  0
SPLINE
  5
282
100
AcDbEntity
  8
0
100
AcDbSpline
 62
7
  6
BYLAYER
 70
0
 71
3
 72
9
 73
5
 74
0
 42
0.0000001
 43
0.0000001
 44
0.0000000001
 40
0.0
 40
0.0
 40
0.0
 40
0.0
 40
0.3143590745
 40
1.0
 40
1.0
 40
1.0
 40
1.0
 10
57.4183838743
 20
73.0425887631
 30
0.0
 10
57.4165918808
 20
73.0448691347
 30
0.0
 10
57.4106667216
 20
73.0517824922
 30
0.0
 10
57.4027497733
 20
73.0580322727
 30
0.0
 10
57.396516607
 20
73.0591098285
 30
0.0
  0
SPLINE
  5
283
100
AcDbEntity
  8
0
100
AcDbSpline
 62
7
  6
BYLAYER
 70
0
 71
3
 72
9
 73
5
 74
0
 42
0.0000001
 43
0.0000001
 44
0.0000000001
 40
0.0
 40
0.0
 40
0.0
 40
0.0
 40
0.451679906
 40
1.0
 40
1.0
 40
1.0
 40
1.0
 10
57.396516607
 20
73.0591098285
 30
0.0
 10
57.3932366812
 20
73.0596768442
 30
0.0
 10
57.3853676812
 20
73.0583654456
 30
0.0
 10
57.380017032
 20
73.052802334
 30
0.0
 10
57.3775631956
 20
73.0495919849
 30
0.0
  0
SPLINE
  5
284
100
AcDbEntity
  8
0
100
AcDbSpline
 62
7
  6
BYLAYER
 70
0
 71
3
 72
14
 73
10
 74
0
 42
0.0000001
 43
0.0000001
 44
0.0000000001
 40
0.0
 40
0.0
 40
0.0
 40
0.0
 40
0.0533427895
 40
0.1178979655
 40
0.2022931287
 40
0.3104095323
 40
0.4439633095
 40
0.603487708
 40
1.0
 40
1.0
 40
1.0
 40
1.0
 10
56.8291677935
 20
82.2516037852
 30
0.0
 10
56.8215691585
 20
82.2515982839
 30
0.0
 10
56.8046282013
 20
82.2463264987
 30
0.0
 10
56.7838350281
 20
82.2254832449
 30
0.0
 10
56.7653373785
 20
82.1936676331
 30
0.0
 10
56.7485403863
 20
82.1502201157
 30
0.0
 10
56.7334185303
 20
82.0950468794
 30
0.0
 10
56.7141472369
 20
81.9986683733
 30
0.0
 10
56.7047930469
 20
81.9198938252
 30
0.0
 10
56.699506881
 20
81.8636588785
 30
0.0
  0
SPLINE
  5
285
100
AcDbEntity
  8
0
100
AcDbSpline
 62
7
  6
BYLAYER
 70
0
 71
3
 72
9
 73
5
 74
0
 42
0.0000001
 43
0.0000001
 44
0.0000000001
 40
0.0
 40
0.0
 40
0.0
 40
0.0
 40
0.23110928
 40
1.0
 40
1.0
 40
1.0
 40
1.0
 10
56.6970256621
 20
81.8359562953
 30
0.0
 10
56.6954821235
 20
81.8178558115
 30
0.0
 10
56.6894379302
 20
81.7394817349
 30
0.0
 10
56.6856533536
 20
81.6609441635
 30
0.0
 10
56.6835935321
 20
81.600541175
 30
0.0
  0
SPLINE
  5
286
100
AcDbEntity
  8
0
100
AcDbSpline
 62
7
  6
BYLAYER
 70
0
 71
3
 72
9
 73
5
 74
0
 42
0.0000001
 43
0.0000001
 44
0.0000000001
 40
0.0
 40
0.0
 40
0.0
 40
0.0
 40
0.2355573651
 40
1.0
 40
1.0
 40
1.0
 40
1.0
 10
56.6835935321
 20
81.600541175
 30
0.0
 10
56.6828401205
 20
81.5784478468
 30
0.0
 10
56.6801434794
 20
81.4846391287
 30
0.0
 10
56.6793015801
 20
81.3907819491
 30
0.0
 10
56.6794292451
 20
81.3190420035
 30
0.0
  0
SPLINE
  5
287
100
AcDbEntity
  8
0
100
AcDbSpline
 62
7
  6
BYLAYER
 70
0
 71
3
 72
9
 73
5
 74
0
 42
0.0000001
 43
0.0000001
 44
0.0000000001
 40
0.0
 40
0.0
 40
0.0
 40
0.0
 40
0.4666993133
 40
1.0
 40
1.0
 40
1.0
 40
1.0
 10
56.6794292451
 20
81.3190420035
 30
0.0
 10
56.679726847
 20
81.1518078444
 30
0.0
 10
56.6891128038
 20
80.7934873168
 30
0.0
 10
56.7100939255
 20
80.4357201486
 30
0.0
 10
56.723696843
 20
80.2451049184
 30
0.0
  0
SPLINE
  5
288
100
AcDbEntity
  8
0
100
AcDbSpline
 62
7
  6
BYLAYER
 70
0
 71
3
 72
11
 73
7
 74
0
 42
0.0000001
 43
0.0000001
 44
0.0000000001
 40
0.0
 40
0.0
 40
0.0
 40
0.0
 40
0.2683448225
 40
0.5349487025
 40
0.7836708008
 40
1.0
 40
1.0
 40
1.0
 40
1.0
 10
56.7580408508
 20
79.8189709849
 30
0.0
 10
56.7812260423
 20
79.5596725938
 30
0.0
 10
56.835301163
 20
79.0434371561
 30
0.0
 10
56.935464103
 20
78.2896867649
 30
0.0
 10
57.0498671741
 20
77.5890589823
 30
0.0
 10
57.1382129322
 20
77.1464498133
 30
0.0
 10
57.1850167812
 20
76.9418650265
 30
0.0
  0
SPLINE
  5
289
100
AcDbEntity
  8
0
100
AcDbSpline
 62
7
  6
BYLAYER
 70
0
 71
3
 72
9
 73
5
 74
0
 42
0.0000001
 43
0.0000001
 44
0.0000000001
 40
0.0
 40
0.0
 40
0.0
 40
0.0
 40
0.2639956326
 40
1.0
 40
1.0
 40
1.0
 40
1.0
 10
57.1850167812
 20
76.9418650265
 30
0.0
 10
57.1909018891
 20
76.9161405708
 30
0.0
 10
57.2135585618
 20
76.8187822582
 30
0.0
 10
57.2377272681
 20
76.7217702558
 30
0.0
 10
57.2566536013
 20
76.6506752084
 30
0.0
  0
SPLINE
  5
28A
100
AcDbEntity
  8
0
100
AcDbSpline
 62
7
  6
BYLAYER
 70
0
 71
3
 72
9
 73
5
 74
0
 42
0.0000001
 43
0.0000001
 44
0.0000000001
 40
0.0
 40
0.0
 40
0.0
 40
0.0
 40
0.2720739374
 40
1.0
 40
1.0
 40
1.0
 40
1.0
 10
57.2566536013
 20
76.6506752084
 30
0.0
 10
57.2634796832
 20
76.6250336534
 30
0.0
 10
57.289131108
 20
76.5309430544
 30
0.0
 10
57.3170660801
 20
76.4374485382
 30
0.0
 10
57.3394589972
 20
76.3700801494
 30
0.0
  0
SPLINE
  5
28B
100
AcDbEntity
  8
0
100
AcDbSpline
 62
7
  6
BYLAYER
 70
0
 71
3
 72
12
 73
8
 74
0
 42
0.0000001
 43
0.0000001
 44
0.0000000001
 40
0.0
 40
0.0
 40
0.0
 40
0.0
 40
0.3867704179
 40
0.6796610284
 40
0.7906629178
 40
0.8791552905
 40
1.0
 40
1.0
 40
1.0
 40
1.0
 10
57.3428298897
 20
76.3599934588
 30
0.0
 10
57.3603753141
 20
76.3077768929
 30
0.0
 10
57.3935736296
 20
76.2167495208
 30
0.0
 10
57.44055047
 20
76.1142491108
 30
0.0
 10
57.478654017
 20
76.0547973663
 30
0.0
 10
57.507363642
 20
76.0202583288
 30
0.0
 10
57.5351744338
 20
76.0016226405
 30
0.0
 10
57.552385643
 20
76.0016037852
 30
0.0
  0
SPLINE
  5
28C
100
AcDbEntity
  8
0
100
AcDbSpline
 62
7
  6
BYLAYER
 70
0
 71
3
 72
28
 73
24
 74
0
 42
0.0000001
 43
0.0000001
 44
0.0000000001
 40
0.0
 40
0.0
 40
0.0
 40
0.0
 40
0.0025360548
 40
0.0053156165
 40
0.0086065381
 40
0.0125723181
 40
0.0228470021
 40
0.0365093173
 40
0.0536196721
 40
0.074140518
 40
0.097973892
 40
0.1249482676
 40
0.187528888
 40
0.2600442157
 40
0.3403163683
 40
0.4258781499
 40
0.6024232541
 40
0.6881763014
 40
0.768905935
 40
0.8423685811
 40
0.906487097
 40
0.9594580723
 40
1.0
 40
1.0
 40
1.0
 40
1.0
 10
57.552385643
 20
76.0016037852
 30
0.0
 10
57.5575857715
 20
76.0016078755
 30
0.0
 10
57.5685845343
 20
76.0038086843
 30
0.0
 10
57.5837046773
 20
76.013454868
 30
0.0
 10
57.5976561178
 20
76.0288011758
 30
0.0
 10
57.6166816267
 20
76.0594553699
 30
0.0
 10
57.6369809986
 20
76.1133751665
 30
0.0
 10
57.6566618592
 20
76.195260583
 30
0.0
 10
57.6730821595
 20
76.2992481861
 30
0.0
 10
57.6860480249
 20
76.4246433136
 30
0.0
 10
57.6953699199
 20
76.5706355355
 30
0.0
 10
57.7032219251
 20
76.8030283072
 30
0.0
 10
57.7021432293
 20
77.1354538604
 30
0.0
 10
57.6861902574
 20
77.5768246505
 30
0.0
 10
57.655654909
 20
78.0646532924
 30
0.0
 10
57.5961387026
 20
78.7642053369
 30
0.0
 10
57.5142645651
 20
79.4730008411
 30
0.0
 10
57.4129266157
 20
80.169069636
 30
0.0
 10
57.3314330648
 20
80.6543275328
 30
0.0
 10
57.2463110145
 20
81.0938450244
 30
0.0
 10
57.1602554938
 20
81.4750928602
 30
0.0
 10
57.0756388402
 20
81.7870855661
 30
0.0
 10
57.0140949221
 20
81.9690583064
 30
0.0
 10
56.9820414345
 20
82.0457605909
 30
0.0
  0
SPLINE
  5
28D
100
AcDbEntity
  8
0
100
AcDbSpline
 62
7
  6
BYLAYER
 70
0
 71
3
 72
12
 73
8
 74
0
 42
0.0000001
 43
0.0000001
 44
0.0000000001
 40
0.0
 40
0.0
 40
0.0
 40
0.0
 40
0.3723473444
 40
0.6576043554
 40
0.768874645
 40
0.8610193987
 40
1.0
 40
1.0
 40
1.0
 40
1.0
 10
56.9820414345
 20
82.0457605909
 30
0.0
 10
56.9693523633
 20
82.076124861
 30
0.0
 10
56.945311735
 20
82.1290942061
 30
0.0
 10
56.911000621
 20
82.1880333483
 30
0.0
 10
56.8834964206
 20
82.2216079967
 30
0.0
 10
56.8614315801
 20
82.2420616031
 30
0.0
 10
56.8414512384
 20
82.2515903931
 30
0.0
 10
56.8291677935
 20
82.2516037852
 30
0.0
  0
SPLINE
  5
28E
100
AcDbEntity
  8
0
100
AcDbSpline
 62
7
  6
BYLAYER
 70
0
 71
3
 72
19
 73
15
 74
0
 42
0.0000001
 43
0.0000001
 44
0.0000000001
 40
0.0
 40
0.0
 40
0.0
 40
0.0
 40
0.1941100481
 40
0.3809303486
 40
0.5530275049
 40
0.7039965979
 40
0.7696887128
 40
0.8280144738
 40
0.8784140659
 40
0.9204116661
 40
0.9536649771
 40
0.9778894254
 40
0.9930565095
 40
1.0
 40
1.0
 40
1.0
 40
1.0
 10
79.4849794447
 20
42.1881241536
 30
0.0
 10
79.6149993615
 20
42.1881241537
 30
0.0
 10
79.87015802
 20
42.1893971046
 30
0.0
 10
80.2405548943
 20
42.1950535306
 30
0.0
 10
80.5819723444
 20
42.2042342302
 30
0.0
 10
80.8421752116
 20
42.2148663362
 30
0.0
 10
81.0260730373
 20
42.2251912311
 30
0.0
 10
81.1426552707
 20
42.2331896711
 30
0.0
 10
81.2431944604
 20
42.241628615
 30
0.0
 10
81.3270883706
 20
42.2506424841
 30
0.0
 10
81.3926042424
 20
42.2594395848
 30
0.0
 10
81.44160056
 20
42.2693924776
 30
0.0
 10
81.4692025927
 20
42.2768160395
 30
0.0
 10
81.4849794239
 20
42.2864021601
 30
0.0
 10
81.4849794239
 20
42.2910530891
 30
0.0
  0
SPLINE
  5
28F
100
AcDbEntity
  8
0
100
AcDbSpline
 62
7
  6
BYLAYER
 70
0
 71
3
 72
9
 73
5
 74
0
 42
0.0000001
 43
0.0000001
 44
0.0000000001
 40
0.0
 40
0.0
 40
0.0
 40
0.0
 40
0.4981381852
 40
1.0
 40
1.0
 40
1.0
 40
1.0
 10
81.4849794239
 20
42.2910530891
 30
0.0
 10
81.4849794239
 20
42.126143089
 30
0.0
 10
81.43870516
 20
41.793499306
 30
0.0
 10
81.3034821868
 20
41.4862637261
 30
0.0
 10
81.2169314058
 20
41.344445656
 30
0.0
  0
SPLINE
  5
290
100
AcDbEntity
  8
0
100
AcDbSpline
 62
7
  6
BYLAYER
 70
0
 71
3
 72
11
 73
7
 74
0
 42
0.0000001
 43
0.0000001
 44
0.0000000001
 40
0.0
 40
0.0
 40
0.0
 40
0.0
 40
0.2454275834
 40
0.4943739444
 40
0.7463274147
 40
1.0
 40
1.0
 40
1.0
 40
1.0
 10
81.2169314058
 20
41.344445656
 30
0.0
 10
81.12930239
 20
41.2008608405
 30
0.0
 10
80.9125174017
 20
40.9343474035
 30
0.0
 10
80.4935324199
 20
40.6314817665
 30
0.0
 10
80.0069263951
 20
40.4412869948
 30
0.0
 10
79.6588429237
 20
40.3981729476
 30
0.0
 10
79.4849794239
 20
40.3981729476
 30
0.0
  0
SPLINE
  5
291
100
AcDbEntity
  8
0
100
AcDbSpline
 62
7
  6
BYLAYER
 70
0
 71
3
 72
15
 73
11
 74
0
 42
0.0000001
 43
0.0000001
 44
0.0000000001
 40
0.0
 40
0.0
 40
0.0
 40
0.0
 40
0.1487866449
 40
0.2944742289
 40
0.434287132
 40
0.5660461701
 40
0.6884101306
 40
0.8009727422
 40
0.904341596
 40
1.0
 40
1.0
 40
1.0
 40
1.0
 10
65.844979424
 20
40.3981729476
 30
0.0
 10
65.5395965744
 20
40.3981767614
 30
0.0
 10
64.9350791999
 20
40.4130709672
 30
0.0
 10
64.0458586988
 20
40.4805365509
 30
0.0
 10
63.1964543686
 20
40.5941474328
 30
0.0
 10
62.403380025
 20
40.7553085173
 30
0.0
 10
61.6795701515
 20
40.9652320876
 30
0.0
 10
61.0341925965
 20
41.225272487
 30
0.0
 10
60.4728859244
 20
41.5354481063
 30
0.0
 10
60.1461137851
 20
41.7837635637
 30
0.0
 10
60.0001453892
 20
41.9150713773
 30
0.0
  0
SPLINE
  5
292
100
AcDbEntity
  8
0
100
AcDbSpline
 62
7
  6
BYLAYER
 70
0
 71
3
 72
14
 73
10
 74
0
 42
0.0000001
 43
0.0000001
 44
0.0000000001
 40
0.0
 40
0.0
 40
0.0
 40
0.0
 40
0.1437791993
 40
0.2830850678
 40
0.4172370098
 40
0.5456371559
 40
0.6677542539
 40
0.7838363532
 40
1.0
 40
1.0
 40
1.0
 40
1.0
 10
60.0565024614
 20
45.1733575965
 30
0.0
 10
60.1193035388
 20
45.2097043124
 30
0.0
 10
60.2393711795
 20
45.2877872981
 30
0.0
 10
60.4013015595
 20
45.4231741768
 30
0.0
 10
60.540237938
 20
45.5716214344
 30
0.0
 10
60.6544681349
 20
45.7292407645
 30
0.0
 10
60.7420811734
 20
45.892952817
 30
0.0
 10
60.8205633397
 20
46.1089496772
 30
0.0
 10
60.8449794239
 20
46.2776576388
 30
0.0
 10
60.8449794239
 20
46.3867484628
 30
0.0
  0
SPLINE
  5
293
100
AcDbEntity
  8
0
100
AcDbSpline
 62
7
  6
BYLAYER
 70
0
 71
3
 72
15
 73
11
 74
0
 42
0.0000001
 43
0.0000001
 44
0.0000000001
 40
0.0
 40
0.0
 40
0.0
 40
0.0
 40
0.0950775189
 40
0.1992584482
 40
0.3151384231
 40
0.4425380083
 40
0.5796144907
 40
0.7218621008
 40
0.8635819439
 40
1.0
 40
1.0
 40
1.0
 40
1.0
 10
60.844979424
 20
78.83415739
 30
0.0
 10
60.8449794253
 20
78.9189570277
 30
0.0
 10
60.8206552675
 20
79.0974166227
 30
0.0
 10
60.7102360583
 20
79.3592945276
 30
0.0
 10
60.5195958625
 20
79.6073340929
 30
0.0
 10
60.2586810444
 20
79.8278386256
 30
0.0
 10
59.9390699458
 20
80.0035785048
 30
0.0
 10
59.5841109336
 20
80.1305542567
 30
0.0
 10
59.2149682905
 20
80.202836104
 30
0.0
 10
58.9666506861
 20
80.2186863645
 30
0.0
 10
58.8449794239
 20
80.2186864035
 30
0.0
  0
SPLINE
  5
294
100
AcDbEntity
  8
0
100
AcDbSpline
 62
7
  6
BYLAYER
 70
0
 71
3
 72
19
 73
15
 74
0
 42
0.0000001
 43
0.0000001
 44
0.0000000001
 40
0.0
 40
0.0
 40
0.0
 40
0.0
 40
0.0069434903
 40
0.0221105745
 40
0.046335023
 40
0.0795883341
 40
0.1215859342
 40
0.1719855262
 40
0.2303112872
 40
0.2960034022
 40
0.4469724951
 40
0.6190696513
 40
0.8058899519
 40
1.0
 40
1.0
 40
1.0
 40
1.0
 10
81.4849794239
 20
83.6503517305
 30
0.0
 10
81.4849794245
 20
83.6457008016
 30
0.0
 10
81.4692025928
 20
83.6361146805
 30
0.0
 10
81.4416005605
 20
83.6286911193
 30
0.0
 10
81.3926042424
 20
83.6187382261
 30
0.0
 10
81.3270883705
 20
83.6099411256
 30
0.0
 10
81.2431944604
 20
83.6009272564
 30
0.0
 10
81.1426552708
 20
83.5924883125
 30
0.0
 10
81.0260730374
 20
83.5844898725
 30
0.0
 10
80.8421752117
 20
83.5741649776
 30
0.0
 10
80.5819723445
 20
83.5635328717
 30
0.0
 10
80.2405548944
 20
83.554352172
 30
0.0
 10
79.8701580201
 20
83.548695746
 30
0.0
 10
79.6149993615
 20
83.5474227951
 30
0.0
 10
79.4849794447
 20
83.547422795
 30
0.0
  0
SPLINE
  5
295
100
AcDbEntity
  8
0
100
AcDbSpline
 62
7
  6
BYLAYER
 70
0
 71
3
 72
13
 73
9
 74
0
 42
0.0000001
 43
0.0000001
 44
0.0000000001
 40
0.0
 40
0.0
 40
0.0
 40
0.0
 40
0.2603268479
 40
0.5143317058
 40
0.6385022288
 40
0.7604371886
 40
0.8807331049
 40
1.0
 40
1.0
 40
1.0
 40
1.0
 10
79.4849793697
 20
85.4668257261
 30
0.0
 10
79.7442495935
 20
85.4668257299
 30
0.0
 10
80.2610875933
 20
85.3754785973
 30
0.0
 10
80.8201114107
 20
85.040019186
 30
0.0
 10
81.1565638907
 20
84.6687750144
 30
0.0
 10
81.3436534013
 20
84.3523279456
 30
0.0
 10
81.4588825221
 20
84.0085034799
 30
0.0
 10
81.4849794241
 20
83.7691345451
 30
0.0
 10
81.4849794239
 20
83.6503517349
 30
0.0
  0
SPLINE
  5
296
100
AcDbEntity
  8
0
100
AcDbSpline
 62
7
  6
BYLAYER
 70
0
 71
3
 72
9
 73
5
 74
0
 42
0.0000001
 43
0.0000001
 44
0.0000000001
 40
0.0
 40
0.0
 40
0.0
 40
0.0
 40
0.51052587
 40
1.0
 40
1.0
 40
1.0
 40
1.0
 10
57.3772241999
 20
76.3910956553
 30
0.0
 10
57.4263052219
 20
76.3363107455
 30
0.0
 10
57.5063075656
 20
76.2132019404
 30
0.0
 10
57.5443850302
 20
76.0716703832
 30
0.0
 10
57.5523856489
 20
76.0016037853
 30
0.0
  0
SPLINE
  5
297
100
AcDbEntity
  8
0
100
AcDbSpline
 62
7
  6
BYLAYER
 70
0
 71
3
 72
9
 73
5
 74
0
 42
0.0000001
 43
0.0000001
 44
0.0000000001
 40
0.0
 40
0.0
 40
0.0
 40
0.0
 40
0.5322407624
 40
1.0
 40
1.0
 40
1.0
 40
1.0
 10
57.3775668863
 20
73.0495747451
 30
0.0
 10
57.3808681956
 20
73.0241633114
 30
0.0
 10
57.3999803727
 20
72.9772164258
 30
0.0
 10
57.4382701271
 20
72.94517475
 30
0.0
 10
57.4582790677
 20
72.9348396336
 30
0.0
  0
SPLINE
  5
298
100
AcDbEntity
  8
0
100
AcDbSpline
 62
7
  6
BYLAYER
 70
0
 71
3
 72
11
 73
7
 74
0
 42
0.0000001
 43
0.0000001
 44
0.0000000001
 40
0.0
 40
0.0
 40
0.0
 40
0.0
 40
0.2498364488
 40
0.4997537503
 40
0.7498573315
 40
1.0
 40
1.0
 40
1.0
 40
1.0
 10
11.8149794239
 20
45.0197733665
 30
0.0
 10
12.0000106531
 20
45.0197733665
 30
0.0
 10
12.3728446962
 20
45.0825925015
 30
0.0
 10
12.8708247904
 20
45.3465510535
 30
0.0
 10
13.2734181051
 20
45.7387465275
 30
0.0
 10
13.4691493713
 20
46.0578009919
 30
0.0
 10
13.548424806
 20
46.2252403506
 30
0.0
  0
SPLINE
  5
299
100
AcDbEntity
  8
0
100
AcDbSpline
 62
7
  6
BYLAYER
 70
0
 71
3
 72
11
 73
7
 74
0
 42
0.0000001
 43
0.0000001
 44
0.0000000001
 40
0.0
 40
0.0
 40
0.0
 40
0.0
 40
0.2503762806
 40
0.5007864914
 40
0.7506287537
 40
1.0
 40
1.0
 40
1.0
 40
1.0
 10
10.4249794239
 20
45.3779459253
 30
0.0
 10
10.4249794239
 20
45.3349975263
 30
0.0
 10
10.4378947836
 20
45.2484884919
 30
0.0
 10
10.4969634433
 20
45.1313895768
 30
0.0
 10
10.5952896564
 20
45.0429309179
 30
0.0
 10
10.6822034238
 20
45.0197733665
 30
0.0
 10
10.7249794239
 20
45.0197733665
 30
0.0
  0
SPLINE
  5
29A
100
AcDbEntity
  8
0
100
AcDbSpline
 62
7
  6
BYLAYER
 70
0
 71
3
 72
18
 73
14
 74
0
 42
0.0000001
 43
0.0000001
 44
0.0000000001
 40
0.0
 40
0.0
 40
0.0
 40
0.0
 40
0.149371748
 40
0.2914978949
 40
0.3582607526
 40
0.4217913859
 40
0.5397307011
 40
0.5955863535
 40
0.6504460969
 40
0.7052224276
 40
0.7607427343
 40
0.8762432157
 40
1.0
 40
1.0
 40
1.0
 40
1.0
 10
65.844979426
 20
42.1881132923
 30
0.0
 10
65.4722262335
 20
42.1881266774
 30
0.0
 10
64.7441898255
 20
42.2285323113
 30
0.0
 10
63.8611670306
 20
42.3881492705
 30
0.0
 10
63.2115335915
 20
42.5918278708
 30
0.0
 10
62.6402277008
 20
42.8326622771
 30
0.0
 10
62.133058488
 20
43.1524624582
 30
0.0
 10
61.7226773826
 20
43.5512818771
 30
0.0
 10
61.4683917944
 20
43.878418409
 30
0.0
 10
61.2617932172
 20
44.2364444244
 30
0.0
 10
61.0436097178
 20
44.7573758031
 30
0.0
 10
60.8788770106
 20
45.47980618
 30
0.0
 10
60.8449880441
 20
46.0779098072
 30
0.0
 10
60.8449794238
 20
46.3867415446
 30
0.0
  0
SPLINE
  5
29B
100
AcDbEntity
  8
0
100
AcDbSpline
 62
7
  6
BYLAYER
 70
0
 71
3
 72
17
 73
13
 74
0
 42
0.0000001
 43
0.0000001
 44
0.0000000001
 40
0.0
 40
0.0
 40
0.0
 40
0.0
 40
0.1281496856
 40
0.2486476901
 40
0.3633302928
 40
0.4198715369
 40
0.4767599785
 40
0.5347824913
 40
0.5946172163
 40
0.7213030861
 40
0.8576361927
 40
1.0
 40
1.0
 40
1.0
 40
1.0
 10
60.8449794238
 20
78.8341597205
 30
0.0
 10
60.8449926849
 20
79.1699192688
 30
0.0
 10
60.8796371311
 20
79.8225487026
 30
0.0
 10
61.0737442028
 20
80.7591788216
 30
0.0
 10
61.3818705373
 20
81.4670290023
 30
0.0
 10
61.7215007012
 20
81.9607024459
 30
0.0
 10
62.0233880393
 20
82.2951841588
 30
0.0
 10
62.3737033766
 20
82.5920170521
 30
0.0
 10
62.9121018219
 20
82.9421144113
 30
0.0
 10
63.6985795398
 20
83.2722937002
 30
0.0
 10
64.7406040989
 20
83.498347503
 30
0.0
 10
65.4719780614
 20
83.5474178618
 30
0.0
 10
65.844979426
 20
83.5474334279
 30
0.0
  0
SPLINE
  5
29C
100
AcDbEntity
  8
0
100
AcDbSpline
 62
7
  6
BYLAYER
 70
0
 71
3
 72
9
 73
5
 74
0
 42
0.0000001
 43
0.0000001
 44
0.0000000001
 40
0.0
 40
0.0
 40
0.0
 40
0.0
 40
0.500145135
 40
1.0
 40
1.0
 40
1.0
 40
1.0
 10
56.7031496139
 20
71.8454837201
 30
0.0
 10
56.7016890576
 20
71.858999331
 30
0.0
 10
56.6999307252
 20
71.8862547999
 30
0.0
 10
56.7041307549
 20
71.9133793083
 30
0.0
 10
56.7075752393
 20
71.9265218363
 30
0.0
  0
SPLINE
  5
29D
100
AcDbEntity
  8
0
100
AcDbSpline
 62
7
  6
BYLAYER
 70
0
 71
3
 72
23
 73
19
 74
0
 42
0.0000001
 43
0.0000001
 44
0.0000000001
 40
0.0
 40
0.0
 40
0.0
 40
0.0
 40
0.1948818908
 40
0.3826393513
 40
0.555452511
 40
0.6342249825
 40
0.7069093733
 40
0.7728208375
 40
0.831278595
 40
0.8817081695
 40
0.9236732505
 40
0.9567477342
 40
0.9698333943
 40
0.9805859437
 40
0.9889879459
 40
0.9950234839
 40
0.9986821605
 40
1.0
 40
1.0
 40
1.0
 40
1.0
 10
54.1694854839
 20
92.1989032559
 30
0.0
 10
54.1701747039
 20
92.2638695541
 30
0.0
 10
54.1713962613
 20
92.391428572
 30
0.0
 10
54.1727782317
 20
92.5766009683
 30
0.0
 10
54.1735220976
 20
92.7230679729
 30
0.0
 10
54.173824642
 20
92.831173156
 30
0.0
 10
54.1739019182
 20
92.9036395548
 30
0.0
 10
54.1738386405
 20
92.9693339029
 30
0.0
 10
54.1736344648
 20
93.027607136
 30
0.0
 10
54.1732948444
 20
93.0779007941
 30
0.0
 10
54.1728195948
 20
93.1197179268
 30
0.0
 10
54.1723047251
 20
93.1491148603
 30
0.0
 10
54.1717794024
 20
93.168048093
 30
0.0
 10
54.1714189746
 20
93.178860685
 30
0.0
 10
54.1709553629
 20
93.1870647859
 30
0.0
 10
54.1706695968
 20
93.1935043495
 30
0.0
 10
54.170025567
 20
93.196403847
 30
0.0
 10
54.1699248021
 20
93.1988423125
 30
0.0
 10
54.1694854839
 20
93.1988469737
 30
0.0
  0
SPLINE
  5
29E
100
AcDbEntity
  8
0
100
AcDbSpline
 62
7
  6
BYLAYER
 70
0
 71
3
 72
11
 73
7
 74
0
 42
0.0000001
 43
0.0000001
 44
0.0000000001
 40
0.0
 40
0.0
 40
0.0
 40
0.0
 40
0.2493190751
 40
0.4989762676
 40
0.7492182241
 40
1.0
 40
1.0
 40
1.0
 40
1.0
 10
54.1694854839
 20
93.1988469737
 30
0.0
 10
54.2885497798
 20
93.1975836921
 30
0.0
 10
54.5286198526
 20
93.1509622534
 30
0.0
 10
54.8388193858
 20
92.9577037938
 30
0.0
 10
55.0615144187
 20
92.6671082483
 30
0.0
 10
55.1321781476
 20
92.4320973572
 30
0.0
 10
55.1457491445
 20
92.3130991394
 30
0.0
  0
SPLINE
  5
29F
100
AcDbEntity
  8
0
100
AcDbSpline
 62
7
  6
BYLAYER
 70
0
 71
3
 72
8
 73
4
 74
0
 42
0.0000001
 43
0.0000001
 44
0.0000000001
 40
0.0
 40
0.0
 40
0.0
 40
0.0
 40
1.0
 40
1.0
 40
1.0
 40
1.0
 10
57.4390877924
 20
55.1414037964
 30
0.0
 10
57.1427176626
 20
55.1410987853
 30
0.0
 10
56.8463472378
 20
55.1412191189
 30
0.0
 10
56.5499769511
 20
55.1412199798
 30
0.0
  0
SPLINE
  5
2A0
100
AcDbEntity
  8
0
100
AcDbSpline
 62
7
  6
BYLAYER
 70
0
 71
3
 72
19
 73
15
 74
0
 42
0.0000001
 43
0.0000001
 44
0.0000000001
 40
0.0
 40
0.0
 40
0.0
 40
0.0
 40
0.0638971168
 40
0.1275899249
 40
0.1904688584
 40
0.2540399561
 40
0.3178192457
 40
0.3810434924
 40
0.4438770062
 40
0.5065639381
 40
0.6315887032
 40
0.7556630942
 40
0.8785478124
 40
1.0
 40
1.0
 40
1.0
 40
1.0
 10
56.5499769511
 20
55.1412199798
 30
0.0
 10
56.5785815389
 20
55.1196335365
 30
0.0
 10
56.6317242664
 20
55.0710249919
 30
0.0
 10
56.6952336965
 20
54.9838523279
 30
0.0
 10
56.7338391178
 20
54.8833622213
 30
0.0
 10
56.7542432807
 20
54.7785047879
 30
0.0
 10
56.7707882876
 20
54.6729335904
 30
0.0
 10
56.7898370139
 20
54.5681671786
 30
0.0
 10
56.8116839998
 20
54.4645650512
 30
0.0
 10
56.8468969836
 20
54.3284977893
 30
0.0
 10
56.8967447038
 20
54.1608713278
 30
0.0
 10
56.949348226
 20
53.9589679347
 30
0.0
 10
57.0008081962
 20
53.758868929
 30
0.0
 10
57.0342632853
 20
53.6259748089
 30
0.0
 10
57.0500577822
 20
53.5597167831
 30
0.0
  0
SPLINE
  5
2A1
100
AcDbEntity
  8
0
100
AcDbSpline
 62
7
  6
BYLAYER
 70
0
 71
3
 72
13
 73
9
 74
0
 42
0.0000001
 43
0.0000001
 44
0.0000000001
 40
0.0
 40
0.0
 40
0.0
 40
0.0
 40
0.2500010483
 40
0.3750006063
 40
0.5000000661
 40
0.6250008741
 40
0.7500012415
 40
1.0
 40
1.0
 40
1.0
 40
1.0
 10
57.950607518
 20
59.5630095457
 30
0.0
 10
57.8669961958
 20
60.5884535572
 30
0.0
 10
57.7329731437
 20
62.1259488158
 30
0.0
 10
57.5315934206
 20
64.1737722663
 30
0.0
 10
57.370342002
 20
65.7085955786
 30
0.0
 10
57.2040560612
 20
67.2428775086
 30
0.0
 10
56.9824522799
 20
69.2885946796
 30
0.0
 10
56.8161464119
 20
70.8228701044
 30
0.0
 10
56.7031496139
 20
71.8454837201
 30
0.0
  0
SPLINE
  5
2A2
100
AcDbEntity
  8
0
100
AcDbSpline
 62
7
  6
BYLAYER
 70
0
 71
3
 72
16
 73
12
 74
0
 42
0.0000001
 43
0.0000001
 44
0.0000000001
 40
0.0
 40
0.0
 40
0.0
 40
0.0
 40
0.176754609
 40
0.3477463772
 40
0.5066348078
 40
0.6484925997
 40
0.7693099547
 40
0.8666196222
 40
0.9066318419
 40
0.9414624417
 40
1.0
 40
1.0
 40
1.0
 40
1.0
 10
59.0249794239
 20
53.5597167831
 30
0.0
 10
59.0899863051
 20
53.5597167831
 30
0.0
 10
59.2179156741
 20
53.5636635503
 30
0.0
 10
59.4035606085
 20
53.5811032523
 30
0.0
 10
59.5748833638
 20
53.6094617644
 30
0.0
 10
59.725440099
 20
53.6475517466
 30
0.0
 10
59.8497704694
 20
53.6937829048
 30
0.0
 10
59.9333586751
 20
53.7403757554
 30
0.0
 10
59.981454631
 20
53.7820406154
 30
0.0
 10
60.0125797541
 20
53.8200128405
 30
0.0
 10
60.0249794239
 20
53.8544884557
 30
0.0
 10
60.0249794239
 20
53.8760174224
 30
0.0
  0
SPLINE
  5
2A3
100
AcDbEntity
  8
0
100
AcDbSpline
 62
7
  6
BYLAYER
 70
0
 71
3
 72
11
 73
7
 74
0
 42
0.0000001
 43
0.0000001
 44
0.0000000001
 40
0.0
 40
0.0
 40
0.0
 40
0.0
 40
0.2507656493
 40
0.5009659749
 40
0.7506321882
 40
1.0
 40
1.0
 40
1.0
 40
1.0
 10
57.858813941
 20
92.2843133061
 30
0.0
 10
57.8452438038
 20
92.403303985
 30
0.0
 10
57.7745951407
 20
92.6382899965
 30
0.0
 10
57.5519264991
 20
92.9288725018
 30
0.0
 10
57.2417380923
 20
93.1221647347
 30
0.0
 10
57.0016379645
 20
93.1687976105
 30
0.0
 10
56.8825502805
 20
93.1700611403
 30
0.0
  0
SPLINE
  5
2A4
100
AcDbEntity
  8
0
100
AcDbSpline
 62
7
  6
BYLAYER
 70
0
 71
3
 72
10
 73
6
 74
0
 42
0.0000001
 43
0.0000001
 44
0.0000000001
 40
0.0
 40
0.0
 40
0.0
 40
0.0
 40
0.2543308841
 40
0.4986345413
 40
1.0
 40
1.0
 40
1.0
 40
1.0
 10
57.0500577822
 20
33.8933716475
 30
0.0
 10
57.0812532833
 20
33.9370445523
 30
0.0
 10
57.1314494952
 20
34.0310431606
 30
0.0
 10
57.1862616944
 20
34.2360501488
 30
0.0
 10
57.1816144791
 20
34.3974244649
 30
0.0
 10
57.1633775254
 20
34.5016413916
 30
0.0
  0
SPLINE
  5
2A5
100
AcDbEntity
  8
0
100
AcDbSpline
 62
7
  6
BYLAYER
 70
0
 71
3
 72
13
 73
9
 74
0
 42
0.0000001
 43
0.0000001
 44
0.0000000001
 40
0.0
 40
0.0
 40
0.0
 40
0.0
 40
0.4051881388
 40
0.5667355262
 40
0.7013421752
 40
0.8098047096
 40
0.8935472426
 40
1.0
 40
1.0
 40
1.0
 40
1.0
 10
57.8588139413
 20
92.2843088899
 30
0.0
 10
57.9008594004
 20
92.2755494229
 30
0.0
 10
57.9594708322
 20
92.2622142059
 30
0.0
 10
58.0308229621
 20
92.2410939374
 30
0.0
 10
58.0711562282
 20
92.2267340302
 30
0.0
 10
58.1029676896
 20
92.212138445
 30
0.0
 10
58.129397612
 20
92.1962813489
 30
0.0
 10
58.1450276632
 20
92.1785043361
 30
0.0
 10
58.1449794239
 20
92.1672209017
 30
0.0
  0
SPLINE
  5
2A6
100
AcDbEntity
  8
0
100
AcDbSpline
 62
7
  6
BYLAYER
 70
0
 71
3
 72
11
 73
7
 74
0
 42
0.0000001
 43
0.0000001
 44
0.0000000001
 40
0.0
 40
0.0
 40
0.0
 40
0.0
 40
0.2728512933
 40
0.5317486226
 40
0.7749298436
 40
1.0
 40
1.0
 40
1.0
 40
1.0
 10
58.1449794239
 20
72.9798582521
 30
0.0
 10
58.0993400019
 20
73.6707827233
 30
0.0
 10
58.0187307271
 20
75.0178696918
 30
0.0
 10
57.9296804532
 20
76.9825117371
 30
0.0
 10
57.8746554863
 20
78.8270832197
 30
0.0
 10
57.8596160397
 20
80.015398277
 30
0.0
 10
57.8596160397
 20
80.5865715762
 30
0.0
  0
SPLINE
  5
2A7
100
AcDbEntity
  8
0
100
AcDbSpline
 62
7
  6
BYLAYER
 70
0
 71
3
 72
13
 73
9
 74
0
 42
0.0000001
 43
0.0000001
 44
0.0000000001
 40
0.0
 40
0.0
 40
0.0
 40
0.0
 40
0.3381782925
 40
0.6209485292
 40
0.739895931
 40
0.843093413
 40
0.929960221
 40
1.0
 40
1.0
 40
1.0
 40
1.0
 10
57.858813941
 20
80.5793614495
 30
0.0
 10
57.858813941
 20
81.3030222181
 30
0.0
 10
57.8824214768
 20
82.6318854683
 30
0.0
 10
57.9609791514
 20
84.2134738284
 30
0.0
 10
58.0386820011
 20
85.2911445249
 30
0.0
 10
58.0903536671
 20
85.9503876548
 30
0.0
 10
58.1304264725
 20
86.5054894169
 30
0.0
 10
58.1449794239
 20
86.8411522397
 30
0.0
 10
58.1449794239
 20
86.9910289215
 30
0.0
  0
SPLINE
  5
2A8
100
AcDbEntity
  8
0
100
AcDbSpline
 62
7
  6
BYLAYER
 70
0
 71
3
 72
10
 73
6
 74
0
 42
0.0000001
 43
0.0000001
 44
0.0000000001
 40
0.0
 40
0.0
 40
0.0
 40
0.0
 40
0.4969983901
 40
0.7477470424
 40
1.0
 40
1.0
 40
1.0
 40
1.0
 10
57.1633775254
 20
51.8950357235
 30
0.0
 10
57.1826438645
 20
52.1716335842
 30
0.0
 10
57.185060553
 20
52.5903685675
 30
0.0
 10
57.1320837138
 20
53.1460150014
 30
0.0
 10
57.0826617813
 20
53.4228175396
 30
0.0
 10
57.0500577822
 20
53.5597167832
 30
0.0
  0
SPLINE
  5
2A9
100
AcDbEntity
  8
0
100
AcDbSpline
 62
7
  6
BYLAYER
 70
0
 71
3
 72
19
 73
15
 74
0
 42
0.0000001
 43
0.0000001
 44
0.0000000001
 40
0.0
 40
0.0
 40
0.0
 40
0.0
 40
0.1591555391
 40
0.3095589518
 40
0.379563803
 40
0.445596342
 40
0.5077302695
 40
0.5663490556
 40
0.6221191966
 40
0.6758715558
 40
0.72851772
 40
0.7809177619
 40
0.8875942411
 40
1.0
 40
1.0
 40
1.0
 40
1.0
 10
65.8449794238
 20
85.4668257273
 30
0.0
 10
65.3170643384
 20
85.4668144844
 30
0.0
 10
64.2894347564
 20
85.4108898485
 30
0.0
 10
63.0452042504
 20
85.1923327529
 30
0.0
 10
62.1340492164
 20
84.9194112782
 30
0.0
 10
61.5227547881
 20
84.6750326907
 30
0.0
 10
60.9727330478
 20
84.3872003339
 30
0.0
 10
60.4875859805
 20
84.0568090462
 30
0.0
 10
60.0687812333
 20
83.6860634589
 30
0.0
 10
59.7165561211
 20
83.2773128165
 30
0.0
 10
59.4291366112
 20
82.8339958033
 30
0.0
 10
59.1268353247
 20
82.1981279882
 30
0.0
 10
58.8940521329
 20
81.3200256228
 30
0.0
 10
58.8449941226
 20
80.5915289943
 30
0.0
 10
58.8449794239
 20
80.218681803
 30
0.0
  0
SPLINE
  5
2AA
100
AcDbEntity
  8
0
100
AcDbSpline
 62
7
  6
BYLAYER
 70
0
 71
3
 72
18
 73
14
 74
0
 42
0.0000001
 43
0.0000001
 44
0.0000000001
 40
0.0
 40
0.0
 40
0.0
 40
0.0
 40
0.1328490041
 40
0.2570717855
 40
0.37452201
 40
0.4892226145
 40
0.5827231771
 40
0.6191515021
 40
0.6520190487
 40
0.692577201
 40
0.7607785981
 40
0.8669487695
 40
1.0
 40
1.0
 40
1.0
 40
1.0
 10
57.0500577822
 20
33.8933716475
 30
0.0
 10
57.0347641814
 20
33.8719703537
 30
0.0
 10
57.0028953396
 20
33.8321460387
 30
0.0
 10
56.9512558647
 20
33.7787874692
 30
0.0
 10
56.8970069572
 20
33.7333889229
 30
0.0
 10
56.8427340486
 20
33.698372408
 30
0.0
 10
56.8003353817
 20
33.6748845752
 30
0.0
 10
56.7713689959
 20
33.6607479774
 30
0.0
 10
56.7519840539
 20
33.6508544349
 30
0.0
 10
56.7255968097
 20
33.6411066179
 30
0.0
 10
56.6838922378
 20
33.6321803486
 30
0.0
 10
56.6237035931
 20
33.6230074145
 30
0.0
 10
56.5763196839
 20
33.620023062
 30
0.0
 10
56.5499769511
 20
33.6197435635
 30
0.0
  0
SPLINE
  5
2AB
100
AcDbEntity
  8
0
100
AcDbSpline
 62
7
  6
BYLAYER
 70
0
 71
3
 72
23
 73
19
 74
0
 42
0.0000001
 43
0.0000001
 44
0.0000000001
 40
0.0
 40
0.0
 40
0.0
 40
0.0
 40
0.0013178395
 40
0.0049765161
 40
0.0110120541
 40
0.0194140563
 40
0.0301666057
 40
0.0432522658
 40
0.0763267495
 40
0.1182918305
 40
0.168721405
 40
0.2271791625
 40
0.2930906267
 40
0.3657750175
 40
0.444547489
 40
0.6173606487
 40
0.8051181092
 40
1.0
 40
1.0
 40
1.0
 40
1.0
 10
54.1694854839
 20
33.5944863596
 30
0.0
 10
54.1699248021
 20
33.5944910208
 30
0.0
 10
54.170025567
 20
33.5969294863
 30
0.0
 10
54.1706695968
 20
33.5998289838
 30
0.0
 10
54.1709553629
 20
33.6062685474
 30
0.0
 10
54.1714189746
 20
33.6144726483
 30
0.0
 10
54.1717794024
 20
33.6252852403
 30
0.0
 10
54.1723047251
 20
33.644218473
 30
0.0
 10
54.1728195948
 20
33.6736154066
 30
0.0
 10
54.1732948444
 20
33.7154325392
 30
0.0
 10
54.1736344648
 20
33.7657261973
 30
0.0
 10
54.1738386405
 20
33.8239994304
 30
0.0
 10
54.1739019182
 20
33.8896937786
 30
0.0
 10
54.173824642
 20
33.9621601773
 30
0.0
 10
54.1735220976
 20
34.0702653604
 30
0.0
 10
54.1727782317
 20
34.216732365
 30
0.0
 10
54.1713962613
 20
34.4019047614
 30
0.0
 10
54.1701747039
 20
34.5294637792
 30
0.0
 10
54.1694854839
 20
34.5944300775
 30
0.0
  0
SPLINE
  5
2AC
100
AcDbEntity
  8
0
100
AcDbSpline
 62
7
  6
BYLAYER
 70
0
 71
3
 72
9
 73
5
 74
0
 42
0.0000001
 43
0.0000001
 44
0.0000000001
 40
0.0
 40
0.0
 40
0.0
 40
0.0
 40
0.5213247816
 40
1.0
 40
1.0
 40
1.0
 40
1.0
 10
56.7373432798
 20
81.816664006
 30
0.0
 10
56.7767692414
 20
81.8842702751
 30
0.0
 10
56.831614014
 20
82.0275201565
 30
0.0
 10
56.8373202226
 20
82.1802079029
 30
0.0
 10
56.8291678192
 20
82.2516037846
 30
0.0
  0
SPLINE
  5
2AD
100
AcDbEntity
  8
0
100
AcDbSpline
 62
7
  6
BYLAYER
 70
0
 71
3
 72
11
 73
7
 74
0
 42
0.0000001
 43
0.0000001
 44
0.0000000001
 40
0.0
 40
0.0
 40
0.0
 40
0.0
 40
0.2507817766
 40
0.5010237333
 40
0.7506809257
 40
1.0
 40
1.0
 40
1.0
 40
1.0
 10
55.1457491445
 20
34.4802341939
 30
0.0
 10
55.1321781475
 20
34.3612359759
 30
0.0
 10
55.0615144184
 20
34.1262250843
 30
0.0
 10
54.8388193849
 20
33.8356295387
 30
0.0
 10
54.5286198518
 20
33.6423710797
 30
0.0
 10
54.2885497795
 20
33.5957496413
 30
0.0
 10
54.1694854839
 20
33.5944863596
 30
0.0
  0
SPLINE
  5
2AE
100
AcDbEntity
  8
0
100
AcDbSpline
 62
7
  6
BYLAYER
 70
0
 71
3
 72
18
 73
14
 74
0
 42
0.0000001
 43
0.0000001
 44
0.0000000001
 40
0.0
 40
0.0
 40
0.0
 40
0.0
 40
0.0383481123
 40
0.0767211118
 40
0.1530700429
 40
0.2291885815
 40
0.3046424195
 40
0.3791600296
 40
0.4524553791
 40
0.5939972904
 40
0.8428186148
 40
0.9375564208
 40
1.0
 40
1.0
 40
1.0
 40
1.0
 10
56.7031459971
 20
71.8454833248
 30
0.0
 10
56.6961394499
 20
71.8619760986
 30
0.0
 10
56.6845049869
 20
71.896113331
 30
0.0
 10
56.676228432
 20
71.9678755361
 30
0.0
 10
56.6979153451
 20
72.0566245224
 30
0.0
 10
56.745476941
 20
72.1519596662
 30
0.0
 10
56.8000400771
 20
72.2425345379
 30
0.0
 10
56.857494562
 20
72.3296202345
 30
0.0
 10
56.9343208467
 20
72.4408938036
 30
0.0
 10
57.0606269225
 20
72.616938762
 30
0.0
 10
57.195276664
 20
72.7992987451
 30
0.0
 10
57.3077172765
 20
72.9520979039
 30
0.0
 10
57.3510653971
 20
73.0113992961
 30
0.0
 10
57.3677926933
 20
73.0353073498
 30
0.0
  0
LINE
  5
2AF
100
AcDbEntity
  8
0
100
AcDbLine
 62
7
  6
BYLAYER
 10
57.3677926933
 20
73.0353073498
 11
57.3775654364
 21
73.049572644
  0
SPLINE
  5
2B0
100
AcDbEntity
  8
0
100
AcDbSpline
 62
7
  6
BYLAYER
 70
0
 71
3
 72
16
 73
12
 74
0
 42
0.0000001
 43
0.0000001
 44
0.0000000001
 40
0.0
 40
0.0
 40
0.0
 40
0.0
 40
0.1496280976
 40
0.2274757949
 40
0.304963992
 40
0.4566999174
 40
0.6011493353
 40
0.7342201261
 40
0.8503800067
 40
0.942055018
 40
1.0
 40
1.0
 40
1.0
 40
1.0
 10
56.7075832323
 20
71.9265121076
 30
0.0
 10
56.69966204
 20
71.9902953243
 30
0.0
 10
56.753881976
 20
72.0865321466
 30
0.0
 10
56.8332685556
 20
72.1874813463
 30
0.0
 10
56.9199320956
 20
72.2878174793
 30
0.0
 10
57.0290788809
 20
72.4051267294
 30
0.0
 10
57.1568499509
 20
72.5381955928
 30
0.0
 10
57.2748571128
 20
72.6592911453
 30
0.0
 10
57.3773472239
 20
72.7638934868
 30
0.0
 10
57.4570252009
 20
72.8456482044
 30
0.0
 10
57.5017273594
 20
72.8918401324
 30
0.0
 10
57.5185590807
 20
72.9101766316
 30
0.0
  0
LINE
  5
2B1
100
AcDbEntity
  8
0
100
AcDbLine
 62
7
  6
BYLAYER
 10
57.5185590807
 20
72.9101766316
 11
57.5255988707
 21
72.91798314
  0
SPLINE
  5
2B2
100
AcDbEntity
  8
0
100
AcDbSpline
 62
7
  6
BYLAYER
 70
0
 71
3
 72
11
 73
7
 74
0
 42
0.0000001
 43
0.0000001
 44
0.0000000001
 40
0.0
 40
0.0
 40
0.0
 40
0.0
 40
0.2560851952
 40
0.508601907
 40
0.7560841986
 40
1.0
 40
1.0
 40
1.0
 40
1.0
 10
59.0249794239
 20
33.8933716475
 30
0.0
 10
59.1548069224
 20
33.8933716475
 30
0.0
 10
59.4152886174
 20
33.9418564044
 30
0.0
 10
59.7473462926
 20
34.1511312562
 30
0.0
 10
59.9719540815
 20
34.466317545
 30
0.0
 10
60.0249794239
 20
34.7183726698
 30
0.0
 10
60.0249794239
 20
34.8420306513
 30
0.0
  0
ELLIPSE
  5
2B3
100
AcDbEntity
  8
0
100
AcDbEllipse
 62
7
  6
BYLAYER
 10
61.8378707799
 20
63.3966666667
 30
0.0
 11
3.646583379
 21
31.0972134117
 31
0.0
 40
0.1141657201
 41
-4.3201790507
 42
-3.5070291266
  0
ENDSEC
  0
SECTION
  2
OBJECTS
  0
DICTIONARY
  5
C
100
AcDbDictionary
280
0
281
1
  3
ACAD_GROUP
350
D
  3
ACAD_MLINESTYLE
350
17
  3
ACAD_LAYOUT
350
1A
  3
ACAD_PLOTSETTINGS
350
19
  3
ACAD_PLOTSTYLENAME
350
E
  0
DICTIONARY
  5
D
102
{ACAD_REACTORS
330
C
102
}
100
AcDbDictionary
280
0
281
1
  0
ACDBDICTIONARYWDFLT
  5
E
102
{ACAD_REACTORS
330
C
102
}
100
AcDbDictionary
281
1
  3
Normal
350
F
100
AcDbDictionaryWithDefault
340
F
  0
DICTIONARY
  5
17
102
{ACAD_REACTORS
330
C
102
}
100
AcDbDictionary
280
0
281
1
  3
Standard
350
18
  0
DICTIONARY
  5
19
102
{ACAD_REACTORS
330
C
102
}
100
AcDbDictionary
281
1
  0
DICTIONARY
  5
1A
102
{ACAD_REACTORS
330
C
102
}
100
AcDbDictionary
281
1
  3
Model
350
2B4
  3
Layout1
350
2B5
  0
ACDBPLACEHOLDER
  5
F
102
{ACAD_REACTORS
330
E
102
}
  0
MLINESTYLE
  5
18
102
{ACAD_REACTORS
330
17
102
}
100
AcDbMlineStyle
  2
STANDARD
 70
0
  3

 62
256
 51
90.0
 52
90.0
 71
2
 49
0.5
 62
256
  6
BYLAYER
 49
-0.5
 62
256
  6
BYLAYER
  0
LAYOUT
  5
2B4
102
{ACAD_REACTORS
330
1A
102
}
100
AcDbPlotSettings
  1

  2
none_device
  4

  6

 40
0.0
 41
0.0
 42
0.0
 43
0.0
 44
210.0
 45
297.0
 46
0.0
 47
0.0
 48
0.0
 49
0.0
140
0.0
141
0.0
142
1.0
143
1.0
 70
1024
 72
1
 73
0
 74
0
  7

 75
0
147
1.0
148
0.0
149
0.0
100
AcDbLayout
  1
Model
 70
0
 71
0
 10
0.0
 20
0.0
 11
210.0
 21
297.0
 12
0.0
 22
0.0
 32
0.0
 14
0.0
 24
0.0
 34
0.0
 15
0.0
 25
0.0
 35
0.0
146
0.0
 13
0.0
 23
0.0
 33
0.0
 16
1.0
 26
0.0
 36
0.0
 17
0.0
 27
1.0
 37
0.0
 76
0
330
210
345
0
346
0
  0
LAYOUT
  5
2B5
102
{ACAD_REACTORS
330
1A
102
}
100
AcDbPlotSettings
  1

  2
none_device
  4

  6

 40
0.0
 41
0.0
 42
0.0
 43
0.0
 44
210.0
 45
297.0
 46
0.0
 47
0.0
 48
0.0
 49
0.0
140
0.0
141
0.0
142
1.0
143
1.0
 70
0
 72
1
 73
0
 74
0
  7

 75
0
147
1.0
148
0.0
149
0.0
100
AcDbLayout
  1
Layout1
 70
0
 71
1
 10
0.0
 20
0.0
 11
210.0
 21
297.0
 12
0.0
 22
0.0
 32
0.0
 14
0.0
 24
0.0
 34
0.0
 15
0.0
 25
0.0
 35
0.0
146
0.0
 13
0.0
 23
0.0
 33
0.0
 16
1.0
 26
0.0
 36
0.0
 17
0.0
 27
1.0
 37
0.0
 76
0
330
211
345
0
346
0
  0
ENDSEC
  0
EOF
