999
DXF file: C:\Users\sesa63760\Dev\_Creo\CAD\MCADUE0002059_3D-CAD\drw0001_7.dxf
999
Pro/ENGINEER 2019471 by Parametric Technology Corporation
  0
SECTION
  2
HEADER
  9
$ACADVER
  1
AC1024
  9
$DWGCODEPAGE
  3
ANSI_1252
  9
$EXTMAX
 10
688.9143071856
 20
974.3216630197
 30
0.0
  9
$EXTMIN
 10
0.0
 20
0.0
 30
0.0
  9
$LIMMIN
 10
0.0
 20
0.0
  9
$LIMMAX
 10
688.9143071856
 20
974.3216630197
  9
$VIEWCTR
 10
344.4571535928
 20
487.1608315098
  9
$VIEWSIZE
 40
974.3216630197
  9
$CLAYER
  8
0
  9
$LTSCALE
 40
63.5113380339
  9
$CELTYPE
  6
BYLAYER
  9
$DIMSCALE
 40
1.0
  9
$DIMASZ
 40
8.2013607998
  9
$DIMEXO
 40
1.0
  9
$DIMDLI
 40
43.8805608234
  9
$DIMEXE
 40
1.0
  9
$DIMCEN
 40
10.3927644055
  9
$DIMLFAC
 40
1.0
  9
$DIMBLK
  1
_FILLED
  9
$DIMALT
 70
0
  9
$DIMALTF
 40
0.0393700787
  9
$DIMTXT
 40
11.4819051198
  9
$DIMTOL
 70
1
  9
$DIMLIM
 70
0
  9
$DIMTFAC
 40
1.0
  9
$DIMTP
 40
0.01
  9
$DIMTM
 40
0.01
  9
$DIMGAP
 40
0.625
  9
$DIMDSEP
 70
46
  9
$AUNITS
 70
0
  9
$PDMODE
 70
3
  9
$PDSIZE
 40
0.3125
  9
$HANDSEED
  5
42B
  9
$TILEMODE
 70
1
  9
$MEASUREMENT
 70
1
  9
$INSUNITS
 70
4
  0
ENDSEC
  0
SECTION
  2
CLASSES
  0
CLASS
  1
ACDBDICTIONARYWDFLT
  2
AcDbDictionaryWithDefault
  3
AutoCAD 2000
 90
0
 91
1
280
0
281
0
  0
CLASS
  1
ACDBPLACEHOLDER
  2
AcDbPlaceHolder
  3
AutoCAD 2000
 90
0
 91
1
280
0
281
0
  0
CLASS
  1
LAYOUT
  2
AcDbLayout
  3
AutoCAD 2000
 90
0
 91
0
280
0
281
0
  0
ENDSEC
  0
SECTION
  2
TABLES
  0
TABLE
  2
VPORT
  5
8
100
AcDbSymbolTable
 70
2
  0
VPORT
  5
1F4
100
AcDbSymbolTableRecord
100
AcDbViewportTableRecord
  2
*ACTIVE
 70
0
 10
0.0
 20
0.0
 11
1.0
 21
1.0
 12
344.4571535928
 22
487.1608315098
 13
0.0
 23
0.0
 14
1.0
 24
1.0
 15
0.0
 25
0.0
 16
0.0
 26
0.0
 36
1.0
 17
0.0
 27
0.0
 37
0.0
 40
974.3216630197
 41
0.7070707071
 42
50.0
 43
0.0
 44
0.0
 50
0.0
 51
0.0
 71
0
 72
100
 73
1
 74
1
 75
0
 76
0
 77
0
 78
0
  0
ENDTAB
  0
TABLE
  2
LTYPE
  5
5
100
AcDbSymbolTable
 70
6
  0
LTYPE
  5
14
100
AcDbSymbolTableRecord
100
AcDbLinetypeTableRecord
  2
BYBLOCK
 70
0
  3

 72
65
 73
0
 40
0.0
  0
LTYPE
  5
15
100
AcDbSymbolTableRecord
100
AcDbLinetypeTableRecord
  2
BYLAYER
 70
0
  3

 72
65
 73
0
 40
0.0
  0
LTYPE
  5
16
100
AcDbSymbolTableRecord
100
AcDbLinetypeTableRecord
  2
CONTINUOUS
 70
64
  3
Solid line
 72
65
 73
0
 40
0.0
  0
LTYPE
  5
1F5
100
AcDbSymbolTableRecord
100
AcDbLinetypeTableRecord
  2
CENTER
 70
64
  3
____ _ ____ _ ____ _ ____ _ ____ _ ____ _ ____
 72
65
 73
4
 40
0.6
 49
0.375
 74
0
 49
-0.075
 74
0
 49
0.075
 74
0
 49
-0.075
 74
0
  0
LTYPE
  5
1F6
100
AcDbSymbolTableRecord
100
AcDbLinetypeTableRecord
  2
HIDDEN
 70
64
  3
- - - - - - - - - - - - - - - - - - - -
 72
65
 73
2
 40
0.2
 49
0.1
 74
0
 49
-0.1
 74
0
  0
LTYPE
  5
1F7
100
AcDbSymbolTableRecord
100
AcDbLinetypeTableRecord
  2
PHANTOM
 70
64
  3
_____ _ _ _____ _ _ _____ _ _ _____
 72
65
 73
6
 40
0.8
 49
0.45
 74
0
 49
-0.05
 74
0
 49
0.1
 74
0
 49
-0.05
 74
0
 49
0.1
 74
0
 49
-0.05
 74
0
  0
LTYPE
  5
1F8
100
AcDbSymbolTableRecord
100
AcDbLinetypeTableRecord
  2
DOT
 70
64
  3
. . . . . . . . . . . . . . . . . . . .
 72
65
 73
2
 40
0.2
 49
0.1
 74
0
 49
-0.1
 74
0
  0
LTYPE
  5
1F9
100
AcDbSymbolTableRecord
100
AcDbLinetypeTableRecord
  2
DASHED
 70
64
  3
- - - - - - - - - - - - - - - - - - - -
 72
65
 73
2
 40
0.2
 49
0.1
 74
0
 49
-0.1
 74
0
  0
ENDTAB
  0
TABLE
  2
LAYER
  5
2
100
AcDbSymbolTable
 70
36
  0
LAYER
  5
10
100
AcDbSymbolTableRecord
100
AcDbLayerTableRecord
  2
0
 70
0
 62
7
  6
CONTINUOUS
370
-3
390
F
  0
LAYER
  5
1FA
100
AcDbSymbolTableRecord
100
AcDbLayerTableRecord
  2
DEFAULT_1
 70
0
 62
7
  6
CENTER
370
-3
390
F
  0
LAYER
  5
1FB
100
AcDbSymbolTableRecord
100
AcDbLayerTableRecord
  2
DEFAULT_2
 70
0
 62
8
  6
HIDDEN
370
-3
390
F
  0
LAYER
  5
1FC
100
AcDbSymbolTableRecord
100
AcDbLayerTableRecord
  2
DEFAULT_3
 70
0
 62
7
  6
PHANTOM
370
-3
390
F
  0
LAYER
  5
1FD
100
AcDbSymbolTableRecord
100
AcDbLayerTableRecord
  2
00_COMPONENTS
 70
0
 62
7
  6
CONTINUOUS
370
-3
390
F
  0
LAYER
  5
1FE
100
AcDbSymbolTableRecord
100
AcDbLayerTableRecord
  2
01_1_DEFAULT_DATUMS
 70
0
 62
7
  6
CONTINUOUS
370
-3
390
F
  0
LAYER
  5
1FF
100
AcDbSymbolTableRecord
100
AcDbLayerTableRecord
  2
01_PLANES
 70
0
 62
7
  6
CONTINUOUS
370
-3
390
F
  0
LAYER
  5
200
100
AcDbSymbolTableRecord
100
AcDbLayerTableRecord
  2
02_COORD_SYS
 70
0
 62
7
  6
CONTINUOUS
370
-3
390
F
  0
LAYER
  5
201
100
AcDbSymbolTableRecord
100
AcDbLayerTableRecord
  2
03_AXES
 70
0
 62
7
  6
CONTINUOUS
370
-3
390
F
  0
LAYER
  5
202
100
AcDbSymbolTableRecord
100
AcDbLayerTableRecord
  2
04_POINTS
 70
0
 62
7
  6
CONTINUOUS
370
-3
390
F
  0
LAYER
  5
203
100
AcDbSymbolTableRecord
100
AcDbLayerTableRecord
  2
05_CURVES
 70
0
 62
7
  6
CONTINUOUS
370
-3
390
F
  0
LAYER
  5
204
100
AcDbSymbolTableRecord
100
AcDbLayerTableRecord
  2
06_SURFS
 70
0
 62
7
  6
CONTINUOUS
370
-3
390
F
  0
LAYER
  5
205
100
AcDbSymbolTableRecord
100
AcDbLayerTableRecord
  2
07_COSMETICS
 70
0
 62
7
  6
CONTINUOUS
370
-3
390
F
  0
LAYER
  5
206
100
AcDbSymbolTableRecord
100
AcDbLayerTableRecord
  2
10_NOTES
 70
0
 62
7
  6
CONTINUOUS
370
-3
390
F
  0
LAYER
  5
207
100
AcDbSymbolTableRecord
100
AcDbLayerTableRecord
  2
11_NOTES_PUB
 70
0
 62
7
  6
CONTINUOUS
370
-3
390
F
  0
LAYER
  5
208
100
AcDbSymbolTableRecord
100
AcDbLayerTableRecord
  2
13_REF_GTOL
 70
0
 62
7
  6
CONTINUOUS
370
-3
390
F
  0
LAYER
  5
209
100
AcDbSymbolTableRecord
100
AcDbLayerTableRecord
  2
16_MISC
 70
0
 62
7
  6
CONTINUOUS
370
-3
390
F
  0
LAYER
  5
20A
100
AcDbSymbolTableRecord
100
AcDbLayerTableRecord
  2
17_NO_PRINT
 70
0
 62
7
  6
CONTINUOUS
370
-3
390
F
  0
LAYER
  5
20B
100
AcDbSymbolTableRecord
100
AcDbLayerTableRecord
  2
18_DATUM_CAMS_JOINTS
 70
0
 62
7
  6
CONTINUOUS
370
-3
390
F
  0
LAYER
  5
20C
100
AcDbSymbolTableRecord
100
AcDbLayerTableRecord
  2
19_DATUM_FUNCTIONAL
 70
0
 62
7
  6
CONTINUOUS
370
-3
390
F
  0
LAYER
  5
20D
100
AcDbSymbolTableRecord
100
AcDbLayerTableRecord
  2
20_DATUM_KINEMATIC_SCHEME
 70
0
 62
7
  6
CONTINUOUS
370
-3
390
F
  0
ENDTAB
  0
TABLE
  2
STYLE
  5
3
100
AcDbSymbolTable
 70
1
  0
STYLE
  5
11
100
AcDbSymbolTableRecord
100
AcDbTextStyleTableRecord
  2
STANDARD
 70
0
 40
0.0
 41
0.8
 50
0.0
 71
0
 42
0.2
  3
txt
  4

  0
STYLE
  5
20E
100
AcDbSymbolTableRecord
100
AcDbTextStyleTableRecord
  2
TEXTSTYLE_1
 70
0
 40
0.0
 41
0.8
 50
0.0
 71
0
 42
0.2
  3
gdt
  4

  0
ENDTAB
  0
TABLE
  2
VIEW
  5
6
100
AcDbSymbolTable
 70
0
  0
ENDTAB
  0
TABLE
  2
UCS
  5
7
100
AcDbSymbolTable
 70
0
  0
ENDTAB
  0
TABLE
  2
APPID
  5
9
100
AcDbSymbolTable
 70
1
  0
APPID
  5
20F
100
AcDbSymbolTableRecord
100
AcDbRegAppTableRecord
  2
ACAD
 70
0
  0
ENDTAB
  0
TABLE
  2
BLOCK_RECORD
  5
1
100
AcDbSymbolTable
 70
0
  0
BLOCK_RECORD
  5
210
100
AcDbSymbolTableRecord
100
AcDbBlockTableRecord
  2
*Model_Space
  0
BLOCK_RECORD
  5
211
100
AcDbSymbolTableRecord
100
AcDbBlockTableRecord
  2
*Paper_Space
  0
BLOCK_RECORD
  5
212
100
AcDbSymbolTableRecord
100
AcDbBlockTableRecord
  2
_FILLED
  0
ENDTAB
  0
TABLE
  2
DIMSTYLE
  5
A
100
AcDbSymbolTable
 70
1
100
AcDbDimStyleTable
 71
0
  0
DIMSTYLE
105
213
100
AcDbSymbolTableRecord
100
AcDbDimStyleTableRecord
  2
STANDARD
 70
0
  3

  4

 40
1.0
 41
8.2013607998
 42
1.0
 43
0.38
 44
1.0
 45
0.0
 46
0.0
 47
0.01
 48
0.01
140
11.4819051198
141
0.09
142
0.0
143
25.4
144
1.0
145
0.0
146
1.0
147
0.625
 71
1
 72
0
 73
0
 74
0
 75
0
 76
0
 77
1
 78
8
 79
2
170
0
171
1
172
0
173
0
174
0
175
0
176
0
177
0
178
0
270
2
179
2
271
2
272
2
273
2
274
2
275
0
280
0
281
0
282
0
283
1
284
8
285
0
286
0
287
3
288
0
340
11
278
46
341
212
342
212
343
212
344
212
  0
ENDTAB
  0
ENDSEC
  0
SECTION
  2
BLOCKS
  0
BLOCK
  5
20
100
AcDbEntity
  8
0
100
AcDbBlockBegin
  2
*Model_Space
 70
0
 10
0.0
 20
0.0
 30
0.0
  3
*Model_Space
  1

  0
ENDBLK
  5
21
100
AcDbEntity
  8
0
100
AcDbBlockEnd
  0
BLOCK
  5
1C
100
AcDbEntity
  8
0
100
AcDbBlockBegin
  2
*Paper_Space
 70
0
 10
0.0
 20
0.0
 30
0.0
  3
*Paper_Space
  1

  0
ENDBLK
  5
1D
100
AcDbEntity
  8
0
100
AcDbBlockEnd
  0
BLOCK
  5
214
100
AcDbEntity
  8
0
100
AcDbBlockBegin
  2
_FILLED
 70
64
 10
0.0
 20
0.0
  3
_FILLED
  1

  0
SOLID
  5
215
100
AcDbEntity
  8
0
  6
BYBLOCK
 62
0
100
AcDbTrace
 10
0.0
 20
0.0
 11
-1.0
 21
0.25
 12
-1.0
 22
-0.25
 13
-1.0
 23
-0.25
  0
ENDBLK
  5
216
100
AcDbEntity
  8
0
  6
BYBLOCK
 62
0
100
AcDbBlockEnd
  0
ENDSEC
  0
SECTION
  2
ENTITIES
  0
LINE
  5
217
100
AcDbEntity
  8
0
100
AcDbLine
 62
7
  6
CONTINUOUS
 10
73.1497137679
 20
449.54595186
 11
73.1497137679
 21
529.54595186
  0
LINE
  5
218
100
AcDbEntity
  8
0
100
AcDbLine
 62
7
  6
CONTINUOUS
 10
74.6497137679
 20
529.54595186
 11
74.6497137679
 21
449.54595186
  0
LINE
  5
219
100
AcDbEntity
  8
0
100
AcDbLine
 62
7
  6
CONTINUOUS
 10
84.6497137679
 20
529.54595186
 11
84.6497137679
 21
449.54595186
  0
LINE
  5
21A
100
AcDbEntity
  8
0
100
AcDbLine
 62
7
  6
CONTINUOUS
 10
88.1497137679
 20
449.54595186
 11
88.1497137679
 21
529.54595186
  0
LINE
  5
21B
100
AcDbEntity
  8
0
100
AcDbLine
 62
7
  6
CONTINUOUS
 10
92.1997137679
 20
491.4223402348
 11
92.1997137679
 21
487.6695634852
  0
LINE
  5
21C
100
AcDbEntity
  8
0
100
AcDbLine
 62
7
  6
CONTINUOUS
 10
92.2997137745
 20
487.6695635601
 11
92.2997137745
 21
491.4223401598
  0
LINE
  5
21D
100
AcDbEntity
  8
0
100
AcDbLine
 62
7
  6
CONTINUOUS
 10
98.9997137613
 20
491.4223401598
 11
98.9997137613
 21
487.6695635602
  0
LINE
  5
21E
100
AcDbEntity
  8
0
100
AcDbLine
 62
7
  6
CONTINUOUS
 10
99.0997137679
 20
487.6695634852
 11
99.0997137679
 21
491.4223402348
  0
LINE
  5
21F
100
AcDbEntity
  8
0
100
AcDbLine
 62
7
  6
CONTINUOUS
 10
108.1497137679
 20
469.54595186
 11
108.1497137679
 21
509.54595186
  0
LINE
  5
220
100
AcDbEntity
  8
0
100
AcDbLine
 62
7
  6
CONTINUOUS
 10
129.1997137679
 20
533.9223402348
 11
129.1997137679
 21
530.1695634852
  0
LINE
  5
221
100
AcDbEntity
  8
0
100
AcDbLine
 62
7
  6
CONTINUOUS
 10
129.1997137679
 20
448.9223402348
 11
129.1997137679
 21
445.1695634852
  0
LINE
  5
222
100
AcDbEntity
  8
0
100
AcDbLine
 62
7
  6
CONTINUOUS
 10
129.2997137745
 20
445.1695635601
 11
129.2997137745
 21
448.9223401598
  0
LINE
  5
223
100
AcDbEntity
  8
0
100
AcDbLine
 62
7
  6
CONTINUOUS
 10
129.2997137745
 20
530.1695635601
 11
129.2997137745
 21
533.9223401598
  0
LINE
  5
224
100
AcDbEntity
  8
0
100
AcDbLine
 62
7
  6
CONTINUOUS
 10
135.9997137613
 20
533.9223401598
 11
135.9997137613
 21
530.1695635602
  0
LINE
  5
225
100
AcDbEntity
  8
0
100
AcDbLine
 62
7
  6
CONTINUOUS
 10
135.9997137613
 20
448.9223401598
 11
135.9997137613
 21
445.1695635602
  0
LINE
  5
226
100
AcDbEntity
  8
0
100
AcDbLine
 62
7
  6
CONTINUOUS
 10
136.0997137679
 20
445.1695634852
 11
136.0997137679
 21
448.9223402348
  0
LINE
  5
227
100
AcDbEntity
  8
0
100
AcDbLine
 62
7
  6
CONTINUOUS
 10
136.0997137679
 20
530.1695634852
 11
136.0997137679
 21
533.9223402348
  0
LINE
  5
228
100
AcDbEntity
  8
0
100
AcDbLine
 62
7
  6
CONTINUOUS
 10
92.2997137679
 20
487.4963584043
 11
92.3497137712
 21
487.5829609504
  0
LINE
  5
229
100
AcDbEntity
  8
0
100
AcDbLine
 62
7
  6
CONTINUOUS
 10
95.6997137629
 20
493.3853311415
 11
95.7497137679
 21
493.4719336904
  0
LINE
  5
22A
100
AcDbEntity
  8
0
100
AcDbLine
 62
7
  6
CONTINUOUS
 10
98.9997137679
 20
491.5955453156
 11
98.9497137629
 21
491.5089427666
  0
LINE
  5
22B
100
AcDbEntity
  8
0
100
AcDbLine
 62
7
  6
CONTINUOUS
 10
95.5997137712
 20
485.7065725756
 11
95.5497137679
 21
485.6199700295
  0
LINE
  5
22C
100
AcDbEntity
  8
0
100
AcDbLine
 62
7
  6
CONTINUOUS
 10
129.2997137679
 20
529.9963584043
 11
129.3497137712
 21
530.0829609504
  0
LINE
  5
22D
100
AcDbEntity
  8
0
100
AcDbLine
 62
7
  6
CONTINUOUS
 10
132.6997137629
 20
535.8853311415
 11
132.7497137679
 21
535.9719336904
  0
LINE
  5
22E
100
AcDbEntity
  8
0
100
AcDbLine
 62
7
  6
CONTINUOUS
 10
135.9997137679
 20
534.0955453156
 11
135.9497137629
 21
534.0089427666
  0
LINE
  5
22F
100
AcDbEntity
  8
0
100
AcDbLine
 62
7
  6
CONTINUOUS
 10
132.5997137712
 20
528.2065725756
 11
132.5497137679
 21
528.1199700295
  0
LINE
  5
230
100
AcDbEntity
  8
0
100
AcDbLine
 62
7
  6
CONTINUOUS
 10
95.7497137679
 20
485.6199700295
 11
95.6997137646
 21
485.7065725756
  0
LINE
  5
231
100
AcDbEntity
  8
0
100
AcDbLine
 62
7
  6
CONTINUOUS
 10
92.3497137712
 20
491.5089427695
 11
92.2997137679
 21
491.5955453156
  0
LINE
  5
232
100
AcDbEntity
  8
0
100
AcDbLine
 62
7
  6
CONTINUOUS
 10
95.5497137679
 20
493.4719336904
 11
95.5997137712
 21
493.3853311443
  0
LINE
  5
233
100
AcDbEntity
  8
0
100
AcDbLine
 62
7
  6
CONTINUOUS
 10
98.9497137646
 20
487.5829609504
 11
98.9997137679
 21
487.4963584043
  0
LINE
  5
234
100
AcDbEntity
  8
0
100
AcDbLine
 62
7
  6
CONTINUOUS
 10
132.7497137679
 20
443.1199700295
 11
132.6997137646
 21
443.2065725756
  0
LINE
  5
235
100
AcDbEntity
  8
0
100
AcDbLine
 62
7
  6
CONTINUOUS
 10
129.3497137712
 20
449.0089427695
 11
129.2997137679
 21
449.0955453156
  0
LINE
  5
236
100
AcDbEntity
  8
0
100
AcDbLine
 62
7
  6
CONTINUOUS
 10
132.5497137679
 20
450.9719336904
 11
132.5997137712
 21
450.8853311443
  0
LINE
  5
237
100
AcDbEntity
  8
0
100
AcDbLine
 62
7
  6
CONTINUOUS
 10
135.9497137646
 20
445.0829609504
 11
135.9997137679
 21
444.9963584043
  0
LINE
  5
238
100
AcDbEntity
  8
0
100
AcDbLine
 62
7
  6
CONTINUOUS
 10
129.2997137679
 20
444.9963584043
 11
129.3497137712
 21
445.0829609504
  0
LINE
  5
239
100
AcDbEntity
  8
0
100
AcDbLine
 62
7
  6
CONTINUOUS
 10
132.6997137629
 20
450.8853311415
 11
132.7497137679
 21
450.9719336904
  0
LINE
  5
23A
100
AcDbEntity
  8
0
100
AcDbLine
 62
7
  6
CONTINUOUS
 10
135.9997137679
 20
449.0955453156
 11
135.9497137629
 21
449.0089427666
  0
LINE
  5
23B
100
AcDbEntity
  8
0
100
AcDbLine
 62
7
  6
CONTINUOUS
 10
132.5997137712
 20
443.2065725756
 11
132.5497137679
 21
443.1199700295
  0
LINE
  5
23C
100
AcDbEntity
  8
0
100
AcDbLine
 62
7
  6
CONTINUOUS
 10
132.7497137679
 20
528.1199700295
 11
132.6997137646
 21
528.2065725756
  0
LINE
  5
23D
100
AcDbEntity
  8
0
100
AcDbLine
 62
7
  6
CONTINUOUS
 10
129.3497137712
 20
534.0089427695
 11
129.2997137679
 21
534.0955453156
  0
LINE
  5
23E
100
AcDbEntity
  8
0
100
AcDbLine
 62
7
  6
CONTINUOUS
 10
132.5497137679
 20
535.9719336904
 11
132.5997137712
 21
535.8853311443
  0
LINE
  5
23F
100
AcDbEntity
  8
0
100
AcDbLine
 62
7
  6
CONTINUOUS
 10
135.9497137646
 20
530.0829609504
 11
135.9997137679
 21
529.9963584043
  0
LINE
  5
240
100
AcDbEntity
  8
0
100
AcDbLine
 62
7
  6
CONTINUOUS
 10
132.5497137678
 20
535.9719336904
 11
129.2997137679
 21
534.0955453156
  0
LINE
  5
241
100
AcDbEntity
  8
0
100
AcDbLine
 62
7
  6
CONTINUOUS
 10
132.5997137061
 20
535.8853311068
 11
129.3497138361
 21
534.008942807
  0
LINE
  5
242
100
AcDbEntity
  8
0
100
AcDbLine
 62
7
  6
CONTINUOUS
 10
132.6997138296
 20
528.2065726131
 11
135.9497136996
 21
530.0829609129
  0
LINE
  5
243
100
AcDbEntity
  8
0
100
AcDbLine
 62
7
  6
CONTINUOUS
 10
132.7497137679
 20
528.1199700295
 11
135.9997137678
 21
529.9963584043
  0
LINE
  5
244
100
AcDbEntity
  8
0
100
AcDbLine
 62
7
  6
CONTINUOUS
 10
95.5497137678
 20
493.4719336904
 11
92.2997137679
 21
491.5955453156
  0
LINE
  5
245
100
AcDbEntity
  8
0
100
AcDbLine
 62
7
  6
CONTINUOUS
 10
95.5997137061
 20
493.3853311068
 11
92.3497138361
 21
491.508942807
  0
LINE
  5
246
100
AcDbEntity
  8
0
100
AcDbLine
 62
7
  6
CONTINUOUS
 10
129.2997137679
 20
444.9963584043
 11
132.5497137678
 21
443.1199700295
  0
LINE
  5
247
100
AcDbEntity
  8
0
100
AcDbLine
 62
7
  6
CONTINUOUS
 10
129.3497138361
 20
445.0829609129
 11
132.5997137061
 21
443.2065726132
  0
LINE
  5
248
100
AcDbEntity
  8
0
100
AcDbLine
 62
7
  6
CONTINUOUS
 10
135.9497137288
 20
449.0089427825
 11
132.6997138297
 21
450.8853311067
  0
LINE
  5
249
100
AcDbEntity
  8
0
100
AcDbLine
 62
7
  6
CONTINUOUS
 10
135.9997137678
 20
449.0955453156
 11
132.7497137679
 21
450.9719336904
  0
LINE
  5
24A
100
AcDbEntity
  8
0
100
AcDbLine
 62
7
  6
CONTINUOUS
 10
92.2997137679
 20
487.4963584043
 11
95.5497137678
 21
485.6199700295
  0
LINE
  5
24B
100
AcDbEntity
  8
0
100
AcDbLine
 62
7
  6
CONTINUOUS
 10
92.3497138361
 20
487.5829609129
 11
95.5997137061
 21
485.7065726132
  0
LINE
  5
24C
100
AcDbEntity
  8
0
100
AcDbLine
 62
7
  6
CONTINUOUS
 10
235.6997137679
 20
533.9223402348
 11
235.6997137679
 21
530.1695634852
  0
LINE
  5
24D
100
AcDbEntity
  8
0
100
AcDbLine
 62
7
  6
CONTINUOUS
 10
235.6997137679
 20
448.9223402348
 11
235.6997137679
 21
445.1695634852
  0
LINE
  5
24E
100
AcDbEntity
  8
0
100
AcDbLine
 62
7
  6
CONTINUOUS
 10
235.7997137745
 20
445.1695635601
 11
235.7997137745
 21
448.9223401598
  0
LINE
  5
24F
100
AcDbEntity
  8
0
100
AcDbLine
 62
7
  6
CONTINUOUS
 10
235.7997137745
 20
530.1695635601
 11
235.7997137745
 21
533.9223401598
  0
LINE
  5
250
100
AcDbEntity
  8
0
100
AcDbLine
 62
7
  6
CONTINUOUS
 10
235.7997137679
 20
529.9963584043
 11
235.8497137712
 21
530.0829609504
  0
LINE
  5
251
100
AcDbEntity
  8
0
100
AcDbLine
 62
7
  6
CONTINUOUS
 10
239.1997137629
 20
535.8853311415
 11
239.2497137679
 21
535.9719336904
  0
LINE
  5
252
100
AcDbEntity
  8
0
100
AcDbLine
 62
7
  6
CONTINUOUS
 10
242.4997137679
 20
534.0955453156
 11
242.4497137629
 21
534.0089427666
  0
LINE
  5
253
100
AcDbEntity
  8
0
100
AcDbLine
 62
7
  6
CONTINUOUS
 10
239.0997137712
 20
528.2065725756
 11
239.0497137679
 21
528.1199700295
  0
LINE
  5
254
100
AcDbEntity
  8
0
100
AcDbLine
 62
7
  6
CONTINUOUS
 10
95.6997138296
 20
485.7065726131
 11
98.9497136996
 21
487.5829609129
  0
LINE
  5
255
100
AcDbEntity
  8
0
100
AcDbLine
 62
7
  6
CONTINUOUS
 10
95.7497137679
 20
485.6199700295
 11
98.9997137678
 21
487.4963584043
  0
LINE
  5
256
100
AcDbEntity
  8
0
100
AcDbLine
 62
7
  6
CONTINUOUS
 10
98.9497137288
 20
491.5089427825
 11
95.6997138296
 21
493.3853311068
  0
LINE
  5
257
100
AcDbEntity
  8
0
100
AcDbLine
 62
7
  6
CONTINUOUS
 10
98.9997137678
 20
491.5955453156
 11
95.7497137679
 21
493.4719336904
  0
LINE
  5
258
100
AcDbEntity
  8
0
100
AcDbLine
 62
7
  6
CONTINUOUS
 10
239.2497137679
 20
443.1199700295
 11
239.1997137646
 21
443.2065725756
  0
LINE
  5
259
100
AcDbEntity
  8
0
100
AcDbLine
 62
7
  6
CONTINUOUS
 10
235.8497137712
 20
449.0089427695
 11
235.7997137679
 21
449.0955453156
  0
LINE
  5
25A
100
AcDbEntity
  8
0
100
AcDbLine
 62
7
  6
CONTINUOUS
 10
239.0497137679
 20
450.9719336904
 11
239.0997137712
 21
450.8853311443
  0
LINE
  5
25B
100
AcDbEntity
  8
0
100
AcDbLine
 62
7
  6
CONTINUOUS
 10
242.4497137646
 20
445.0829609504
 11
242.4997137679
 21
444.9963584043
  0
LINE
  5
25C
100
AcDbEntity
  8
0
100
AcDbLine
 62
7
  6
CONTINUOUS
 10
242.4997137613
 20
533.9223401598
 11
242.4997137613
 21
530.1695635602
  0
LINE
  5
25D
100
AcDbEntity
  8
0
100
AcDbLine
 62
7
  6
CONTINUOUS
 10
242.4997137613
 20
448.9223401598
 11
242.4997137613
 21
445.1695635602
  0
LINE
  5
25E
100
AcDbEntity
  8
0
100
AcDbLine
 62
7
  6
CONTINUOUS
 10
242.5997137679
 20
445.1695634852
 11
242.5997137679
 21
448.9223402348
  0
LINE
  5
25F
100
AcDbEntity
  8
0
100
AcDbLine
 62
7
  6
CONTINUOUS
 10
242.5997137679
 20
530.1695634852
 11
242.5997137679
 21
533.9223402348
  0
LINE
  5
260
100
AcDbEntity
  8
0
100
AcDbLine
 62
7
  6
CONTINUOUS
 10
239.0497137678
 20
535.9719336904
 11
235.7997137679
 21
534.0955453156
  0
LINE
  5
261
100
AcDbEntity
  8
0
100
AcDbLine
 62
7
  6
CONTINUOUS
 10
239.0997137061
 20
535.8853311068
 11
235.8497138361
 21
534.008942807
  0
LINE
  5
262
100
AcDbEntity
  8
0
100
AcDbLine
 62
7
  6
CONTINUOUS
 10
235.7997137679
 20
444.9963584043
 11
239.0497137678
 21
443.1199700295
  0
LINE
  5
263
100
AcDbEntity
  8
0
100
AcDbLine
 62
7
  6
CONTINUOUS
 10
235.8497138361
 20
445.0829609129
 11
239.0997137061
 21
443.2065726132
  0
LINE
  5
264
100
AcDbEntity
  8
0
100
AcDbLine
 62
7
  6
CONTINUOUS
 10
235.7997137679
 20
444.9963584043
 11
235.8497137712
 21
445.0829609504
  0
LINE
  5
265
100
AcDbEntity
  8
0
100
AcDbLine
 62
7
  6
CONTINUOUS
 10
239.1997137629
 20
450.8853311415
 11
239.2497137679
 21
450.9719336904
  0
LINE
  5
266
100
AcDbEntity
  8
0
100
AcDbLine
 62
7
  6
CONTINUOUS
 10
239.1997138296
 20
528.2065726131
 11
242.4497136996
 21
530.0829609129
  0
LINE
  5
267
100
AcDbEntity
  8
0
100
AcDbLine
 62
7
  6
CONTINUOUS
 10
239.2497137679
 20
528.1199700295
 11
242.4997137678
 21
529.9963584043
  0
LINE
  5
268
100
AcDbEntity
  8
0
100
AcDbLine
 62
7
  6
CONTINUOUS
 10
132.5497137678
 20
450.9719336904
 11
129.2997137679
 21
449.0955453156
  0
LINE
  5
269
100
AcDbEntity
  8
0
100
AcDbLine
 62
7
  6
CONTINUOUS
 10
132.5997137061
 20
450.8853311068
 11
129.3497138361
 21
449.008942807
  0
LINE
  5
26A
100
AcDbEntity
  8
0
100
AcDbLine
 62
7
  6
CONTINUOUS
 10
242.4497137288
 20
449.0089427825
 11
239.1997138297
 21
450.8853311067
  0
LINE
  5
26B
100
AcDbEntity
  8
0
100
AcDbLine
 62
7
  6
CONTINUOUS
 10
242.4997137678
 20
449.0955453156
 11
239.2497137679
 21
450.9719336904
  0
LINE
  5
26C
100
AcDbEntity
  8
0
100
AcDbLine
 62
7
  6
CONTINUOUS
 10
129.2997137679
 20
529.9963584043
 11
132.5497137678
 21
528.1199700295
  0
LINE
  5
26D
100
AcDbEntity
  8
0
100
AcDbLine
 62
7
  6
CONTINUOUS
 10
129.3497138361
 20
530.0829609129
 11
132.5997137061
 21
528.2065726132
  0
LINE
  5
26E
100
AcDbEntity
  8
0
100
AcDbLine
 62
7
  6
CONTINUOUS
 10
239.2497137679
 20
528.1199700295
 11
239.1997137646
 21
528.2065725756
  0
LINE
  5
26F
100
AcDbEntity
  8
0
100
AcDbLine
 62
7
  6
CONTINUOUS
 10
235.8497137712
 20
534.0089427695
 11
235.7997137679
 21
534.0955453156
  0
LINE
  5
270
100
AcDbEntity
  8
0
100
AcDbLine
 62
7
  6
CONTINUOUS
 10
242.4997137679
 20
449.0955453156
 11
242.4497137629
 21
449.0089427666
  0
LINE
  5
271
100
AcDbEntity
  8
0
100
AcDbLine
 62
7
  6
CONTINUOUS
 10
239.0997137712
 20
443.2065725756
 11
239.0497137679
 21
443.1199700295
  0
LINE
  5
272
100
AcDbEntity
  8
0
100
AcDbLine
 62
7
  6
CONTINUOUS
 10
132.6997138296
 20
443.2065726131
 11
135.9497136996
 21
445.0829609129
  0
LINE
  5
273
100
AcDbEntity
  8
0
100
AcDbLine
 62
7
  6
CONTINUOUS
 10
132.7497137679
 20
443.1199700295
 11
135.9997137678
 21
444.9963584043
  0
LINE
  5
274
100
AcDbEntity
  8
0
100
AcDbLine
 62
7
  6
CONTINUOUS
 10
593.1497137679
 20
424.54595186
 11
98.1497137679
 21
424.54595186
  0
LINE
  5
275
100
AcDbEntity
  8
0
100
AcDbLine
 62
7
  6
CONTINUOUS
 10
98.1497137679
 20
426.04595186
 11
593.1497137679
 21
426.04595186
  0
LINE
  5
276
100
AcDbEntity
  8
0
100
AcDbLine
 62
7
  6
CONTINUOUS
 10
135.9497137288
 20
534.0089427825
 11
132.6997138297
 21
535.8853311067
  0
LINE
  5
277
100
AcDbEntity
  8
0
100
AcDbLine
 62
7
  6
CONTINUOUS
 10
135.9997137678
 20
534.0955453156
 11
132.7497137679
 21
535.9719336904
  0
LINE
  5
278
100
AcDbEntity
  8
0
100
AcDbLine
 62
7
  6
CONTINUOUS
 10
239.0497137679
 20
535.9719336904
 11
239.0997137712
 21
535.8853311443
  0
LINE
  5
279
100
AcDbEntity
  8
0
100
AcDbLine
 62
7
  6
CONTINUOUS
 10
242.4497137646
 20
530.0829609504
 11
242.4997137679
 21
529.9963584043
  0
LINE
  5
27A
100
AcDbEntity
  8
0
100
AcDbLine
 62
7
  6
CONTINUOUS
 10
345.5497137678
 20
535.9719336904
 11
342.2997137679
 21
534.0955453156
  0
LINE
  5
27B
100
AcDbEntity
  8
0
100
AcDbLine
 62
7
  6
CONTINUOUS
 10
345.5997137061
 20
535.8853311068
 11
342.3497138361
 21
534.008942807
  0
LINE
  5
27C
100
AcDbEntity
  8
0
100
AcDbLine
 62
7
  6
CONTINUOUS
 10
98.1497137679
 20
436.04595186
 11
593.1497137679
 21
436.04595186
  0
LINE
  5
27D
100
AcDbEntity
  8
0
100
AcDbLine
 62
7
  6
CONTINUOUS
 10
593.1497137679
 20
439.54595186
 11
98.1497137679
 21
439.54595186
  0
LINE
  5
27E
100
AcDbEntity
  8
0
100
AcDbLine
 62
7
  6
CONTINUOUS
 10
562.0997137679
 20
445.1695634851
 11
561.9997137613
 21
445.1695634851
  0
LINE
  5
27F
100
AcDbEntity
  8
0
100
AcDbLine
 62
7
  6
CONTINUOUS
 10
555.2997137745
 20
445.1695634851
 11
555.1997137679
 21
445.1695634851
  0
LINE
  5
280
100
AcDbEntity
  8
0
100
AcDbLine
 62
7
  6
CONTINUOUS
 10
455.5997137679
 20
445.1695634851
 11
455.4997137613
 21
445.1695634851
  0
LINE
  5
281
100
AcDbEntity
  8
0
100
AcDbLine
 62
7
  6
CONTINUOUS
 10
448.7997137745
 20
445.1695634851
 11
448.6997137679
 21
445.1695634851
  0
LINE
  5
282
100
AcDbEntity
  8
0
100
AcDbLine
 62
7
  6
CONTINUOUS
 10
349.0997137679
 20
445.1695634851
 11
348.9997137613
 21
445.1695634851
  0
LINE
  5
283
100
AcDbEntity
  8
0
100
AcDbLine
 62
7
  6
CONTINUOUS
 10
342.2997137745
 20
445.1695634851
 11
342.1997137679
 21
445.1695634851
  0
LINE
  5
284
100
AcDbEntity
  8
0
100
AcDbLine
 62
7
  6
CONTINUOUS
 10
242.5997137679
 20
445.1695634851
 11
242.4997137613
 21
445.1695634851
  0
LINE
  5
285
100
AcDbEntity
  8
0
100
AcDbLine
 62
7
  6
CONTINUOUS
 10
235.7997137745
 20
445.1695634851
 11
235.6997137679
 21
445.1695634851
  0
LINE
  5
286
100
AcDbEntity
  8
0
100
AcDbLine
 62
7
  6
CONTINUOUS
 10
136.0997137679
 20
445.1695634851
 11
135.9997137613
 21
445.1695634851
  0
LINE
  5
287
100
AcDbEntity
  8
0
100
AcDbLine
 62
7
  6
CONTINUOUS
 10
129.2997137745
 20
445.1695634851
 11
129.1997137679
 21
445.1695634851
  0
LINE
  5
288
100
AcDbEntity
  8
0
100
AcDbLine
 62
7
  6
CONTINUOUS
 10
129.1997137679
 20
448.9223402348
 11
129.2997137745
 21
448.9223402348
  0
LINE
  5
289
100
AcDbEntity
  8
0
100
AcDbLine
 62
7
  6
CONTINUOUS
 10
135.9997137613
 20
448.9223402348
 11
136.0997137679
 21
448.9223402348
  0
LINE
  5
28A
100
AcDbEntity
  8
0
100
AcDbLine
 62
7
  6
CONTINUOUS
 10
235.6997137679
 20
448.9223402348
 11
235.7997137745
 21
448.9223402348
  0
LINE
  5
28B
100
AcDbEntity
  8
0
100
AcDbLine
 62
7
  6
CONTINUOUS
 10
242.4997137613
 20
448.9223402348
 11
242.5997137679
 21
448.9223402348
  0
LINE
  5
28C
100
AcDbEntity
  8
0
100
AcDbLine
 62
7
  6
CONTINUOUS
 10
342.1997137679
 20
448.9223402348
 11
342.2997137745
 21
448.9223402348
  0
LINE
  5
28D
100
AcDbEntity
  8
0
100
AcDbLine
 62
7
  6
CONTINUOUS
 10
348.9997137613
 20
448.9223402348
 11
349.0997137679
 21
448.9223402348
  0
LINE
  5
28E
100
AcDbEntity
  8
0
100
AcDbLine
 62
7
  6
CONTINUOUS
 10
448.6997137679
 20
448.9223402348
 11
448.7997137745
 21
448.9223402348
  0
LINE
  5
28F
100
AcDbEntity
  8
0
100
AcDbLine
 62
7
  6
CONTINUOUS
 10
455.4997137613
 20
448.9223402348
 11
455.5997137679
 21
448.9223402348
  0
LINE
  5
290
100
AcDbEntity
  8
0
100
AcDbLine
 62
7
  6
CONTINUOUS
 10
555.1997137679
 20
448.9223402348
 11
555.2997137745
 21
448.9223402348
  0
LINE
  5
291
100
AcDbEntity
  8
0
100
AcDbLine
 62
7
  6
CONTINUOUS
 10
561.9997137613
 20
448.9223402348
 11
562.0997137679
 21
448.9223402348
  0
LINE
  5
292
100
AcDbEntity
  8
0
100
AcDbLine
 62
7
  6
CONTINUOUS
 10
342.2997137679
 20
444.9963584043
 11
345.5497137678
 21
443.1199700295
  0
LINE
  5
293
100
AcDbEntity
  8
0
100
AcDbLine
 62
7
  6
CONTINUOUS
 10
342.3497138361
 20
445.082960913
 11
345.5997137061
 21
443.2065726131
  0
LINE
  5
294
100
AcDbEntity
  8
0
100
AcDbLine
 62
7
  6
CONTINUOUS
 10
342.2997137679
 20
529.9963584043
 11
342.3497137712
 21
530.0829609504
  0
LINE
  5
295
100
AcDbEntity
  8
0
100
AcDbLine
 62
7
  6
CONTINUOUS
 10
345.6997137629
 20
535.8853311415
 11
345.7497137679
 21
535.9719336905
  0
LINE
  5
296
100
AcDbEntity
  8
0
100
AcDbLine
 62
7
  6
CONTINUOUS
 10
348.9997137679
 20
534.0955453156
 11
348.9497137629
 21
534.0089427666
  0
LINE
  5
297
100
AcDbEntity
  8
0
100
AcDbLine
 62
7
  6
CONTINUOUS
 10
345.5997137712
 20
528.2065725756
 11
345.5497137679
 21
528.1199700295
  0
LINE
  5
298
100
AcDbEntity
  8
0
100
AcDbLine
 62
7
  6
CONTINUOUS
 10
345.6997138296
 20
528.2065726131
 11
348.9497136996
 21
530.0829609129
  0
LINE
  5
299
100
AcDbEntity
  8
0
100
AcDbLine
 62
7
  6
CONTINUOUS
 10
345.7497137679
 20
528.1199700295
 11
348.9997137678
 21
529.9963584043
  0
LINE
  5
29A
100
AcDbEntity
  8
0
100
AcDbLine
 62
7
  6
CONTINUOUS
 10
239.0497137678
 20
450.9719336904
 11
235.7997137679
 21
449.0955453156
  0
LINE
  5
29B
100
AcDbEntity
  8
0
100
AcDbLine
 62
7
  6
CONTINUOUS
 10
239.0997137061
 20
450.8853311068
 11
235.8497138361
 21
449.008942807
  0
LINE
  5
29C
100
AcDbEntity
  8
0
100
AcDbLine
 62
7
  6
CONTINUOUS
 10
573.1497137679
 20
459.54595186
 11
118.1497137679
 21
459.54595186
  0
LINE
  5
29D
100
AcDbEntity
  8
0
100
AcDbLine
 62
7
  6
CONTINUOUS
 10
348.9497137288
 20
449.0089427825
 11
345.6997138296
 21
450.8853311068
  0
LINE
  5
29E
100
AcDbEntity
  8
0
100
AcDbLine
 62
7
  6
CONTINUOUS
 10
348.9997137678
 20
449.0955453156
 11
345.7497137679
 21
450.9719336904
  0
LINE
  5
29F
100
AcDbEntity
  8
0
100
AcDbLine
 62
7
  6
CONTINUOUS
 10
235.7997137679
 20
529.9963584043
 11
239.0497137678
 21
528.1199700295
  0
LINE
  5
2A0
100
AcDbEntity
  8
0
100
AcDbLine
 62
7
  6
CONTINUOUS
 10
235.8497138361
 20
530.0829609129
 11
239.0997137061
 21
528.2065726132
  0
LINE
  5
2A1
100
AcDbEntity
  8
0
100
AcDbLine
 62
7
  6
CONTINUOUS
 10
345.7497137679
 20
443.1199700295
 11
345.6997137646
 21
443.2065725756
  0
LINE
  5
2A2
100
AcDbEntity
  8
0
100
AcDbLine
 62
7
  6
CONTINUOUS
 10
342.3497137712
 20
449.0089427695
 11
342.2997137679
 21
449.0955453156
  0
LINE
  5
2A3
100
AcDbEntity
  8
0
100
AcDbLine
 62
7
  6
CONTINUOUS
 10
345.5497137679
 20
450.9719336905
 11
345.5997137712
 21
450.8853311443
  0
LINE
  5
2A4
100
AcDbEntity
  8
0
100
AcDbLine
 62
7
  6
CONTINUOUS
 10
348.9497137646
 20
445.0829609504
 11
348.9997137679
 21
444.9963584043
  0
LINE
  5
2A5
100
AcDbEntity
  8
0
100
AcDbLine
 62
7
  6
CONTINUOUS
 10
342.1997137679
 20
533.9223402348
 11
342.1997137679
 21
530.1695634852
  0
LINE
  5
2A6
100
AcDbEntity
  8
0
100
AcDbLine
 62
7
  6
CONTINUOUS
 10
342.1997137679
 20
448.9223402348
 11
342.1997137679
 21
445.1695634852
  0
LINE
  5
2A7
100
AcDbEntity
  8
0
100
AcDbLine
 62
7
  6
CONTINUOUS
 10
342.2997137745
 20
445.1695635601
 11
342.2997137745
 21
448.9223401598
  0
LINE
  5
2A8
100
AcDbEntity
  8
0
100
AcDbLine
 62
7
  6
CONTINUOUS
 10
342.2997137745
 20
530.1695635601
 11
342.2997137745
 21
533.9223401598
  0
LINE
  5
2A9
100
AcDbEntity
  8
0
100
AcDbLine
 62
7
  6
CONTINUOUS
 10
239.1997138296
 20
443.2065726131
 11
242.4497136996
 21
445.0829609129
  0
LINE
  5
2AA
100
AcDbEntity
  8
0
100
AcDbLine
 62
7
  6
CONTINUOUS
 10
239.2497137679
 20
443.1199700295
 11
242.4997137678
 21
444.9963584043
  0
LINE
  5
2AB
100
AcDbEntity
  8
0
100
AcDbLine
 62
7
  6
CONTINUOUS
 10
599.0997137679
 20
487.6695634851
 11
598.9997137613
 21
487.6695634851
  0
LINE
  5
2AC
100
AcDbEntity
  8
0
100
AcDbLine
 62
7
  6
CONTINUOUS
 10
592.2997137745
 20
487.6695634851
 11
592.1997137679
 21
487.6695634851
  0
LINE
  5
2AD
100
AcDbEntity
  8
0
100
AcDbLine
 62
7
  6
CONTINUOUS
 10
99.0997137679
 20
487.6695634851
 11
98.9997137613
 21
487.6695634851
  0
LINE
  5
2AE
100
AcDbEntity
  8
0
100
AcDbLine
 62
7
  6
CONTINUOUS
 10
92.2997137745
 20
487.6695634851
 11
92.1997137679
 21
487.6695634851
  0
LINE
  5
2AF
100
AcDbEntity
  8
0
100
AcDbLine
 62
7
  6
CONTINUOUS
 10
92.1997137679
 20
491.4223402348
 11
92.2997137745
 21
491.4223402348
  0
LINE
  5
2B0
100
AcDbEntity
  8
0
100
AcDbLine
 62
7
  6
CONTINUOUS
 10
98.9997137613
 20
491.4223402348
 11
99.0997137679
 21
491.4223402348
  0
LINE
  5
2B1
100
AcDbEntity
  8
0
100
AcDbLine
 62
7
  6
CONTINUOUS
 10
592.1997137679
 20
491.4223402348
 11
592.2997137745
 21
491.4223402348
  0
LINE
  5
2B2
100
AcDbEntity
  8
0
100
AcDbLine
 62
7
  6
CONTINUOUS
 10
598.9997137613
 20
491.4223402348
 11
599.0997137679
 21
491.4223402348
  0
LINE
  5
2B3
100
AcDbEntity
  8
0
100
AcDbLine
 62
7
  6
CONTINUOUS
 10
242.4497137288
 20
534.0089427825
 11
239.1997138297
 21
535.8853311067
  0
LINE
  5
2B4
100
AcDbEntity
  8
0
100
AcDbLine
 62
7
  6
CONTINUOUS
 10
242.4997137678
 20
534.0955453156
 11
239.2497137679
 21
535.9719336904
  0
LINE
  5
2B5
100
AcDbEntity
  8
0
100
AcDbLine
 62
7
  6
CONTINUOUS
 10
348.9997137613
 20
533.9223401599
 11
348.9997137613
 21
530.1695635601
  0
LINE
  5
2B6
100
AcDbEntity
  8
0
100
AcDbLine
 62
7
  6
CONTINUOUS
 10
348.9997137613
 20
448.9223401599
 11
348.9997137613
 21
445.1695635601
  0
LINE
  5
2B7
100
AcDbEntity
  8
0
100
AcDbLine
 62
7
  6
CONTINUOUS
 10
349.0997137679
 20
445.1695634852
 11
349.0997137679
 21
448.9223402348
  0
LINE
  5
2B8
100
AcDbEntity
  8
0
100
AcDbLine
 62
7
  6
CONTINUOUS
 10
349.0997137679
 20
530.1695634852
 11
349.0997137679
 21
533.9223402348
  0
LINE
  5
2B9
100
AcDbEntity
  8
0
100
AcDbLine
 62
7
  6
CONTINUOUS
 10
342.2997137679
 20
444.9963584043
 11
342.3497137712
 21
445.0829609504
  0
LINE
  5
2BA
100
AcDbEntity
  8
0
100
AcDbLine
 62
7
  6
CONTINUOUS
 10
345.6997137629
 20
450.8853311415
 11
345.7497137679
 21
450.9719336905
  0
LINE
  5
2BB
100
AcDbEntity
  8
0
100
AcDbLine
 62
7
  6
CONTINUOUS
 10
452.0497137678
 20
535.9719336904
 11
448.7997137679
 21
534.0955453156
  0
LINE
  5
2BC
100
AcDbEntity
  8
0
100
AcDbLine
 62
7
  6
CONTINUOUS
 10
452.0997137061
 20
535.8853311068
 11
448.8497138361
 21
534.008942807
  0
LINE
  5
2BD
100
AcDbEntity
  8
0
100
AcDbLine
 62
7
  6
CONTINUOUS
 10
452.1997138296
 20
528.2065726131
 11
455.4497136996
 21
530.0829609129
  0
LINE
  5
2BE
100
AcDbEntity
  8
0
100
AcDbLine
 62
7
  6
CONTINUOUS
 10
452.2497137679
 20
528.1199700295
 11
455.4997137678
 21
529.9963584043
  0
LINE
  5
2BF
100
AcDbEntity
  8
0
100
AcDbLine
 62
7
  6
CONTINUOUS
 10
448.7997137679
 20
444.9963584043
 11
452.0497137678
 21
443.1199700295
  0
LINE
  5
2C0
100
AcDbEntity
  8
0
100
AcDbLine
 62
7
  6
CONTINUOUS
 10
448.8497138361
 20
445.0829609129
 11
452.0997137061
 21
443.2065726132
  0
LINE
  5
2C1
100
AcDbEntity
  8
0
100
AcDbLine
 62
7
  6
CONTINUOUS
 10
455.4497137288
 20
449.0089427825
 11
452.1997138297
 21
450.8853311067
  0
LINE
  5
2C2
100
AcDbEntity
  8
0
100
AcDbLine
 62
7
  6
CONTINUOUS
 10
455.4997137678
 20
449.0955453156
 11
452.2497137679
 21
450.9719336904
  0
LINE
  5
2C3
100
AcDbEntity
  8
0
100
AcDbLine
 62
7
  6
CONTINUOUS
 10
345.7497137679
 20
528.1199700295
 11
345.6997137646
 21
528.2065725756
  0
LINE
  5
2C4
100
AcDbEntity
  8
0
100
AcDbLine
 62
7
  6
CONTINUOUS
 10
342.3497137712
 20
534.0089427695
 11
342.2997137679
 21
534.0955453156
  0
LINE
  5
2C5
100
AcDbEntity
  8
0
100
AcDbLine
 62
7
  6
CONTINUOUS
 10
348.9997137679
 20
449.0955453156
 11
348.9497137629
 21
449.0089427666
  0
LINE
  5
2C6
100
AcDbEntity
  8
0
100
AcDbLine
 62
7
  6
CONTINUOUS
 10
345.5997137712
 20
443.2065725756
 11
345.5497137679
 21
443.1199700295
  0
LINE
  5
2C7
100
AcDbEntity
  8
0
100
AcDbLine
 62
7
  6
CONTINUOUS
 10
345.5497137678
 20
450.9719336904
 11
342.2997137679
 21
449.0955453156
  0
LINE
  5
2C8
100
AcDbEntity
  8
0
100
AcDbLine
 62
7
  6
CONTINUOUS
 10
345.5997137061
 20
450.8853311068
 11
342.3497138361
 21
449.008942807
  0
LINE
  5
2C9
100
AcDbEntity
  8
0
100
AcDbLine
 62
7
  6
CONTINUOUS
 10
118.1497137679
 20
519.54595186
 11
573.1497137679
 21
519.54595186
  0
LINE
  5
2CA
100
AcDbEntity
  8
0
100
AcDbLine
 62
7
  6
CONTINUOUS
 10
342.2997137679
 20
529.9963584043
 11
345.5497137678
 21
528.1199700295
  0
LINE
  5
2CB
100
AcDbEntity
  8
0
100
AcDbLine
 62
7
  6
CONTINUOUS
 10
342.3497138361
 20
530.082960913
 11
345.5997137061
 21
528.2065726131
  0
LINE
  5
2CC
100
AcDbEntity
  8
0
100
AcDbLine
 62
7
  6
CONTINUOUS
 10
345.5497137679
 20
535.9719336905
 11
345.5997137712
 21
535.8853311443
  0
LINE
  5
2CD
100
AcDbEntity
  8
0
100
AcDbLine
 62
7
  6
CONTINUOUS
 10
348.9497137646
 20
530.0829609504
 11
348.9997137679
 21
529.9963584043
  0
LINE
  5
2CE
100
AcDbEntity
  8
0
100
AcDbLine
 62
7
  6
CONTINUOUS
 10
345.6997138296
 20
443.2065726131
 11
348.9497136996
 21
445.0829609129
  0
LINE
  5
2CF
100
AcDbEntity
  8
0
100
AcDbLine
 62
7
  6
CONTINUOUS
 10
345.7497137679
 20
443.1199700295
 11
348.9997137678
 21
444.9963584043
  0
LINE
  5
2D0
100
AcDbEntity
  8
0
100
AcDbLine
 62
7
  6
CONTINUOUS
 10
562.0997137679
 20
530.1695634851
 11
561.9997137613
 21
530.1695634851
  0
LINE
  5
2D1
100
AcDbEntity
  8
0
100
AcDbLine
 62
7
  6
CONTINUOUS
 10
555.2997137745
 20
530.1695634851
 11
555.1997137679
 21
530.1695634851
  0
LINE
  5
2D2
100
AcDbEntity
  8
0
100
AcDbLine
 62
7
  6
CONTINUOUS
 10
455.5997137679
 20
530.1695634851
 11
455.4997137613
 21
530.1695634851
  0
LINE
  5
2D3
100
AcDbEntity
  8
0
100
AcDbLine
 62
7
  6
CONTINUOUS
 10
448.7997137745
 20
530.1695634851
 11
448.6997137679
 21
530.1695634851
  0
LINE
  5
2D4
100
AcDbEntity
  8
0
100
AcDbLine
 62
7
  6
CONTINUOUS
 10
349.0997137679
 20
530.1695634851
 11
348.9997137613
 21
530.1695634851
  0
LINE
  5
2D5
100
AcDbEntity
  8
0
100
AcDbLine
 62
7
  6
CONTINUOUS
 10
342.2997137745
 20
530.1695634851
 11
342.1997137679
 21
530.1695634851
  0
LINE
  5
2D6
100
AcDbEntity
  8
0
100
AcDbLine
 62
7
  6
CONTINUOUS
 10
242.5997137679
 20
530.1695634851
 11
242.4997137613
 21
530.1695634851
  0
LINE
  5
2D7
100
AcDbEntity
  8
0
100
AcDbLine
 62
7
  6
CONTINUOUS
 10
235.7997137745
 20
530.1695634851
 11
235.6997137679
 21
530.1695634851
  0
LINE
  5
2D8
100
AcDbEntity
  8
0
100
AcDbLine
 62
7
  6
CONTINUOUS
 10
136.0997137679
 20
530.1695634851
 11
135.9997137613
 21
530.1695634851
  0
LINE
  5
2D9
100
AcDbEntity
  8
0
100
AcDbLine
 62
7
  6
CONTINUOUS
 10
129.2997137745
 20
530.1695634851
 11
129.1997137679
 21
530.1695634851
  0
LINE
  5
2DA
100
AcDbEntity
  8
0
100
AcDbLine
 62
7
  6
CONTINUOUS
 10
129.1997137679
 20
533.9223402348
 11
129.2997137745
 21
533.9223402348
  0
LINE
  5
2DB
100
AcDbEntity
  8
0
100
AcDbLine
 62
7
  6
CONTINUOUS
 10
135.9997137613
 20
533.9223402348
 11
136.0997137679
 21
533.9223402348
  0
LINE
  5
2DC
100
AcDbEntity
  8
0
100
AcDbLine
 62
7
  6
CONTINUOUS
 10
235.6997137679
 20
533.9223402348
 11
235.7997137745
 21
533.9223402348
  0
LINE
  5
2DD
100
AcDbEntity
  8
0
100
AcDbLine
 62
7
  6
CONTINUOUS
 10
242.4997137613
 20
533.9223402348
 11
242.5997137679
 21
533.9223402348
  0
LINE
  5
2DE
100
AcDbEntity
  8
0
100
AcDbLine
 62
7
  6
CONTINUOUS
 10
342.1997137679
 20
533.9223402348
 11
342.2997137745
 21
533.9223402348
  0
LINE
  5
2DF
100
AcDbEntity
  8
0
100
AcDbLine
 62
7
  6
CONTINUOUS
 10
348.9997137613
 20
533.9223402348
 11
349.0997137679
 21
533.9223402348
  0
LINE
  5
2E0
100
AcDbEntity
  8
0
100
AcDbLine
 62
7
  6
CONTINUOUS
 10
448.6997137679
 20
533.9223402348
 11
448.7997137745
 21
533.9223402348
  0
LINE
  5
2E1
100
AcDbEntity
  8
0
100
AcDbLine
 62
7
  6
CONTINUOUS
 10
455.4997137613
 20
533.9223402348
 11
455.5997137679
 21
533.9223402348
  0
LINE
  5
2E2
100
AcDbEntity
  8
0
100
AcDbLine
 62
7
  6
CONTINUOUS
 10
555.1997137679
 20
533.9223402348
 11
555.2997137745
 21
533.9223402348
  0
LINE
  5
2E3
100
AcDbEntity
  8
0
100
AcDbLine
 62
7
  6
CONTINUOUS
 10
561.9997137613
 20
533.9223402348
 11
562.0997137679
 21
533.9223402348
  0
LINE
  5
2E4
100
AcDbEntity
  8
0
100
AcDbLine
 62
7
  6
CONTINUOUS
 10
98.1497137679
 20
539.54595186
 11
593.1497137679
 21
539.54595186
  0
LINE
  5
2E5
100
AcDbEntity
  8
0
100
AcDbLine
 62
7
  6
CONTINUOUS
 10
593.1497137679
 20
543.04595186
 11
98.1497137679
 21
543.04595186
  0
LINE
  5
2E6
100
AcDbEntity
  8
0
100
AcDbLine
 62
7
  6
CONTINUOUS
 10
348.9497137288
 20
534.0089427825
 11
345.6997138296
 21
535.8853311068
  0
LINE
  5
2E7
100
AcDbEntity
  8
0
100
AcDbLine
 62
7
  6
CONTINUOUS
 10
348.9997137678
 20
534.0955453156
 11
345.7497137679
 21
535.9719336904
  0
LINE
  5
2E8
100
AcDbEntity
  8
0
100
AcDbLine
 62
7
  6
CONTINUOUS
 10
448.7997137679
 20
529.9963584043
 11
448.8497137712
 21
530.0829609504
  0
LINE
  5
2E9
100
AcDbEntity
  8
0
100
AcDbLine
 62
7
  6
CONTINUOUS
 10
452.1997137629
 20
535.8853311415
 11
452.2497137679
 21
535.9719336904
  0
LINE
  5
2EA
100
AcDbEntity
  8
0
100
AcDbLine
 62
7
  6
CONTINUOUS
 10
455.4997137679
 20
534.0955453156
 11
455.4497137629
 21
534.0089427666
  0
LINE
  5
2EB
100
AcDbEntity
  8
0
100
AcDbLine
 62
7
  6
CONTINUOUS
 10
452.0997137712
 20
528.2065725756
 11
452.0497137679
 21
528.1199700295
  0
LINE
  5
2EC
100
AcDbEntity
  8
0
100
AcDbLine
 62
7
  6
CONTINUOUS
 10
558.5497137678
 20
535.9719336904
 11
555.2997137679
 21
534.0955453156
  0
LINE
  5
2ED
100
AcDbEntity
  8
0
100
AcDbLine
 62
7
  6
CONTINUOUS
 10
558.5997137061
 20
535.8853311068
 11
555.3497138361
 21
534.008942807
  0
LINE
  5
2EE
100
AcDbEntity
  8
0
100
AcDbLine
 62
7
  6
CONTINUOUS
 10
558.6997138296
 20
528.2065726131
 11
561.9497136996
 21
530.0829609129
  0
LINE
  5
2EF
100
AcDbEntity
  8
0
100
AcDbLine
 62
7
  6
CONTINUOUS
 10
558.7497137679
 20
528.1199700295
 11
561.9997137678
 21
529.9963584043
  0
LINE
  5
2F0
100
AcDbEntity
  8
0
100
AcDbLine
 62
7
  6
CONTINUOUS
 10
593.1497137679
 20
553.04595186
 11
98.1497137679
 21
553.04595186
  0
LINE
  5
2F1
100
AcDbEntity
  8
0
100
AcDbLine
 62
7
  6
CONTINUOUS
 10
98.1497137679
 20
554.54595186
 11
593.1497137679
 21
554.54595186
  0
LINE
  5
2F2
100
AcDbEntity
  8
0
100
AcDbLine
 62
7
  6
CONTINUOUS
 10
555.2997137679
 20
444.9963584043
 11
558.5497137678
 21
443.1199700295
  0
LINE
  5
2F3
100
AcDbEntity
  8
0
100
AcDbLine
 62
7
  6
CONTINUOUS
 10
555.3497138361
 20
445.0829609129
 11
558.5997137061
 21
443.2065726132
  0
LINE
  5
2F4
100
AcDbEntity
  8
0
100
AcDbLine
 62
7
  6
CONTINUOUS
 10
561.9497137288
 20
449.0089427825
 11
558.6997138297
 21
450.8853311067
  0
LINE
  5
2F5
100
AcDbEntity
  8
0
100
AcDbLine
 62
7
  6
CONTINUOUS
 10
561.9997137678
 20
449.0955453156
 11
558.7497137679
 21
450.9719336904
  0
LINE
  5
2F6
100
AcDbEntity
  8
0
100
AcDbLine
 62
7
  6
CONTINUOUS
 10
452.2497137679
 20
443.1199700295
 11
452.1997137646
 21
443.2065725756
  0
LINE
  5
2F7
100
AcDbEntity
  8
0
100
AcDbLine
 62
7
  6
CONTINUOUS
 10
448.8497137712
 20
449.0089427695
 11
448.7997137679
 21
449.0955453156
  0
LINE
  5
2F8
100
AcDbEntity
  8
0
100
AcDbLine
 62
7
  6
CONTINUOUS
 10
452.0497137679
 20
450.9719336904
 11
452.0997137712
 21
450.8853311443
  0
LINE
  5
2F9
100
AcDbEntity
  8
0
100
AcDbLine
 62
7
  6
CONTINUOUS
 10
455.4497137646
 20
445.0829609504
 11
455.4997137679
 21
444.9963584043
  0
LINE
  5
2FA
100
AcDbEntity
  8
0
100
AcDbLine
 62
7
  6
CONTINUOUS
 10
452.0497137678
 20
450.9719336904
 11
448.7997137679
 21
449.0955453156
  0
LINE
  5
2FB
100
AcDbEntity
  8
0
100
AcDbLine
 62
7
  6
CONTINUOUS
 10
452.0997137061
 20
450.8853311068
 11
448.8497138361
 21
449.008942807
  0
LINE
  5
2FC
100
AcDbEntity
  8
0
100
AcDbLine
 62
7
  6
CONTINUOUS
 10
452.1997138296
 20
443.2065726131
 11
455.4497136996
 21
445.0829609129
  0
LINE
  5
2FD
100
AcDbEntity
  8
0
100
AcDbLine
 62
7
  6
CONTINUOUS
 10
452.2497137679
 20
443.1199700295
 11
455.4997137678
 21
444.9963584043
  0
LINE
  5
2FE
100
AcDbEntity
  8
0
100
AcDbLine
 62
7
  6
CONTINUOUS
 10
448.7997137679
 20
529.9963584043
 11
452.0497137678
 21
528.1199700295
  0
LINE
  5
2FF
100
AcDbEntity
  8
0
100
AcDbLine
 62
7
  6
CONTINUOUS
 10
448.8497138361
 20
530.0829609129
 11
452.0997137061
 21
528.2065726132
  0
LINE
  5
300
100
AcDbEntity
  8
0
100
AcDbLine
 62
7
  6
CONTINUOUS
 10
455.4497137288
 20
534.0089427825
 11
452.1997138297
 21
535.8853311067
  0
LINE
  5
301
100
AcDbEntity
  8
0
100
AcDbLine
 62
7
  6
CONTINUOUS
 10
455.4997137678
 20
534.0955453156
 11
452.2497137679
 21
535.9719336904
  0
LINE
  5
302
100
AcDbEntity
  8
0
100
AcDbLine
 62
7
  6
CONTINUOUS
 10
448.6997137679
 20
533.9223402348
 11
448.6997137679
 21
530.1695634852
  0
LINE
  5
303
100
AcDbEntity
  8
0
100
AcDbLine
 62
7
  6
CONTINUOUS
 10
448.6997137679
 20
448.9223402348
 11
448.6997137679
 21
445.1695634852
  0
LINE
  5
304
100
AcDbEntity
  8
0
100
AcDbLine
 62
7
  6
CONTINUOUS
 10
448.7997137745
 20
445.1695635601
 11
448.7997137745
 21
448.9223401598
  0
LINE
  5
305
100
AcDbEntity
  8
0
100
AcDbLine
 62
7
  6
CONTINUOUS
 10
448.7997137745
 20
530.1695635601
 11
448.7997137745
 21
533.9223401598
  0
LINE
  5
306
100
AcDbEntity
  8
0
100
AcDbLine
 62
7
  6
CONTINUOUS
 10
455.4997137613
 20
533.9223401598
 11
455.4997137613
 21
530.1695635602
  0
LINE
  5
307
100
AcDbEntity
  8
0
100
AcDbLine
 62
7
  6
CONTINUOUS
 10
455.4997137613
 20
448.9223401598
 11
455.4997137613
 21
445.1695635602
  0
LINE
  5
308
100
AcDbEntity
  8
0
100
AcDbLine
 62
7
  6
CONTINUOUS
 10
455.5997137679
 20
445.1695634852
 11
455.5997137679
 21
448.9223402348
  0
LINE
  5
309
100
AcDbEntity
  8
0
100
AcDbLine
 62
7
  6
CONTINUOUS
 10
455.5997137679
 20
530.1695634852
 11
455.5997137679
 21
533.9223402348
  0
LINE
  5
30A
100
AcDbEntity
  8
0
100
AcDbLine
 62
7
  6
CONTINUOUS
 10
448.7997137679
 20
444.9963584043
 11
448.8497137712
 21
445.0829609504
  0
LINE
  5
30B
100
AcDbEntity
  8
0
100
AcDbLine
 62
7
  6
CONTINUOUS
 10
452.1997137629
 20
450.8853311415
 11
452.2497137679
 21
450.9719336904
  0
LINE
  5
30C
100
AcDbEntity
  8
0
100
AcDbLine
 62
7
  6
CONTINUOUS
 10
452.2497137679
 20
528.1199700295
 11
452.1997137646
 21
528.2065725756
  0
LINE
  5
30D
100
AcDbEntity
  8
0
100
AcDbLine
 62
7
  6
CONTINUOUS
 10
448.8497137712
 20
534.0089427695
 11
448.7997137679
 21
534.0955453156
  0
LINE
  5
30E
100
AcDbEntity
  8
0
100
AcDbLine
 62
7
  6
CONTINUOUS
 10
455.4997137679
 20
449.0955453156
 11
455.4497137629
 21
449.0089427666
  0
LINE
  5
30F
100
AcDbEntity
  8
0
100
AcDbLine
 62
7
  6
CONTINUOUS
 10
452.0997137712
 20
443.2065725756
 11
452.0497137679
 21
443.1199700295
  0
LINE
  5
310
100
AcDbEntity
  8
0
100
AcDbLine
 62
7
  6
CONTINUOUS
 10
595.5497137678
 20
493.4719336904
 11
592.2997137679
 21
491.5955453156
  0
LINE
  5
311
100
AcDbEntity
  8
0
100
AcDbLine
 62
7
  6
CONTINUOUS
 10
595.5997137061
 20
493.3853311068
 11
592.3497138361
 21
491.508942807
  0
LINE
  5
312
100
AcDbEntity
  8
0
100
AcDbLine
 62
7
  6
CONTINUOUS
 10
595.6997138296
 20
485.7065726131
 11
598.9497136996
 21
487.5829609129
  0
LINE
  5
313
100
AcDbEntity
  8
0
100
AcDbLine
 62
7
  6
CONTINUOUS
 10
595.7497137679
 20
485.6199700295
 11
598.9997137678
 21
487.4963584043
  0
LINE
  5
314
100
AcDbEntity
  8
0
100
AcDbLine
 62
7
  6
CONTINUOUS
 10
592.2997137679
 20
487.4963584043
 11
595.5497137678
 21
485.6199700295
  0
LINE
  5
315
100
AcDbEntity
  8
0
100
AcDbLine
 62
7
  6
CONTINUOUS
 10
592.3497138361
 20
487.5829609129
 11
595.5997137061
 21
485.7065726132
  0
LINE
  5
316
100
AcDbEntity
  8
0
100
AcDbLine
 62
7
  6
CONTINUOUS
 10
598.9497137288
 20
491.5089427825
 11
595.6997138296
 21
493.3853311068
  0
LINE
  5
317
100
AcDbEntity
  8
0
100
AcDbLine
 62
7
  6
CONTINUOUS
 10
598.9997137678
 20
491.5955453156
 11
595.7497137679
 21
493.4719336904
  0
LINE
  5
318
100
AcDbEntity
  8
0
100
AcDbLine
 62
7
  6
CONTINUOUS
 10
452.0497137679
 20
535.9719336904
 11
452.0997137712
 21
535.8853311443
  0
LINE
  5
319
100
AcDbEntity
  8
0
100
AcDbLine
 62
7
  6
CONTINUOUS
 10
455.4497137646
 20
530.0829609504
 11
455.4997137679
 21
529.9963584043
  0
LINE
  5
31A
100
AcDbEntity
  8
0
100
AcDbLine
 62
7
  6
CONTINUOUS
 10
558.5497137678
 20
450.9719336904
 11
555.2997137679
 21
449.0955453156
  0
LINE
  5
31B
100
AcDbEntity
  8
0
100
AcDbLine
 62
7
  6
CONTINUOUS
 10
558.5997137061
 20
450.8853311068
 11
555.3497138361
 21
449.008942807
  0
LINE
  5
31C
100
AcDbEntity
  8
0
100
AcDbLine
 62
7
  6
CONTINUOUS
 10
558.6997138296
 20
443.2065726131
 11
561.9497136996
 21
445.0829609129
  0
LINE
  5
31D
100
AcDbEntity
  8
0
100
AcDbLine
 62
7
  6
CONTINUOUS
 10
558.7497137679
 20
443.1199700295
 11
561.9997137678
 21
444.9963584043
  0
LINE
  5
31E
100
AcDbEntity
  8
0
100
AcDbLine
 62
7
  6
CONTINUOUS
 10
555.2997137679
 20
529.9963584043
 11
558.5497137678
 21
528.1199700295
  0
LINE
  5
31F
100
AcDbEntity
  8
0
100
AcDbLine
 62
7
  6
CONTINUOUS
 10
555.3497138361
 20
530.0829609129
 11
558.5997137061
 21
528.2065726132
  0
LINE
  5
320
100
AcDbEntity
  8
0
100
AcDbLine
 62
7
  6
CONTINUOUS
 10
561.9497137288
 20
534.0089427825
 11
558.6997138297
 21
535.8853311067
  0
LINE
  5
321
100
AcDbEntity
  8
0
100
AcDbLine
 62
7
  6
CONTINUOUS
 10
561.9997137678
 20
534.0955453156
 11
558.7497137679
 21
535.9719336904
  0
LINE
  5
322
100
AcDbEntity
  8
0
100
AcDbLine
 62
7
  6
CONTINUOUS
 10
555.2997137679
 20
529.9963584043
 11
555.3497137712
 21
530.0829609504
  0
LINE
  5
323
100
AcDbEntity
  8
0
100
AcDbLine
 62
7
  6
CONTINUOUS
 10
558.6997137629
 20
535.8853311415
 11
558.7497137679
 21
535.9719336904
  0
LINE
  5
324
100
AcDbEntity
  8
0
100
AcDbLine
 62
7
  6
CONTINUOUS
 10
561.9997137679
 20
534.0955453156
 11
561.9497137629
 21
534.0089427666
  0
LINE
  5
325
100
AcDbEntity
  8
0
100
AcDbLine
 62
7
  6
CONTINUOUS
 10
558.5997137712
 20
528.2065725756
 11
558.5497137679
 21
528.1199700295
  0
LINE
  5
326
100
AcDbEntity
  8
0
100
AcDbLine
 62
7
  6
CONTINUOUS
 10
558.7497137679
 20
443.1199700295
 11
558.6997137646
 21
443.2065725756
  0
LINE
  5
327
100
AcDbEntity
  8
0
100
AcDbLine
 62
7
  6
CONTINUOUS
 10
555.3497137712
 20
449.0089427695
 11
555.2997137679
 21
449.0955453156
  0
LINE
  5
328
100
AcDbEntity
  8
0
100
AcDbLine
 62
7
  6
CONTINUOUS
 10
558.5497137679
 20
450.9719336904
 11
558.5997137712
 21
450.8853311443
  0
LINE
  5
329
100
AcDbEntity
  8
0
100
AcDbLine
 62
7
  6
CONTINUOUS
 10
561.9497137646
 20
445.0829609504
 11
561.9997137679
 21
444.9963584043
  0
LINE
  5
32A
100
AcDbEntity
  8
0
100
AcDbLine
 62
7
  6
CONTINUOUS
 10
555.2997137679
 20
444.9963584043
 11
555.3497137712
 21
445.0829609504
  0
LINE
  5
32B
100
AcDbEntity
  8
0
100
AcDbLine
 62
7
  6
CONTINUOUS
 10
558.6997137629
 20
450.8853311415
 11
558.7497137679
 21
450.9719336904
  0
LINE
  5
32C
100
AcDbEntity
  8
0
100
AcDbLine
 62
7
  6
CONTINUOUS
 10
561.9997137679
 20
449.0955453156
 11
561.9497137629
 21
449.0089427666
  0
LINE
  5
32D
100
AcDbEntity
  8
0
100
AcDbLine
 62
7
  6
CONTINUOUS
 10
558.5997137712
 20
443.2065725756
 11
558.5497137679
 21
443.1199700295
  0
LINE
  5
32E
100
AcDbEntity
  8
0
100
AcDbLine
 62
7
  6
CONTINUOUS
 10
558.7497137679
 20
528.1199700295
 11
558.6997137646
 21
528.2065725756
  0
LINE
  5
32F
100
AcDbEntity
  8
0
100
AcDbLine
 62
7
  6
CONTINUOUS
 10
555.3497137712
 20
534.0089427695
 11
555.2997137679
 21
534.0955453156
  0
LINE
  5
330
100
AcDbEntity
  8
0
100
AcDbLine
 62
7
  6
CONTINUOUS
 10
558.5497137679
 20
535.9719336904
 11
558.5997137712
 21
535.8853311443
  0
LINE
  5
331
100
AcDbEntity
  8
0
100
AcDbLine
 62
7
  6
CONTINUOUS
 10
561.9497137646
 20
530.0829609504
 11
561.9997137679
 21
529.9963584043
  0
LINE
  5
332
100
AcDbEntity
  8
0
100
AcDbLine
 62
7
  6
CONTINUOUS
 10
555.1997137679
 20
533.9223402348
 11
555.1997137679
 21
530.1695634852
  0
LINE
  5
333
100
AcDbEntity
  8
0
100
AcDbLine
 62
7
  6
CONTINUOUS
 10
555.1997137679
 20
448.9223402348
 11
555.1997137679
 21
445.1695634852
  0
LINE
  5
334
100
AcDbEntity
  8
0
100
AcDbLine
 62
7
  6
CONTINUOUS
 10
555.2997137745
 20
445.1695635601
 11
555.2997137745
 21
448.9223401598
  0
LINE
  5
335
100
AcDbEntity
  8
0
100
AcDbLine
 62
7
  6
CONTINUOUS
 10
555.2997137745
 20
530.1695635601
 11
555.2997137745
 21
533.9223401598
  0
LINE
  5
336
100
AcDbEntity
  8
0
100
AcDbLine
 62
7
  6
CONTINUOUS
 10
561.9997137613
 20
533.9223401598
 11
561.9997137613
 21
530.1695635602
  0
LINE
  5
337
100
AcDbEntity
  8
0
100
AcDbLine
 62
7
  6
CONTINUOUS
 10
561.9997137613
 20
448.9223401598
 11
561.9997137613
 21
445.1695635602
  0
LINE
  5
338
100
AcDbEntity
  8
0
100
AcDbLine
 62
7
  6
CONTINUOUS
 10
562.0997137679
 20
445.1695634852
 11
562.0997137679
 21
448.9223402348
  0
LINE
  5
339
100
AcDbEntity
  8
0
100
AcDbLine
 62
7
  6
CONTINUOUS
 10
562.0997137679
 20
530.1695634852
 11
562.0997137679
 21
533.9223402348
  0
LINE
  5
33A
100
AcDbEntity
  8
0
100
AcDbLine
 62
7
  6
CONTINUOUS
 10
592.2997137679
 20
487.4963584043
 11
592.3497137712
 21
487.5829609504
  0
LINE
  5
33B
100
AcDbEntity
  8
0
100
AcDbLine
 62
7
  6
CONTINUOUS
 10
595.6997137629
 20
493.3853311415
 11
595.7497137679
 21
493.4719336904
  0
LINE
  5
33C
100
AcDbEntity
  8
0
100
AcDbLine
 62
7
  6
CONTINUOUS
 10
598.9997137679
 20
491.5955453156
 11
598.9497137629
 21
491.5089427666
  0
LINE
  5
33D
100
AcDbEntity
  8
0
100
AcDbLine
 62
7
  6
CONTINUOUS
 10
595.5997137712
 20
485.7065725756
 11
595.5497137679
 21
485.6199700295
  0
LINE
  5
33E
100
AcDbEntity
  8
0
100
AcDbLine
 62
7
  6
CONTINUOUS
 10
595.7497137679
 20
485.6199700295
 11
595.6997137646
 21
485.7065725756
  0
LINE
  5
33F
100
AcDbEntity
  8
0
100
AcDbLine
 62
7
  6
CONTINUOUS
 10
592.3497137712
 20
491.5089427695
 11
592.2997137679
 21
491.5955453156
  0
LINE
  5
340
100
AcDbEntity
  8
0
100
AcDbLine
 62
7
  6
CONTINUOUS
 10
595.5497137679
 20
493.4719336904
 11
595.5997137712
 21
493.3853311443
  0
LINE
  5
341
100
AcDbEntity
  8
0
100
AcDbLine
 62
7
  6
CONTINUOUS
 10
598.9497137646
 20
487.5829609504
 11
598.9997137679
 21
487.4963584043
  0
LINE
  5
342
100
AcDbEntity
  8
0
100
AcDbLine
 62
7
  6
CONTINUOUS
 10
583.1497137679
 20
509.54595186
 11
583.1497137679
 21
469.54595186
  0
LINE
  5
343
100
AcDbEntity
  8
0
100
AcDbLine
 62
7
  6
CONTINUOUS
 10
592.1997137679
 20
491.4223402348
 11
592.1997137679
 21
487.6695634852
  0
LINE
  5
344
100
AcDbEntity
  8
0
100
AcDbLine
 62
7
  6
CONTINUOUS
 10
592.2997137745
 20
487.6695635601
 11
592.2997137745
 21
491.4223401598
  0
LINE
  5
345
100
AcDbEntity
  8
0
100
AcDbLine
 62
7
  6
CONTINUOUS
 10
598.9997137613
 20
491.4223401598
 11
598.9997137613
 21
487.6695635602
  0
LINE
  5
346
100
AcDbEntity
  8
0
100
AcDbLine
 62
7
  6
CONTINUOUS
 10
599.0997137679
 20
487.6695634852
 11
599.0997137679
 21
491.4223402348
  0
LINE
  5
347
100
AcDbEntity
  8
0
100
AcDbLine
 62
7
  6
CONTINUOUS
 10
603.1497137679
 20
529.54595186
 11
603.1497137679
 21
449.54595186
  0
LINE
  5
348
100
AcDbEntity
  8
0
100
AcDbLine
 62
7
  6
CONTINUOUS
 10
606.6497137679
 20
449.54595186
 11
606.6497137679
 21
529.54595186
  0
LINE
  5
349
100
AcDbEntity
  8
0
100
AcDbLine
 62
7
  6
CONTINUOUS
 10
616.6497137679
 20
449.54595186
 11
616.6497137679
 21
529.54595186
  0
LINE
  5
34A
100
AcDbEntity
  8
0
100
AcDbLine
 62
7
  6
CONTINUOUS
 10
618.1497137679
 20
529.54595186
 11
618.1497137679
 21
449.54595186
  0
ARC
  5
34B
100
AcDbEntity
  8
0
100
AcDbCircle
 62
7
  6
CONTINUOUS
 10
98.1497137679
 20
449.54595186
 40
25.0
100
AcDbArc
 50
180.0
 51
270.0
  0
ARC
  5
34C
100
AcDbEntity
  8
0
100
AcDbCircle
 62
7
  6
CONTINUOUS
 10
98.1497137679
 20
449.54595186
 40
23.5
100
AcDbArc
 50
180.0
 51
270.0
  0
ARC
  5
34D
100
AcDbEntity
  8
0
100
AcDbCircle
 62
7
  6
CONTINUOUS
 10
98.1497137679
 20
449.54595186
 40
13.5
100
AcDbArc
 50
180.0
 51
270.0
  0
ARC
  5
34E
100
AcDbEntity
  8
0
100
AcDbCircle
 62
7
  6
CONTINUOUS
 10
98.1497137679
 20
449.54595186
 40
10.0
100
AcDbArc
 50
180.0
 51
270.0
  0
CIRCLE
  5
34F
100
AcDbEntity
  8
0
100
AcDbCircle
 62
7
  6
CONTINUOUS
 10
132.6497137679
 20
447.04595186
 40
3.2837168574
  0
CIRCLE
  5
350
100
AcDbEntity
  8
0
100
AcDbCircle
 62
7
  6
CONTINUOUS
 10
132.6497137679
 20
447.04595186
 40
2.2837168574
  0
CIRCLE
  5
351
100
AcDbEntity
  8
0
100
AcDbCircle
 62
7
  6
CONTINUOUS
 10
132.6497137679
 20
447.04595186
 40
2.0
  0
CIRCLE
  5
352
100
AcDbEntity
  8
0
100
AcDbCircle
 62
7
  6
CONTINUOUS
 10
165.6497137679
 20
431.04595186
 40
2.0
  0
CIRCLE
  5
353
100
AcDbEntity
  8
0
100
AcDbCircle
 62
7
  6
CONTINUOUS
 10
132.6497137679
 20
447.04595186
 40
1.5
  0
ARC
  5
354
100
AcDbEntity
  8
0
100
AcDbCircle
 62
7
  6
CONTINUOUS
 10
132.6497137679
 20
443.2931751102
 40
0.2
100
AcDbArc
 50
239.9999999927
 51
299.9999999989
  0
ARC
  5
355
100
AcDbEntity
  8
0
100
AcDbCircle
 62
7
  6
CONTINUOUS
 10
129.3997137678
 20
445.169563485
 40
0.1999999999
100
AcDbArc
 50
179.9999999604
 51
240.0000000022
  0
ARC
  5
356
100
AcDbEntity
  8
0
100
AcDbCircle
 62
7
  6
CONTINUOUS
 10
135.8997137679
 20
445.1695634851
 40
0.2
100
AcDbArc
 50
299.9999999924
 51
360.0
  0
ARC
  5
357
100
AcDbEntity
  8
0
100
AcDbCircle
 62
7
  6
CONTINUOUS
 10
135.8997137679
 20
448.9223402349
 40
0.1999999999
100
AcDbArc
 50
0.0
 51
60.0000000022
  0
ARC
  5
358
100
AcDbEntity
  8
0
100
AcDbCircle
 62
7
  6
CONTINUOUS
 10
132.6497137679
 20
450.7987286097
 40
0.2
100
AcDbArc
 50
59.9999999926
 51
119.9999999992
  0
ARC
  5
359
100
AcDbEntity
  8
0
100
AcDbCircle
 62
7
  6
CONTINUOUS
 10
129.3997137679
 20
448.9223402348
 40
0.2
100
AcDbArc
 50
119.9999999937
 51
180.0
  0
ARC
  5
35A
100
AcDbEntity
  8
0
100
AcDbCircle
 62
7
  6
CONTINUOUS
 10
135.899713768
 20
448.9223402349
 40
0.0999999801
100
AcDbArc
 50
359.9999569948
 51
60.000021527
  0
ARC
  5
35B
100
AcDbEntity
  8
0
100
AcDbCircle
 62
7
  6
CONTINUOUS
 10
132.6497137679
 20
450.7987286098
 40
0.09999998
100
AcDbArc
 50
59.9999569034
 51
120.0000430721
  0
ARC
  5
35C
100
AcDbEntity
  8
0
100
AcDbCircle
 62
7
  6
CONTINUOUS
 10
129.3997137679
 20
448.9223402348
 40
0.0999999802
100
AcDbArc
 50
119.9999570361
 51
180.0000430085
  0
ARC
  5
35D
100
AcDbEntity
  8
0
100
AcDbCircle
 62
7
  6
CONTINUOUS
 10
129.3997137678
 20
445.1695634851
 40
0.0999999801
100
AcDbArc
 50
179.999956994
 51
240.000042993
  0
ARC
  5
35E
100
AcDbEntity
  8
0
100
AcDbCircle
 62
7
  6
CONTINUOUS
 10
132.6497137679
 20
443.2931751101
 40
0.09999998
100
AcDbArc
 50
239.9999569034
 51
300.0000430721
  0
ARC
  5
35F
100
AcDbEntity
  8
0
100
AcDbCircle
 62
7
  6
CONTINUOUS
 10
135.8997137679
 20
445.1695634851
 40
0.0999999802
100
AcDbArc
 50
299.999957036
 51
0.0000430085
  0
ARC
  5
360
100
AcDbEntity
  8
0
100
AcDbCircle
 62
7
  6
CONTINUOUS
 10
118.1497137679
 20
469.54595186
 40
10.0
100
AcDbArc
 50
180.0
 51
270.0
  0
ARC
  5
361
100
AcDbEntity
  8
0
100
AcDbCircle
 62
7
  6
CONTINUOUS
 10
95.6497137679
 20
485.7931751102
 40
0.2
100
AcDbArc
 50
239.9999999927
 51
300.0
  0
ARC
  5
362
100
AcDbEntity
  8
0
100
AcDbCircle
 62
7
  6
CONTINUOUS
 10
92.3997137679
 20
487.6695634851
 40
0.2
100
AcDbArc
 50
179.999999996
 51
239.9999999944
  0
ARC
  5
363
100
AcDbEntity
  8
0
100
AcDbCircle
 62
7
  6
CONTINUOUS
 10
98.8997137679
 20
487.6695634851
 40
0.2
100
AcDbArc
 50
299.9999999928
 51
360.0
  0
ARC
  5
364
100
AcDbEntity
  8
0
100
AcDbCircle
 62
7
  6
CONTINUOUS
 10
92.3997137678
 20
487.6695634851
 40
0.0999999801
100
AcDbArc
 50
179.9999569921
 51
240.0000430077
  0
ARC
  5
365
100
AcDbEntity
  8
0
100
AcDbCircle
 62
7
  6
CONTINUOUS
 10
95.6497137679
 20
485.7931751101
 40
0.09999998
100
AcDbArc
 50
239.9999569124
 51
300.0000430751
  0
ARC
  5
366
100
AcDbEntity
  8
0
100
AcDbCircle
 62
7
  6
CONTINUOUS
 10
98.8997137679
 20
487.6695634851
 40
0.0999999802
100
AcDbArc
 50
299.9999570165
 51
0.0000430083
  0
CIRCLE
  5
367
100
AcDbEntity
  8
0
100
AcDbCircle
 62
7
  6
CONTINUOUS
 10
239.1497137679
 20
447.04595186
 40
3.2837168574
  0
CIRCLE
  5
368
100
AcDbEntity
  8
0
100
AcDbCircle
 62
7
  6
CONTINUOUS
 10
239.1497137679
 20
447.04595186
 40
2.2837168574
  0
CIRCLE
  5
369
100
AcDbEntity
  8
0
100
AcDbCircle
 62
7
  6
CONTINUOUS
 10
239.1497137679
 20
447.04595186
 40
2.0
  0
CIRCLE
  5
36A
100
AcDbEntity
  8
0
100
AcDbCircle
 62
7
  6
CONTINUOUS
 10
285.6497137679
 20
431.04595186
 40
2.0
  0
CIRCLE
  5
36B
100
AcDbEntity
  8
0
100
AcDbCircle
 62
7
  6
CONTINUOUS
 10
239.1497137679
 20
447.04595186
 40
1.5
  0
ARC
  5
36C
100
AcDbEntity
  8
0
100
AcDbCircle
 62
7
  6
CONTINUOUS
 10
342.3997137679
 20
445.1695634851
 40
0.2
100
AcDbArc
 50
179.9999999874
 51
240.0000000002
  0
ARC
  5
36D
100
AcDbEntity
  8
0
100
AcDbCircle
 62
7
  6
CONTINUOUS
 10
342.3997137679
 20
448.9223402348
 40
0.2
100
AcDbArc
 50
119.9999999868
 51
180.0
  0
ARC
  5
36E
100
AcDbEntity
  8
0
100
AcDbCircle
 62
7
  6
CONTINUOUS
 10
239.1497137679
 20
443.2931751102
 40
0.2
100
AcDbArc
 50
239.9999999926
 51
299.9999999992
  0
ARC
  5
36F
100
AcDbEntity
  8
0
100
AcDbCircle
 62
7
  6
CONTINUOUS
 10
235.8997137678
 20
445.169563485
 40
0.1999999999
100
AcDbArc
 50
179.9999999603
 51
240.0000000022
  0
ARC
  5
370
100
AcDbEntity
  8
0
100
AcDbCircle
 62
7
  6
CONTINUOUS
 10
242.3997137679
 20
445.1695634851
 40
0.2
100
AcDbArc
 50
299.9999999924
 51
360.0
  0
ARC
  5
371
100
AcDbEntity
  8
0
100
AcDbCircle
 62
7
  6
CONTINUOUS
 10
242.3997137679
 20
448.9223402349
 40
0.1999999999
100
AcDbArc
 50
0.0
 51
60.0000000022
  0
ARC
  5
372
100
AcDbEntity
  8
0
100
AcDbCircle
 62
7
  6
CONTINUOUS
 10
239.1497137679
 20
450.7987286097
 40
0.2
100
AcDbArc
 50
59.9999999927
 51
119.9999999989
  0
ARC
  5
373
100
AcDbEntity
  8
0
100
AcDbCircle
 62
7
  6
CONTINUOUS
 10
235.8997137679
 20
448.9223402348
 40
0.2
100
AcDbArc
 50
119.9999999937
 51
180.0
  0
ARC
  5
374
100
AcDbEntity
  8
0
100
AcDbCircle
 62
7
  6
CONTINUOUS
 10
342.3997137679
 20
448.9223402348
 40
0.0999999802
100
AcDbArc
 50
119.9999570369
 51
180.0000429695
  0
ARC
  5
375
100
AcDbEntity
  8
0
100
AcDbCircle
 62
7
  6
CONTINUOUS
 10
342.3997137679
 20
445.1695634851
 40
0.0999999802
100
AcDbArc
 50
179.9999570468
 51
240.0000429237
  0
ARC
  5
376
100
AcDbEntity
  8
0
100
AcDbCircle
 62
7
  6
CONTINUOUS
 10
242.399713768
 20
448.9223402349
 40
0.0999999801
100
AcDbArc
 50
359.9999569946
 51
60.0000215271
  0
ARC
  5
377
100
AcDbEntity
  8
0
100
AcDbCircle
 62
7
  6
CONTINUOUS
 10
239.1497137679
 20
450.7987286098
 40
0.09999998
100
AcDbArc
 50
59.9999569033
 51
120.0000430722
  0
ARC
  5
378
100
AcDbEntity
  8
0
100
AcDbCircle
 62
7
  6
CONTINUOUS
 10
235.8997137679
 20
448.9223402348
 40
0.0999999802
100
AcDbArc
 50
119.9999570362
 51
180.0000430085
  0
ARC
  5
379
100
AcDbEntity
  8
0
100
AcDbCircle
 62
7
  6
CONTINUOUS
 10
235.8997137678
 20
445.1695634851
 40
0.0999999801
100
AcDbArc
 50
179.9999569938
 51
240.0000429932
  0
ARC
  5
37A
100
AcDbEntity
  8
0
100
AcDbCircle
 62
7
  6
CONTINUOUS
 10
239.1497137679
 20
443.2931751101
 40
0.09999998
100
AcDbArc
 50
239.9999569033
 51
300.0000430721
  0
ARC
  5
37B
100
AcDbEntity
  8
0
100
AcDbCircle
 62
7
  6
CONTINUOUS
 10
242.3997137679
 20
445.1695634851
 40
0.0999999802
100
AcDbArc
 50
299.9999570361
 51
0.0000430085
  0
ARC
  5
37C
100
AcDbEntity
  8
0
100
AcDbCircle
 62
7
  6
CONTINUOUS
 10
118.1497137679
 20
509.54595186
 40
10.0
100
AcDbArc
 50
90.0
 51
180.0
  0
CIRCLE
  5
37D
100
AcDbEntity
  8
0
100
AcDbCircle
 62
7
  6
CONTINUOUS
 10
95.6497137679
 20
489.54595186
 40
3.2837168574
  0
CIRCLE
  5
37E
100
AcDbEntity
  8
0
100
AcDbCircle
 62
7
  6
CONTINUOUS
 10
95.6497137679
 20
489.54595186
 40
2.2837168574
  0
CIRCLE
  5
37F
100
AcDbEntity
  8
0
100
AcDbCircle
 62
7
  6
CONTINUOUS
 10
95.6497137679
 20
489.54595186
 40
2.0
  0
CIRCLE
  5
380
100
AcDbEntity
  8
0
100
AcDbCircle
 62
7
  6
CONTINUOUS
 10
79.6497137679
 20
489.54595186
 40
2.0
  0
CIRCLE
  5
381
100
AcDbEntity
  8
0
100
AcDbCircle
 62
7
  6
CONTINUOUS
 10
95.6497137679
 20
489.54595186
 40
1.5
  0
ARC
  5
382
100
AcDbEntity
  8
0
100
AcDbCircle
 62
7
  6
CONTINUOUS
 10
98.8997137678
 20
491.4223402348
 40
0.2
100
AcDbArc
 50
0.0
 51
59.9999999944
  0
ARC
  5
383
100
AcDbEntity
  8
0
100
AcDbCircle
 62
7
  6
CONTINUOUS
 10
95.6497137679
 20
493.2987286097
 40
0.2
100
AcDbArc
 50
59.9999999927
 51
120.0
  0
ARC
  5
384
100
AcDbEntity
  8
0
100
AcDbCircle
 62
7
  6
CONTINUOUS
 10
92.3997137679
 20
491.4223402348
 40
0.2
100
AcDbArc
 50
119.9999999928
 51
180.0
  0
ARC
  5
385
100
AcDbEntity
  8
0
100
AcDbCircle
 62
7
  6
CONTINUOUS
 10
98.899713768
 20
491.4223402349
 40
0.0999999801
100
AcDbArc
 50
359.999956992
 51
60.0000215317
  0
ARC
  5
386
100
AcDbEntity
  8
0
100
AcDbCircle
 62
7
  6
CONTINUOUS
 10
95.6497137679
 20
493.2987286098
 40
0.09999998
100
AcDbArc
 50
59.999956913
 51
120.0000430747
  0
ARC
  5
387
100
AcDbEntity
  8
0
100
AcDbCircle
 62
7
  6
CONTINUOUS
 10
92.3997137679
 20
491.4223402348
 40
0.0999999802
100
AcDbArc
 50
119.9999570164
 51
180.0000430085
  0
ARC
  5
388
100
AcDbEntity
  8
0
100
AcDbCircle
 62
7
  6
CONTINUOUS
 10
98.1497137679
 20
529.54595186
 40
25.0
100
AcDbArc
 50
90.0
 51
180.0
  0
ARC
  5
389
100
AcDbEntity
  8
0
100
AcDbCircle
 62
7
  6
CONTINUOUS
 10
98.1497137679
 20
529.54595186
 40
23.5
100
AcDbArc
 50
90.0
 51
180.0
  0
ARC
  5
38A
100
AcDbEntity
  8
0
100
AcDbCircle
 62
7
  6
CONTINUOUS
 10
98.1497137679
 20
529.54595186
 40
13.5
100
AcDbArc
 50
90.0
 51
180.0
  0
ARC
  5
38B
100
AcDbEntity
  8
0
100
AcDbCircle
 62
7
  6
CONTINUOUS
 10
98.1497137679
 20
529.54595186
 40
10.0
100
AcDbArc
 50
90.0
 51
180.0
  0
CIRCLE
  5
38C
100
AcDbEntity
  8
0
100
AcDbCircle
 62
7
  6
CONTINUOUS
 10
132.6497137679
 20
532.04595186
 40
3.2837168574
  0
CIRCLE
  5
38D
100
AcDbEntity
  8
0
100
AcDbCircle
 62
7
  6
CONTINUOUS
 10
132.6497137679
 20
532.04595186
 40
2.2837168574
  0
CIRCLE
  5
38E
100
AcDbEntity
  8
0
100
AcDbCircle
 62
7
  6
CONTINUOUS
 10
132.6497137679
 20
532.04595186
 40
2.0
  0
CIRCLE
  5
38F
100
AcDbEntity
  8
0
100
AcDbCircle
 62
7
  6
CONTINUOUS
 10
165.6497137679
 20
548.04595186
 40
2.0
  0
CIRCLE
  5
390
100
AcDbEntity
  8
0
100
AcDbCircle
 62
7
  6
CONTINUOUS
 10
132.6497137679
 20
532.04595186
 40
1.5
  0
ARC
  5
391
100
AcDbEntity
  8
0
100
AcDbCircle
 62
7
  6
CONTINUOUS
 10
132.6497137679
 20
528.2931751102
 40
0.2
100
AcDbArc
 50
239.9999999925
 51
299.9999999993
  0
ARC
  5
392
100
AcDbEntity
  8
0
100
AcDbCircle
 62
7
  6
CONTINUOUS
 10
129.3997137678
 20
530.169563485
 40
0.1999999999
100
AcDbArc
 50
179.9999999603
 51
240.0000000022
  0
ARC
  5
393
100
AcDbEntity
  8
0
100
AcDbCircle
 62
7
  6
CONTINUOUS
 10
135.8997137679
 20
530.1695634851
 40
0.2
100
AcDbArc
 50
299.9999999924
 51
360.0
  0
ARC
  5
394
100
AcDbEntity
  8
0
100
AcDbCircle
 62
7
  6
CONTINUOUS
 10
135.8997137679
 20
533.9223402349
 40
0.1999999999
100
AcDbArc
 50
0.0
 51
60.0000000022
  0
ARC
  5
395
100
AcDbEntity
  8
0
100
AcDbCircle
 62
7
  6
CONTINUOUS
 10
132.6497137679
 20
535.7987286097
 40
0.2
100
AcDbArc
 50
59.9999999925
 51
119.9999999993
  0
ARC
  5
396
100
AcDbEntity
  8
0
100
AcDbCircle
 62
7
  6
CONTINUOUS
 10
129.3997137679
 20
533.9223402348
 40
0.2
100
AcDbArc
 50
119.9999999937
 51
180.0
  0
ARC
  5
397
100
AcDbEntity
  8
0
100
AcDbCircle
 62
7
  6
CONTINUOUS
 10
135.899713768
 20
533.9223402349
 40
0.0999999801
100
AcDbArc
 50
359.9999569948
 51
60.000021527
  0
ARC
  5
398
100
AcDbEntity
  8
0
100
AcDbCircle
 62
7
  6
CONTINUOUS
 10
132.6497137679
 20
535.7987286098
 40
0.09999998
100
AcDbArc
 50
59.9999569034
 51
120.0000430721
  0
ARC
  5
399
100
AcDbEntity
  8
0
100
AcDbCircle
 62
7
  6
CONTINUOUS
 10
129.3997137679
 20
533.9223402348
 40
0.0999999802
100
AcDbArc
 50
119.9999570361
 51
180.0000430085
  0
ARC
  5
39A
100
AcDbEntity
  8
0
100
AcDbCircle
 62
7
  6
CONTINUOUS
 10
129.3997137678
 20
530.1695634851
 40
0.0999999801
100
AcDbArc
 50
179.9999569939
 51
240.0000429932
  0
ARC
  5
39B
100
AcDbEntity
  8
0
100
AcDbCircle
 62
7
  6
CONTINUOUS
 10
132.6497137679
 20
528.2931751101
 40
0.09999998
100
AcDbArc
 50
239.9999569034
 51
300.0000430721
  0
ARC
  5
39C
100
AcDbEntity
  8
0
100
AcDbCircle
 62
7
  6
CONTINUOUS
 10
135.8997137679
 20
530.1695634851
 40
0.0999999802
100
AcDbArc
 50
299.9999570361
 51
0.0000430085
  0
CIRCLE
  5
39D
100
AcDbEntity
  8
0
100
AcDbCircle
 62
7
  6
CONTINUOUS
 10
239.1497137679
 20
532.04595186
 40
3.2837168574
  0
CIRCLE
  5
39E
100
AcDbEntity
  8
0
100
AcDbCircle
 62
7
  6
CONTINUOUS
 10
239.1497137679
 20
532.04595186
 40
2.2837168574
  0
CIRCLE
  5
39F
100
AcDbEntity
  8
0
100
AcDbCircle
 62
7
  6
CONTINUOUS
 10
239.1497137679
 20
532.04595186
 40
2.0
  0
CIRCLE
  5
3A0
100
AcDbEntity
  8
0
100
AcDbCircle
 62
7
  6
CONTINUOUS
 10
285.6497137679
 20
548.04595186
 40
2.0
  0
CIRCLE
  5
3A1
100
AcDbEntity
  8
0
100
AcDbCircle
 62
7
  6
CONTINUOUS
 10
239.1497137679
 20
532.04595186
 40
1.5
  0
ARC
  5
3A2
100
AcDbEntity
  8
0
100
AcDbCircle
 62
7
  6
CONTINUOUS
 10
342.3997137679
 20
530.1695634851
 40
0.2
100
AcDbArc
 50
179.9999999874
 51
240.0000000002
  0
ARC
  5
3A3
100
AcDbEntity
  8
0
100
AcDbCircle
 62
7
  6
CONTINUOUS
 10
342.3997137679
 20
533.9223402348
 40
0.2
100
AcDbArc
 50
119.9999999868
 51
180.0
  0
ARC
  5
3A4
100
AcDbEntity
  8
0
100
AcDbCircle
 62
7
  6
CONTINUOUS
 10
239.1497137679
 20
528.2931751102
 40
0.2
100
AcDbArc
 50
239.9999999925
 51
299.9999999993
  0
ARC
  5
3A5
100
AcDbEntity
  8
0
100
AcDbCircle
 62
7
  6
CONTINUOUS
 10
235.8997137678
 20
530.169563485
 40
0.1999999999
100
AcDbArc
 50
179.9999999603
 51
240.0000000022
  0
ARC
  5
3A6
100
AcDbEntity
  8
0
100
AcDbCircle
 62
7
  6
CONTINUOUS
 10
242.3997137679
 20
530.1695634851
 40
0.2
100
AcDbArc
 50
299.9999999924
 51
360.0
  0
ARC
  5
3A7
100
AcDbEntity
  8
0
100
AcDbCircle
 62
7
  6
CONTINUOUS
 10
242.3997137679
 20
533.9223402349
 40
0.1999999999
100
AcDbArc
 50
0.0
 51
60.0000000023
  0
ARC
  5
3A8
100
AcDbEntity
  8
0
100
AcDbCircle
 62
7
  6
CONTINUOUS
 10
239.1497137679
 20
535.7987286097
 40
0.2
100
AcDbArc
 50
59.9999999925
 51
119.9999999993
  0
ARC
  5
3A9
100
AcDbEntity
  8
0
100
AcDbCircle
 62
7
  6
CONTINUOUS
 10
235.8997137679
 20
533.9223402348
 40
0.2
100
AcDbArc
 50
119.9999999937
 51
180.0
  0
ARC
  5
3AA
100
AcDbEntity
  8
0
100
AcDbCircle
 62
7
  6
CONTINUOUS
 10
342.3997137679
 20
533.9223402348
 40
0.0999999802
100
AcDbArc
 50
119.9999570369
 51
180.0000429695
  0
ARC
  5
3AB
100
AcDbEntity
  8
0
100
AcDbCircle
 62
7
  6
CONTINUOUS
 10
342.3997137679
 20
530.1695634851
 40
0.0999999802
100
AcDbArc
 50
179.9999570467
 51
240.0000429237
  0
ARC
  5
3AC
100
AcDbEntity
  8
0
100
AcDbCircle
 62
7
  6
CONTINUOUS
 10
242.399713768
 20
533.9223402349
 40
0.0999999801
100
AcDbArc
 50
359.9999569946
 51
60.0000215271
  0
ARC
  5
3AD
100
AcDbEntity
  8
0
100
AcDbCircle
 62
7
  6
CONTINUOUS
 10
239.1497137679
 20
535.7987286098
 40
0.09999998
100
AcDbArc
 50
59.9999569033
 51
120.0000430722
  0
ARC
  5
3AE
100
AcDbEntity
  8
0
100
AcDbCircle
 62
7
  6
CONTINUOUS
 10
235.8997137679
 20
533.9223402348
 40
0.0999999802
100
AcDbArc
 50
119.9999570362
 51
180.0000430085
  0
ARC
  5
3AF
100
AcDbEntity
  8
0
100
AcDbCircle
 62
7
  6
CONTINUOUS
 10
235.8997137678
 20
530.1695634851
 40
0.0999999801
100
AcDbArc
 50
179.9999569944
 51
240.0000429926
  0
ARC
  5
3B0
100
AcDbEntity
  8
0
100
AcDbCircle
 62
7
  6
CONTINUOUS
 10
239.1497137679
 20
528.2931751101
 40
0.09999998
100
AcDbArc
 50
239.9999569033
 51
300.0000430721
  0
ARC
  5
3B1
100
AcDbEntity
  8
0
100
AcDbCircle
 62
7
  6
CONTINUOUS
 10
242.3997137679
 20
530.1695634851
 40
0.0999999802
100
AcDbArc
 50
299.9999570362
 51
0.0000430085
  0
CIRCLE
  5
3B2
100
AcDbEntity
  8
0
100
AcDbCircle
 62
7
  6
CONTINUOUS
 10
345.6497137679
 20
447.04595186
 40
3.2837168574
  0
CIRCLE
  5
3B3
100
AcDbEntity
  8
0
100
AcDbCircle
 62
7
  6
CONTINUOUS
 10
452.1497137679
 20
447.04595186
 40
3.2837168574
  0
CIRCLE
  5
3B4
100
AcDbEntity
  8
0
100
AcDbCircle
 62
7
  6
CONTINUOUS
 10
345.6497137679
 20
447.04595186
 40
2.2837168574
  0
CIRCLE
  5
3B5
100
AcDbEntity
  8
0
100
AcDbCircle
 62
7
  6
CONTINUOUS
 10
452.1497137679
 20
447.04595186
 40
2.2837168574
  0
CIRCLE
  5
3B6
100
AcDbEntity
  8
0
100
AcDbCircle
 62
7
  6
CONTINUOUS
 10
452.1497137679
 20
447.04595186
 40
2.0
  0
CIRCLE
  5
3B7
100
AcDbEntity
  8
0
100
AcDbCircle
 62
7
  6
CONTINUOUS
 10
345.6497137679
 20
447.04595186
 40
2.0
  0
CIRCLE
  5
3B8
100
AcDbEntity
  8
0
100
AcDbCircle
 62
7
  6
CONTINUOUS
 10
405.6497137679
 20
431.04595186
 40
2.0
  0
CIRCLE
  5
3B9
100
AcDbEntity
  8
0
100
AcDbCircle
 62
7
  6
CONTINUOUS
 10
452.1497137679
 20
447.04595186
 40
1.5
  0
CIRCLE
  5
3BA
100
AcDbEntity
  8
0
100
AcDbCircle
 62
7
  6
CONTINUOUS
 10
345.6497137679
 20
447.04595186
 40
1.5
  0
ARC
  5
3BB
100
AcDbEntity
  8
0
100
AcDbCircle
 62
7
  6
CONTINUOUS
 10
345.6497137679
 20
443.2931751102
 40
0.2
100
AcDbArc
 50
239.999999987
 51
299.9999999999
  0
ARC
  5
3BC
100
AcDbEntity
  8
0
100
AcDbCircle
 62
7
  6
CONTINUOUS
 10
348.8997137679
 20
445.1695634851
 40
0.2
100
AcDbArc
 50
299.999999987
 51
360.0
  0
ARC
  5
3BD
100
AcDbEntity
  8
0
100
AcDbCircle
 62
7
  6
CONTINUOUS
 10
348.8997137679
 20
448.9223402348
 40
0.2
100
AcDbArc
 50
0.0
 51
60.0000000002
  0
ARC
  5
3BE
100
AcDbEntity
  8
0
100
AcDbCircle
 62
7
  6
CONTINUOUS
 10
345.6497137679
 20
450.7987286097
 40
0.2
100
AcDbArc
 50
59.999999987
 51
119.9999999999
  0
ARC
  5
3BF
100
AcDbEntity
  8
0
100
AcDbCircle
 62
7
  6
CONTINUOUS
 10
452.1497137679
 20
443.2931751102
 40
0.2
100
AcDbArc
 50
239.9999999925
 51
299.9999999993
  0
ARC
  5
3C0
100
AcDbEntity
  8
0
100
AcDbCircle
 62
7
  6
CONTINUOUS
 10
448.8997137678
 20
445.169563485
 40
0.1999999999
100
AcDbArc
 50
179.9999999603
 51
240.0000000022
  0
ARC
  5
3C1
100
AcDbEntity
  8
0
100
AcDbCircle
 62
7
  6
CONTINUOUS
 10
455.3997137679
 20
445.1695634851
 40
0.2
100
AcDbArc
 50
299.9999999924
 51
360.0
  0
ARC
  5
3C2
100
AcDbEntity
  8
0
100
AcDbCircle
 62
7
  6
CONTINUOUS
 10
455.3997137679
 20
448.9223402349
 40
0.1999999999
100
AcDbArc
 50
0.0
 51
60.0000000022
  0
ARC
  5
3C3
100
AcDbEntity
  8
0
100
AcDbCircle
 62
7
  6
CONTINUOUS
 10
452.1497137679
 20
450.7987286097
 40
0.2
100
AcDbArc
 50
59.9999999926
 51
119.9999999993
  0
ARC
  5
3C4
100
AcDbEntity
  8
0
100
AcDbCircle
 62
7
  6
CONTINUOUS
 10
448.8997137679
 20
448.9223402348
 40
0.2
100
AcDbArc
 50
119.9999999937
 51
180.0
  0
ARC
  5
3C5
100
AcDbEntity
  8
0
100
AcDbCircle
 62
7
  6
CONTINUOUS
 10
348.8997137679
 20
448.9223402348
 40
0.0999999802
100
AcDbArc
 50
359.9999570468
 51
60.0000214571
  0
ARC
  5
3C6
100
AcDbEntity
  8
0
100
AcDbCircle
 62
7
  6
CONTINUOUS
 10
345.6497137679
 20
450.7987286097
 40
0.0999999801
100
AcDbArc
 50
59.9999569632
 51
120.0000430546
  0
ARC
  5
3C7
100
AcDbEntity
  8
0
100
AcDbCircle
 62
7
  6
CONTINUOUS
 10
345.6497137679
 20
443.2931751102
 40
0.0999999801
100
AcDbArc
 50
239.9999569632
 51
300.0000430546
  0
ARC
  5
3C8
100
AcDbEntity
  8
0
100
AcDbCircle
 62
7
  6
CONTINUOUS
 10
348.8997137679
 20
445.1695634851
 40
0.0999999802
100
AcDbArc
 50
299.9999570369
 51
0.0000429695
  0
ARC
  5
3C9
100
AcDbEntity
  8
0
100
AcDbCircle
 62
7
  6
CONTINUOUS
 10
455.399713768
 20
448.9223402349
 40
0.0999999801
100
AcDbArc
 50
359.9999569947
 51
60.0000215265
  0
ARC
  5
3CA
100
AcDbEntity
  8
0
100
AcDbCircle
 62
7
  6
CONTINUOUS
 10
452.1497137679
 20
450.7987286098
 40
0.09999998
100
AcDbArc
 50
59.9999569033
 51
120.0000430721
  0
ARC
  5
3CB
100
AcDbEntity
  8
0
100
AcDbCircle
 62
7
  6
CONTINUOUS
 10
448.8997137679
 20
448.9223402348
 40
0.0999999802
100
AcDbArc
 50
119.9999570362
 51
180.0000430085
  0
ARC
  5
3CC
100
AcDbEntity
  8
0
100
AcDbCircle
 62
7
  6
CONTINUOUS
 10
448.8997137678
 20
445.1695634851
 40
0.0999999801
100
AcDbArc
 50
179.9999569944
 51
240.0000429926
  0
ARC
  5
3CD
100
AcDbEntity
  8
0
100
AcDbCircle
 62
7
  6
CONTINUOUS
 10
452.1497137679
 20
443.2931751101
 40
0.09999998
100
AcDbArc
 50
239.9999569032
 51
300.0000430722
  0
ARC
  5
3CE
100
AcDbEntity
  8
0
100
AcDbCircle
 62
7
  6
CONTINUOUS
 10
455.3997137679
 20
445.1695634851
 40
0.0999999802
100
AcDbArc
 50
299.9999570362
 51
0.0000430085
  0
ARC
  5
3CF
100
AcDbEntity
  8
0
100
AcDbCircle
 62
7
  6
CONTINUOUS
 10
593.1497137679
 20
449.54595186
 40
25.0
100
AcDbArc
 50
270.0
 51
360.0
  0
ARC
  5
3D0
100
AcDbEntity
  8
0
100
AcDbCircle
 62
7
  6
CONTINUOUS
 10
593.1497137679
 20
449.54595186
 40
23.5
100
AcDbArc
 50
270.0
 51
360.0
  0
ARC
  5
3D1
100
AcDbEntity
  8
0
100
AcDbCircle
 62
7
  6
CONTINUOUS
 10
593.1497137679
 20
449.54595186
 40
13.5
100
AcDbArc
 50
270.0
 51
360.0
  0
ARC
  5
3D2
100
AcDbEntity
  8
0
100
AcDbCircle
 62
7
  6
CONTINUOUS
 10
593.1497137679
 20
449.54595186
 40
10.0
100
AcDbArc
 50
270.0
 51
360.0
  0
CIRCLE
  5
3D3
100
AcDbEntity
  8
0
100
AcDbCircle
 62
7
  6
CONTINUOUS
 10
558.6497137679
 20
447.04595186
 40
3.2837168574
  0
CIRCLE
  5
3D4
100
AcDbEntity
  8
0
100
AcDbCircle
 62
7
  6
CONTINUOUS
 10
558.6497137679
 20
447.04595186
 40
2.2837168574
  0
CIRCLE
  5
3D5
100
AcDbEntity
  8
0
100
AcDbCircle
 62
7
  6
CONTINUOUS
 10
558.6497137679
 20
447.04595186
 40
2.0
  0
CIRCLE
  5
3D6
100
AcDbEntity
  8
0
100
AcDbCircle
 62
7
  6
CONTINUOUS
 10
525.6497137679
 20
431.04595186
 40
2.0
  0
CIRCLE
  5
3D7
100
AcDbEntity
  8
0
100
AcDbCircle
 62
7
  6
CONTINUOUS
 10
558.6497137679
 20
447.04595186
 40
1.5
  0
ARC
  5
3D8
100
AcDbEntity
  8
0
100
AcDbCircle
 62
7
  6
CONTINUOUS
 10
558.6497137679
 20
443.2931751102
 40
0.2
100
AcDbArc
 50
239.9999999925
 51
299.9999999993
  0
ARC
  5
3D9
100
AcDbEntity
  8
0
100
AcDbCircle
 62
7
  6
CONTINUOUS
 10
555.3997137678
 20
445.169563485
 40
0.1999999999
100
AcDbArc
 50
179.9999999605
 51
240.0000000022
  0
ARC
  5
3DA
100
AcDbEntity
  8
0
100
AcDbCircle
 62
7
  6
CONTINUOUS
 10
561.8997137679
 20
445.1695634851
 40
0.2
100
AcDbArc
 50
299.9999999924
 51
360.0
  0
ARC
  5
3DB
100
AcDbEntity
  8
0
100
AcDbCircle
 62
7
  6
CONTINUOUS
 10
561.8997137679
 20
448.9223402349
 40
0.1999999999
100
AcDbArc
 50
0.0
 51
60.0000000022
  0
ARC
  5
3DC
100
AcDbEntity
  8
0
100
AcDbCircle
 62
7
  6
CONTINUOUS
 10
558.6497137679
 20
450.7987286097
 40
0.2
100
AcDbArc
 50
59.9999999926
 51
119.9999999993
  0
ARC
  5
3DD
100
AcDbEntity
  8
0
100
AcDbCircle
 62
7
  6
CONTINUOUS
 10
555.3997137679
 20
448.9223402348
 40
0.2
100
AcDbArc
 50
119.9999999937
 51
180.0
  0
ARC
  5
3DE
100
AcDbEntity
  8
0
100
AcDbCircle
 62
7
  6
CONTINUOUS
 10
561.899713768
 20
448.9223402349
 40
0.0999999801
100
AcDbArc
 50
359.9999569947
 51
60.0000215265
  0
ARC
  5
3DF
100
AcDbEntity
  8
0
100
AcDbCircle
 62
7
  6
CONTINUOUS
 10
558.6497137679
 20
450.7987286098
 40
0.09999998
100
AcDbArc
 50
59.9999569034
 51
120.0000430721
  0
ARC
  5
3E0
100
AcDbEntity
  8
0
100
AcDbCircle
 62
7
  6
CONTINUOUS
 10
555.3997137679
 20
448.9223402348
 40
0.0999999802
100
AcDbArc
 50
119.9999570361
 51
180.0000430085
  0
ARC
  5
3E1
100
AcDbEntity
  8
0
100
AcDbCircle
 62
7
  6
CONTINUOUS
 10
555.3997137678
 20
445.1695634851
 40
0.0999999801
100
AcDbArc
 50
179.9999569946
 51
240.0000429924
  0
ARC
  5
3E2
100
AcDbEntity
  8
0
100
AcDbCircle
 62
7
  6
CONTINUOUS
 10
558.6497137679
 20
443.2931751101
 40
0.09999998
100
AcDbArc
 50
239.9999569034
 51
300.0000430721
  0
ARC
  5
3E3
100
AcDbEntity
  8
0
100
AcDbCircle
 62
7
  6
CONTINUOUS
 10
561.8997137679
 20
445.1695634851
 40
0.0999999802
100
AcDbArc
 50
299.9999570361
 51
0.0000430085
  0
ARC
  5
3E4
100
AcDbEntity
  8
0
100
AcDbCircle
 62
7
  6
CONTINUOUS
 10
573.1497137679
 20
469.54595186
 40
10.0
100
AcDbArc
 50
270.0
 51
360.0
  0
ARC
  5
3E5
100
AcDbEntity
  8
0
100
AcDbCircle
 62
7
  6
CONTINUOUS
 10
595.6497137679
 20
485.7931751102
 40
0.2
100
AcDbArc
 50
239.9999999927
 51
300.0
  0
ARC
  5
3E6
100
AcDbEntity
  8
0
100
AcDbCircle
 62
7
  6
CONTINUOUS
 10
592.3997137679
 20
487.6695634851
 40
0.2
100
AcDbArc
 50
179.9999999957
 51
239.9999999944
  0
ARC
  5
3E7
100
AcDbEntity
  8
0
100
AcDbCircle
 62
7
  6
CONTINUOUS
 10
598.8997137679
 20
487.6695634851
 40
0.2
100
AcDbArc
 50
299.9999999928
 51
360.0
  0
ARC
  5
3E8
100
AcDbEntity
  8
0
100
AcDbCircle
 62
7
  6
CONTINUOUS
 10
592.3997137678
 20
487.6695634851
 40
0.0999999801
100
AcDbArc
 50
179.9999569922
 51
240.0000430074
  0
ARC
  5
3E9
100
AcDbEntity
  8
0
100
AcDbCircle
 62
7
  6
CONTINUOUS
 10
595.6497137679
 20
485.7931751101
 40
0.09999998
100
AcDbArc
 50
239.9999569125
 51
300.0000430751
  0
ARC
  5
3EA
100
AcDbEntity
  8
0
100
AcDbCircle
 62
7
  6
CONTINUOUS
 10
598.8997137679
 20
487.6695634851
 40
0.0999999802
100
AcDbArc
 50
299.9999570164
 51
0.0000430085
  0
CIRCLE
  5
3EB
100
AcDbEntity
  8
0
100
AcDbCircle
 62
7
  6
CONTINUOUS
 10
345.6497137679
 20
532.04595186
 40
3.2837168574
  0
CIRCLE
  5
3EC
100
AcDbEntity
  8
0
100
AcDbCircle
 62
7
  6
CONTINUOUS
 10
452.1497137679
 20
532.04595186
 40
3.2837168574
  0
CIRCLE
  5
3ED
100
AcDbEntity
  8
0
100
AcDbCircle
 62
7
  6
CONTINUOUS
 10
345.6497137679
 20
532.04595186
 40
2.2837168574
  0
CIRCLE
  5
3EE
100
AcDbEntity
  8
0
100
AcDbCircle
 62
7
  6
CONTINUOUS
 10
452.1497137679
 20
532.04595186
 40
2.2837168574
  0
CIRCLE
  5
3EF
100
AcDbEntity
  8
0
100
AcDbCircle
 62
7
  6
CONTINUOUS
 10
452.1497137679
 20
532.04595186
 40
2.0
  0
CIRCLE
  5
3F0
100
AcDbEntity
  8
0
100
AcDbCircle
 62
7
  6
CONTINUOUS
 10
345.6497137679
 20
532.04595186
 40
2.0
  0
CIRCLE
  5
3F1
100
AcDbEntity
  8
0
100
AcDbCircle
 62
7
  6
CONTINUOUS
 10
405.6497137679
 20
548.04595186
 40
2.0
  0
CIRCLE
  5
3F2
100
AcDbEntity
  8
0
100
AcDbCircle
 62
7
  6
CONTINUOUS
 10
452.1497137679
 20
532.04595186
 40
1.5
  0
CIRCLE
  5
3F3
100
AcDbEntity
  8
0
100
AcDbCircle
 62
7
  6
CONTINUOUS
 10
345.6497137679
 20
532.04595186
 40
1.5
  0
ARC
  5
3F4
100
AcDbEntity
  8
0
100
AcDbCircle
 62
7
  6
CONTINUOUS
 10
345.6497137679
 20
528.2931751102
 40
0.2
100
AcDbArc
 50
239.999999987
 51
299.9999999999
  0
ARC
  5
3F5
100
AcDbEntity
  8
0
100
AcDbCircle
 62
7
  6
CONTINUOUS
 10
348.8997137679
 20
530.1695634851
 40
0.2
100
AcDbArc
 50
299.999999987
 51
360.0
  0
ARC
  5
3F6
100
AcDbEntity
  8
0
100
AcDbCircle
 62
7
  6
CONTINUOUS
 10
348.8997137679
 20
533.9223402348
 40
0.2
100
AcDbArc
 50
0.0
 51
60.0000000002
  0
ARC
  5
3F7
100
AcDbEntity
  8
0
100
AcDbCircle
 62
7
  6
CONTINUOUS
 10
345.6497137679
 20
535.7987286097
 40
0.2
100
AcDbArc
 50
59.999999987
 51
119.9999999999
  0
ARC
  5
3F8
100
AcDbEntity
  8
0
100
AcDbCircle
 62
7
  6
CONTINUOUS
 10
452.1497137679
 20
528.2931751102
 40
0.2
100
AcDbArc
 50
239.9999999927
 51
299.9999999989
  0
ARC
  5
3F9
100
AcDbEntity
  8
0
100
AcDbCircle
 62
7
  6
CONTINUOUS
 10
448.8997137678
 20
530.169563485
 40
0.1999999999
100
AcDbArc
 50
179.9999999603
 51
240.0000000023
  0
ARC
  5
3FA
100
AcDbEntity
  8
0
100
AcDbCircle
 62
7
  6
CONTINUOUS
 10
455.3997137679
 20
530.1695634851
 40
0.2
100
AcDbArc
 50
299.9999999924
 51
360.0
  0
ARC
  5
3FB
100
AcDbEntity
  8
0
100
AcDbCircle
 62
7
  6
CONTINUOUS
 10
455.3997137679
 20
533.9223402349
 40
0.1999999999
100
AcDbArc
 50
0.0
 51
60.0000000022
  0
ARC
  5
3FC
100
AcDbEntity
  8
0
100
AcDbCircle
 62
7
  6
CONTINUOUS
 10
452.1497137679
 20
535.7987286097
 40
0.2
100
AcDbArc
 50
59.9999999925
 51
119.9999999992
  0
ARC
  5
3FD
100
AcDbEntity
  8
0
100
AcDbCircle
 62
7
  6
CONTINUOUS
 10
448.8997137679
 20
533.9223402348
 40
0.2
100
AcDbArc
 50
119.9999999937
 51
180.0
  0
ARC
  5
3FE
100
AcDbEntity
  8
0
100
AcDbCircle
 62
7
  6
CONTINUOUS
 10
348.8997137679
 20
533.9223402348
 40
0.0999999802
100
AcDbArc
 50
359.9999570468
 51
60.0000214571
  0
ARC
  5
3FF
100
AcDbEntity
  8
0
100
AcDbCircle
 62
7
  6
CONTINUOUS
 10
345.6497137679
 20
535.7987286097
 40
0.0999999801
100
AcDbArc
 50
59.9999569632
 51
120.0000430545
  0
ARC
  5
400
100
AcDbEntity
  8
0
100
AcDbCircle
 62
7
  6
CONTINUOUS
 10
345.6497137679
 20
528.2931751102
 40
0.0999999801
100
AcDbArc
 50
239.9999569633
 51
300.0000430545
  0
ARC
  5
401
100
AcDbEntity
  8
0
100
AcDbCircle
 62
7
  6
CONTINUOUS
 10
348.8997137679
 20
530.1695634851
 40
0.0999999802
100
AcDbArc
 50
299.999957037
 51
0.0000429694
  0
ARC
  5
402
100
AcDbEntity
  8
0
100
AcDbCircle
 62
7
  6
CONTINUOUS
 10
455.399713768
 20
533.9223402349
 40
0.0999999801
100
AcDbArc
 50
359.9999569946
 51
60.0000215272
  0
ARC
  5
403
100
AcDbEntity
  8
0
100
AcDbCircle
 62
7
  6
CONTINUOUS
 10
452.1497137679
 20
535.7987286098
 40
0.09999998
100
AcDbArc
 50
59.9999569033
 51
120.0000430721
  0
ARC
  5
404
100
AcDbEntity
  8
0
100
AcDbCircle
 62
7
  6
CONTINUOUS
 10
448.8997137679
 20
533.9223402348
 40
0.0999999802
100
AcDbArc
 50
119.9999570362
 51
180.0000430085
  0
ARC
  5
405
100
AcDbEntity
  8
0
100
AcDbCircle
 62
7
  6
CONTINUOUS
 10
448.8997137678
 20
530.1695634851
 40
0.0999999801
100
AcDbArc
 50
179.9999569937
 51
240.0000429932
  0
ARC
  5
406
100
AcDbEntity
  8
0
100
AcDbCircle
 62
7
  6
CONTINUOUS
 10
452.1497137679
 20
528.2931751101
 40
0.09999998
100
AcDbArc
 50
239.9999569033
 51
300.0000430722
  0
ARC
  5
407
100
AcDbEntity
  8
0
100
AcDbCircle
 62
7
  6
CONTINUOUS
 10
455.3997137679
 20
530.1695634851
 40
0.0999999802
100
AcDbArc
 50
299.9999570362
 51
0.0000430085
  0
ARC
  5
408
100
AcDbEntity
  8
0
100
AcDbCircle
 62
7
  6
CONTINUOUS
 10
573.1497137679
 20
509.54595186
 40
10.0
100
AcDbArc
 50
0.0
 51
90.0
  0
CIRCLE
  5
409
100
AcDbEntity
  8
0
100
AcDbCircle
 62
7
  6
CONTINUOUS
 10
595.6497137679
 20
489.54595186
 40
3.2837168574
  0
CIRCLE
  5
40A
100
AcDbEntity
  8
0
100
AcDbCircle
 62
7
  6
CONTINUOUS
 10
595.6497137679
 20
489.54595186
 40
2.2837168574
  0
CIRCLE
  5
40B
100
AcDbEntity
  8
0
100
AcDbCircle
 62
7
  6
CONTINUOUS
 10
595.6497137679
 20
489.54595186
 40
2.0
  0
CIRCLE
  5
40C
100
AcDbEntity
  8
0
100
AcDbCircle
 62
7
  6
CONTINUOUS
 10
611.6497137679
 20
489.54595186
 40
2.0
  0
CIRCLE
  5
40D
100
AcDbEntity
  8
0
100
AcDbCircle
 62
7
  6
CONTINUOUS
 10
595.6497137679
 20
489.54595186
 40
1.5
  0
ARC
  5
40E
100
AcDbEntity
  8
0
100
AcDbCircle
 62
7
  6
CONTINUOUS
 10
598.8997137678
 20
491.4223402348
 40
0.2000000001
100
AcDbArc
 50
0.0
 51
59.9999999943
  0
ARC
  5
40F
100
AcDbEntity
  8
0
100
AcDbCircle
 62
7
  6
CONTINUOUS
 10
595.6497137679
 20
493.2987286097
 40
0.2
100
AcDbArc
 50
59.9999999927
 51
120.0
  0
ARC
  5
410
100
AcDbEntity
  8
0
100
AcDbCircle
 62
7
  6
CONTINUOUS
 10
592.3997137679
 20
491.4223402348
 40
0.2
100
AcDbArc
 50
119.9999999928
 51
180.0
  0
ARC
  5
411
100
AcDbEntity
  8
0
100
AcDbCircle
 62
7
  6
CONTINUOUS
 10
598.899713768
 20
491.4223402349
 40
0.0999999801
100
AcDbArc
 50
359.9999569922
 51
60.000021531
  0
ARC
  5
412
100
AcDbEntity
  8
0
100
AcDbCircle
 62
7
  6
CONTINUOUS
 10
595.6497137679
 20
493.2987286098
 40
0.09999998
100
AcDbArc
 50
59.9999569126
 51
120.000043075
  0
ARC
  5
413
100
AcDbEntity
  8
0
100
AcDbCircle
 62
7
  6
CONTINUOUS
 10
592.3997137679
 20
491.4223402348
 40
0.0999999802
100
AcDbArc
 50
119.9999570164
 51
180.0000430083
  0
ARC
  5
414
100
AcDbEntity
  8
0
100
AcDbCircle
 62
7
  6
CONTINUOUS
 10
593.1497137679
 20
529.54595186
 40
25.0
100
AcDbArc
 50
0.0
 51
90.0
  0
ARC
  5
415
100
AcDbEntity
  8
0
100
AcDbCircle
 62
7
  6
CONTINUOUS
 10
593.1497137679
 20
529.54595186
 40
23.5
100
AcDbArc
 50
0.0
 51
90.0
  0
ARC
  5
416
100
AcDbEntity
  8
0
100
AcDbCircle
 62
7
  6
CONTINUOUS
 10
593.1497137679
 20
529.54595186
 40
13.5
100
AcDbArc
 50
0.0
 51
90.0
  0
ARC
  5
417
100
AcDbEntity
  8
0
100
AcDbCircle
 62
7
  6
CONTINUOUS
 10
593.1497137679
 20
529.54595186
 40
10.0
100
AcDbArc
 50
0.0
 51
90.0
  0
CIRCLE
  5
418
100
AcDbEntity
  8
0
100
AcDbCircle
 62
7
  6
CONTINUOUS
 10
558.6497137679
 20
532.04595186
 40
3.2837168574
  0
CIRCLE
  5
419
100
AcDbEntity
  8
0
100
AcDbCircle
 62
7
  6
CONTINUOUS
 10
558.6497137679
 20
532.04595186
 40
2.2837168574
  0
CIRCLE
  5
41A
100
AcDbEntity
  8
0
100
AcDbCircle
 62
7
  6
CONTINUOUS
 10
558.6497137679
 20
532.04595186
 40
2.0
  0
CIRCLE
  5
41B
100
AcDbEntity
  8
0
100
AcDbCircle
 62
7
  6
CONTINUOUS
 10
525.6497137679
 20
548.04595186
 40
2.0
  0
CIRCLE
  5
41C
100
AcDbEntity
  8
0
100
AcDbCircle
 62
7
  6
CONTINUOUS
 10
558.6497137679
 20
532.04595186
 40
1.5
  0
ARC
  5
41D
100
AcDbEntity
  8
0
100
AcDbCircle
 62
7
  6
CONTINUOUS
 10
558.6497137679
 20
528.2931751102
 40
0.2
100
AcDbArc
 50
239.9999999925
 51
299.9999999992
  0
ARC
  5
41E
100
AcDbEntity
  8
0
100
AcDbCircle
 62
7
  6
CONTINUOUS
 10
555.3997137678
 20
530.169563485
 40
0.1999999999
100
AcDbArc
 50
179.9999999604
 51
240.0000000025
  0
ARC
  5
41F
100
AcDbEntity
  8
0
100
AcDbCircle
 62
7
  6
CONTINUOUS
 10
561.8997137679
 20
530.1695634851
 40
0.2
100
AcDbArc
 50
299.9999999924
 51
360.0
  0
ARC
  5
420
100
AcDbEntity
  8
0
100
AcDbCircle
 62
7
  6
CONTINUOUS
 10
561.8997137679
 20
533.9223402349
 40
0.1999999999
100
AcDbArc
 50
0.0
 51
60.0000000022
  0
ARC
  5
421
100
AcDbEntity
  8
0
100
AcDbCircle
 62
7
  6
CONTINUOUS
 10
558.6497137679
 20
535.7987286097
 40
0.2
100
AcDbArc
 50
59.9999999927
 51
119.9999999989
  0
ARC
  5
422
100
AcDbEntity
  8
0
100
AcDbCircle
 62
7
  6
CONTINUOUS
 10
555.3997137679
 20
533.9223402348
 40
0.2
100
AcDbArc
 50
119.9999999937
 51
180.0
  0
ARC
  5
423
100
AcDbEntity
  8
0
100
AcDbCircle
 62
7
  6
CONTINUOUS
 10
561.899713768
 20
533.9223402349
 40
0.0999999801
100
AcDbArc
 50
359.9999569947
 51
60.0000215271
  0
ARC
  5
424
100
AcDbEntity
  8
0
100
AcDbCircle
 62
7
  6
CONTINUOUS
 10
558.6497137679
 20
535.7987286098
 40
0.09999998
100
AcDbArc
 50
59.9999569034
 51
120.0000430721
  0
ARC
  5
425
100
AcDbEntity
  8
0
100
AcDbCircle
 62
7
  6
CONTINUOUS
 10
555.3997137679
 20
533.9223402348
 40
0.0999999802
100
AcDbArc
 50
119.999957036
 51
180.0000430085
  0
ARC
  5
426
100
AcDbEntity
  8
0
100
AcDbCircle
 62
7
  6
CONTINUOUS
 10
555.3997137678
 20
530.1695634851
 40
0.0999999801
100
AcDbArc
 50
179.9999569946
 51
240.0000429925
  0
ARC
  5
427
100
AcDbEntity
  8
0
100
AcDbCircle
 62
7
  6
CONTINUOUS
 10
558.6497137679
 20
528.2931751101
 40
0.09999998
100
AcDbArc
 50
239.9999569035
 51
300.000043072
  0
ARC
  5
428
100
AcDbEntity
  8
0
100
AcDbCircle
 62
7
  6
CONTINUOUS
 10
561.8997137679
 20
530.1695634851
 40
0.0999999802
100
AcDbArc
 50
299.999957036
 51
0.0000430085
  0
ENDSEC
  0
SECTION
  2
OBJECTS
  0
DICTIONARY
  5
C
100
AcDbDictionary
280
0
281
1
  3
ACAD_GROUP
350
D
  3
ACAD_MLINESTYLE
350
17
  3
ACAD_LAYOUT
350
1A
  3
ACAD_PLOTSETTINGS
350
19
  3
ACAD_PLOTSTYLENAME
350
E
  0
DICTIONARY
  5
D
102
{ACAD_REACTORS
330
C
102
}
100
AcDbDictionary
280
0
281
1
  0
ACDBDICTIONARYWDFLT
  5
E
102
{ACAD_REACTORS
330
C
102
}
100
AcDbDictionary
281
1
  3
Normal
350
F
100
AcDbDictionaryWithDefault
340
F
  0
DICTIONARY
  5
17
102
{ACAD_REACTORS
330
C
102
}
100
AcDbDictionary
280
0
281
1
  3
Standard
350
18
  0
DICTIONARY
  5
19
102
{ACAD_REACTORS
330
C
102
}
100
AcDbDictionary
281
1
  0
DICTIONARY
  5
1A
102
{ACAD_REACTORS
330
C
102
}
100
AcDbDictionary
281
1
  3
Model
350
429
  3
Layout1
350
42A
  0
ACDBPLACEHOLDER
  5
F
102
{ACAD_REACTORS
330
E
102
}
  0
MLINESTYLE
  5
18
102
{ACAD_REACTORS
330
17
102
}
100
AcDbMlineStyle
  2
STANDARD
 70
0
  3

 62
256
 51
90.0
 52
90.0
 71
2
 49
0.5
 62
256
  6
BYLAYER
 49
-0.5
 62
256
  6
BYLAYER
  0
LAYOUT
  5
429
102
{ACAD_REACTORS
330
1A
102
}
100
AcDbPlotSettings
  1

  2
none_device
  4

  6

 40
0.0
 41
0.0
 42
0.0
 43
0.0
 44
210.0
 45
297.0
 46
0.0
 47
0.0
 48
0.0
 49
0.0
140
0.0
141
0.0
142
1.0
143
1.0
 70
1024
 72
1
 73
0
 74
0
  7

 75
0
147
1.0
148
0.0
149
0.0
100
AcDbLayout
  1
Model
 70
0
 71
0
 10
0.0
 20
0.0
 11
210.0
 21
297.0
 12
0.0
 22
0.0
 32
0.0
 14
0.0
 24
0.0
 34
0.0
 15
0.0
 25
0.0
 35
0.0
146
0.0
 13
0.0
 23
0.0
 33
0.0
 16
1.0
 26
0.0
 36
0.0
 17
0.0
 27
1.0
 37
0.0
 76
0
330
210
345
0
346
0
  0
LAYOUT
  5
42A
102
{ACAD_REACTORS
330
1A
102
}
100
AcDbPlotSettings
  1

  2
none_device
  4

  6

 40
0.0
 41
0.0
 42
0.0
 43
0.0
 44
210.0
 45
297.0
 46
0.0
 47
0.0
 48
0.0
 49
0.0
140
0.0
141
0.0
142
1.0
143
1.0
 70
0
 72
1
 73
0
 74
0
  7

 75
0
147
1.0
148
0.0
149
0.0
100
AcDbLayout
  1
Layout1
 70
0
 71
1
 10
0.0
 20
0.0
 11
210.0
 21
297.0
 12
0.0
 22
0.0
 32
0.0
 14
0.0
 24
0.0
 34
0.0
 15
0.0
 25
0.0
 35
0.0
146
0.0
 13
0.0
 23
0.0
 33
0.0
 16
1.0
 26
0.0
 36
0.0
 17
0.0
 27
1.0
 37
0.0
 76
0
330
211
345
0
346
0
  0
ENDSEC
  0
EOF
