999
DXF file: C:\Users\sesa63760\Dev\_Creo\CAD\MCADID0004819_3D-CAD\drw0001_5.dxf
999
Pro/ENGINEER 2019471 by Parametric Technology Corporation
  0
SECTION
  2
HEADER
  9
$ACADVER
  1
AC1024
  9
$DWGCODEPAGE
  3
ANSI_1252
  9
$EXTMAX
 10
63.5570299949
 20
89.8877995643
 30
0.0
  9
$EXTMIN
 10
0.0
 20
0.0
 30
0.0
  9
$LIMMIN
 10
0.0
 20
0.0
  9
$LIMMAX
 10
63.5570299949
 20
89.8877995643
  9
$VIEWCTR
 10
31.7785149975
 20
44.9438997821
  9
$VIEWSIZE
 40
89.8877995643
  9
$CLAYER
  8
0
  9
$LTSCALE
 40
5.8593528605
  9
$CELTYPE
  6
BYLAYER
  9
$DIMSCALE
 40
1.0
  9
$DIMASZ
 40
0.7566313095
  9
$DIMEXO
 40
1.0
  9
$DIMDLI
 40
4.0482801582
  9
$DIMEXE
 40
1.0
  9
$DIMCEN
 40
0.9588031954
  9
$DIMLFAC
 40
1.0
  9
$DIMBLK
  1
_FILLED
  9
$DIMALT
 70
0
  9
$DIMALTF
 40
0.0393700787
  9
$DIMTXT
 40
1.0592838332
  9
$DIMTOL
 70
1
  9
$DIMLIM
 70
0
  9
$DIMTFAC
 40
1.0
  9
$DIMTP
 40
0.01
  9
$DIMTM
 40
0.01
  9
$DIMGAP
 40
0.625
  9
$DIMDSEP
 70
46
  9
$AUNITS
 70
0
  9
$PDMODE
 70
3
  9
$PDSIZE
 40
0.3125
  9
$HANDSEED
  5
253
  9
$TILEMODE
 70
1
  9
$MEASUREMENT
 70
1
  9
$INSUNITS
 70
4
  0
ENDSEC
  0
SECTION
  2
CLASSES
  0
CLASS
  1
ACDBDICTIONARYWDFLT
  2
AcDbDictionaryWithDefault
  3
AutoCAD 2000
 90
0
 91
1
280
0
281
0
  0
CLASS
  1
ACDBPLACEHOLDER
  2
AcDbPlaceHolder
  3
AutoCAD 2000
 90
0
 91
1
280
0
281
0
  0
CLASS
  1
LAYOUT
  2
AcDbLayout
  3
AutoCAD 2000
 90
0
 91
0
280
0
281
0
  0
ENDSEC
  0
SECTION
  2
TABLES
  0
TABLE
  2
VPORT
  5
8
100
AcDbSymbolTable
 70
2
  0
VPORT
  5
1F4
100
AcDbSymbolTableRecord
100
AcDbViewportTableRecord
  2
*ACTIVE
 70
0
 10
0.0
 20
0.0
 11
1.0
 21
1.0
 12
31.7785149975
 22
44.9438997821
 13
0.0
 23
0.0
 14
1.0
 24
1.0
 15
0.0
 25
0.0
 16
0.0
 26
0.0
 36
1.0
 17
0.0
 27
0.0
 37
0.0
 40
89.8877995643
 41
0.7070707071
 42
50.0
 43
0.0
 44
0.0
 50
0.0
 51
0.0
 71
0
 72
100
 73
1
 74
1
 75
0
 76
0
 77
0
 78
0
  0
ENDTAB
  0
TABLE
  2
LTYPE
  5
5
100
AcDbSymbolTable
 70
6
  0
LTYPE
  5
14
100
AcDbSymbolTableRecord
100
AcDbLinetypeTableRecord
  2
BYBLOCK
 70
0
  3

 72
65
 73
0
 40
0.0
  0
LTYPE
  5
15
100
AcDbSymbolTableRecord
100
AcDbLinetypeTableRecord
  2
BYLAYER
 70
0
  3

 72
65
 73
0
 40
0.0
  0
LTYPE
  5
16
100
AcDbSymbolTableRecord
100
AcDbLinetypeTableRecord
  2
CONTINUOUS
 70
64
  3
Solid line
 72
65
 73
0
 40
0.0
  0
LTYPE
  5
1F5
100
AcDbSymbolTableRecord
100
AcDbLinetypeTableRecord
  2
CENTER
 70
64
  3
____ _ ____ _ ____ _ ____ _ ____ _ ____ _ ____
 72
65
 73
4
 40
0.6
 49
0.375
 74
0
 49
-0.075
 74
0
 49
0.075
 74
0
 49
-0.075
 74
0
  0
LTYPE
  5
1F6
100
AcDbSymbolTableRecord
100
AcDbLinetypeTableRecord
  2
HIDDEN
 70
64
  3
- - - - - - - - - - - - - - - - - - - -
 72
65
 73
2
 40
0.2
 49
0.1
 74
0
 49
-0.1
 74
0
  0
LTYPE
  5
1F7
100
AcDbSymbolTableRecord
100
AcDbLinetypeTableRecord
  2
PHANTOM
 70
64
  3
_____ _ _ _____ _ _ _____ _ _ _____
 72
65
 73
6
 40
0.8
 49
0.45
 74
0
 49
-0.05
 74
0
 49
0.1
 74
0
 49
-0.05
 74
0
 49
0.1
 74
0
 49
-0.05
 74
0
  0
LTYPE
  5
1F8
100
AcDbSymbolTableRecord
100
AcDbLinetypeTableRecord
  2
DOT
 70
64
  3
. . . . . . . . . . . . . . . . . . . .
 72
65
 73
2
 40
0.2
 49
0.1
 74
0
 49
-0.1
 74
0
  0
LTYPE
  5
1F9
100
AcDbSymbolTableRecord
100
AcDbLinetypeTableRecord
  2
DASHED
 70
64
  3
- - - - - - - - - - - - - - - - - - - -
 72
65
 73
2
 40
0.2
 49
0.1
 74
0
 49
-0.1
 74
0
  0
ENDTAB
  0
TABLE
  2
LAYER
  5
2
100
AcDbSymbolTable
 70
36
  0
LAYER
  5
10
100
AcDbSymbolTableRecord
100
AcDbLayerTableRecord
  2
0
 70
0
 62
7
  6
CONTINUOUS
370
-3
390
F
  0
LAYER
  5
1FA
100
AcDbSymbolTableRecord
100
AcDbLayerTableRecord
  2
DEFAULT_1
 70
0
 62
7
  6
CENTER
370
-3
390
F
  0
LAYER
  5
1FB
100
AcDbSymbolTableRecord
100
AcDbLayerTableRecord
  2
DEFAULT_2
 70
0
 62
7
  6
HIDDEN
370
-3
390
F
  0
LAYER
  5
1FC
100
AcDbSymbolTableRecord
100
AcDbLayerTableRecord
  2
DEFAULT_3
 70
0
 62
7
  6
PHANTOM
370
-3
390
F
  0
LAYER
  5
1FD
100
AcDbSymbolTableRecord
100
AcDbLayerTableRecord
  2
00_COMPONENTS
 70
0
 62
7
  6
CONTINUOUS
370
-3
390
F
  0
LAYER
  5
1FE
100
AcDbSymbolTableRecord
100
AcDbLayerTableRecord
  2
01_1_DEFAULT_DATUMS
 70
0
 62
7
  6
CONTINUOUS
370
-3
390
F
  0
LAYER
  5
1FF
100
AcDbSymbolTableRecord
100
AcDbLayerTableRecord
  2
01_PLANES
 70
0
 62
7
  6
CONTINUOUS
370
-3
390
F
  0
LAYER
  5
200
100
AcDbSymbolTableRecord
100
AcDbLayerTableRecord
  2
02_COORD_SYS
 70
0
 62
7
  6
CONTINUOUS
370
-3
390
F
  0
LAYER
  5
201
100
AcDbSymbolTableRecord
100
AcDbLayerTableRecord
  2
03_AXES
 70
0
 62
7
  6
CONTINUOUS
370
-3
390
F
  0
LAYER
  5
202
100
AcDbSymbolTableRecord
100
AcDbLayerTableRecord
  2
04_POINTS
 70
0
 62
7
  6
CONTINUOUS
370
-3
390
F
  0
LAYER
  5
203
100
AcDbSymbolTableRecord
100
AcDbLayerTableRecord
  2
05_CURVES
 70
0
 62
7
  6
CONTINUOUS
370
-3
390
F
  0
LAYER
  5
204
100
AcDbSymbolTableRecord
100
AcDbLayerTableRecord
  2
06_SURFS
 70
0
 62
7
  6
CONTINUOUS
370
-3
390
F
  0
LAYER
  5
205
100
AcDbSymbolTableRecord
100
AcDbLayerTableRecord
  2
07_COSMETICS
 70
0
 62
7
  6
CONTINUOUS
370
-3
390
F
  0
LAYER
  5
206
100
AcDbSymbolTableRecord
100
AcDbLayerTableRecord
  2
10_NOTES
 70
0
 62
7
  6
CONTINUOUS
370
-3
390
F
  0
LAYER
  5
207
100
AcDbSymbolTableRecord
100
AcDbLayerTableRecord
  2
11_NOTES_PUB
 70
0
 62
7
  6
CONTINUOUS
370
-3
390
F
  0
LAYER
  5
208
100
AcDbSymbolTableRecord
100
AcDbLayerTableRecord
  2
13_REF_GTOL
 70
0
 62
7
  6
CONTINUOUS
370
-3
390
F
  0
LAYER
  5
209
100
AcDbSymbolTableRecord
100
AcDbLayerTableRecord
  2
16_MISC
 70
0
 62
7
  6
CONTINUOUS
370
-3
390
F
  0
LAYER
  5
20A
100
AcDbSymbolTableRecord
100
AcDbLayerTableRecord
  2
17_NO_PRINT
 70
0
 62
7
  6
CONTINUOUS
370
-3
390
F
  0
LAYER
  5
20B
100
AcDbSymbolTableRecord
100
AcDbLayerTableRecord
  2
18_DATUM_CAMS_JOINTS
 70
0
 62
7
  6
CONTINUOUS
370
-3
390
F
  0
LAYER
  5
20C
100
AcDbSymbolTableRecord
100
AcDbLayerTableRecord
  2
19_DATUM_FUNCTIONAL
 70
0
 62
7
  6
CONTINUOUS
370
-3
390
F
  0
LAYER
  5
20D
100
AcDbSymbolTableRecord
100
AcDbLayerTableRecord
  2
20_DATUM_KINEMATIC_SCHEME
 70
0
 62
7
  6
CONTINUOUS
370
-3
390
F
  0
ENDTAB
  0
TABLE
  2
STYLE
  5
3
100
AcDbSymbolTable
 70
1
  0
STYLE
  5
11
100
AcDbSymbolTableRecord
100
AcDbTextStyleTableRecord
  2
STANDARD
 70
0
 40
0.0
 41
1.0
 50
0.0
 71
0
 42
0.2
  3
ARIAL.TTF
  4

  0
STYLE
  5
20E
100
AcDbSymbolTableRecord
100
AcDbTextStyleTableRecord
  2
TEXTSTYLE_1
 70
0
 40
0.0
 41
0.8
 50
0.0
 71
0
 42
0.2
  3
gdt
  4

  0
ENDTAB
  0
TABLE
  2
VIEW
  5
6
100
AcDbSymbolTable
 70
0
  0
ENDTAB
  0
TABLE
  2
UCS
  5
7
100
AcDbSymbolTable
 70
0
  0
ENDTAB
  0
TABLE
  2
APPID
  5
9
100
AcDbSymbolTable
 70
1
  0
APPID
  5
20F
100
AcDbSymbolTableRecord
100
AcDbRegAppTableRecord
  2
ACAD
 70
0
  0
ENDTAB
  0
TABLE
  2
BLOCK_RECORD
  5
1
100
AcDbSymbolTable
 70
0
  0
BLOCK_RECORD
  5
210
100
AcDbSymbolTableRecord
100
AcDbBlockTableRecord
  2
*Model_Space
  0
BLOCK_RECORD
  5
211
100
AcDbSymbolTableRecord
100
AcDbBlockTableRecord
  2
*Paper_Space
  0
BLOCK_RECORD
  5
212
100
AcDbSymbolTableRecord
100
AcDbBlockTableRecord
  2
_FILLED
  0
ENDTAB
  0
TABLE
  2
DIMSTYLE
  5
A
100
AcDbSymbolTable
 70
1
100
AcDbDimStyleTable
 71
0
  0
DIMSTYLE
105
213
100
AcDbSymbolTableRecord
100
AcDbDimStyleTableRecord
  2
STANDARD
 70
0
  3

  4

 40
1.0
 41
0.7566313095
 42
1.0
 43
0.38
 44
1.0
 45
0.0
 46
0.0
 47
0.01
 48
0.01
140
1.0592838332
141
0.09
142
0.0
143
25.4
144
1.0
145
0.0
146
1.0
147
0.625
 71
1
 72
0
 73
0
 74
0
 75
0
 76
0
 77
1
 78
8
 79
2
170
0
171
1
172
0
173
0
174
0
175
0
176
0
177
0
178
0
270
2
179
2
271
2
272
2
273
2
274
2
275
0
280
0
281
0
282
0
283
1
284
8
285
0
286
0
287
3
288
0
340
11
278
46
341
212
342
212
343
212
344
212
  0
ENDTAB
  0
ENDSEC
  0
SECTION
  2
BLOCKS
  0
BLOCK
  5
20
100
AcDbEntity
  8
0
100
AcDbBlockBegin
  2
*Model_Space
 70
0
 10
0.0
 20
0.0
 30
0.0
  3
*Model_Space
  1

  0
ENDBLK
  5
21
100
AcDbEntity
  8
0
100
AcDbBlockEnd
  0
BLOCK
  5
1C
100
AcDbEntity
  8
0
100
AcDbBlockBegin
  2
*Paper_Space
 70
0
 10
0.0
 20
0.0
 30
0.0
  3
*Paper_Space
  1

  0
ENDBLK
  5
1D
100
AcDbEntity
  8
0
100
AcDbBlockEnd
  0
BLOCK
  5
214
100
AcDbEntity
  8
0
100
AcDbBlockBegin
  2
_FILLED
 70
64
 10
0.0
 20
0.0
  3
_FILLED
  1

  0
SOLID
  5
215
100
AcDbEntity
  8
0
  6
BYBLOCK
 62
0
100
AcDbTrace
 10
0.0
 20
0.0
 11
-1.0
 21
0.25
 12
-1.0
 22
-0.25
 13
-1.0
 23
-0.25
  0
ENDBLK
  5
216
100
AcDbEntity
  8
0
  6
BYBLOCK
 62
0
100
AcDbBlockEnd
  0
ENDSEC
  0
SECTION
  2
ENTITIES
  0
LINE
  5
217
100
AcDbEntity
  8
0
100
AcDbLine
 62
7
  6
BYLAYER
 10
7.4086892894
 20
37.0539331065
 11
7.4086892894
 21
53.0539108735
  0
LINE
  5
218
100
AcDbEntity
  8
0
100
AcDbLine
 62
7
  6
BYLAYER
 10
9.1262739753
 20
52.6692509677
 11
9.1262739753
 21
37.4385930123
  0
LINE
  5
219
100
AcDbEntity
  8
0
100
AcDbLine
 62
7
  6
BYLAYER
 10
9.6128072191
 20
37.75392199
 11
9.6128072191
 21
52.35392199
  0
LINE
  5
21A
100
AcDbEntity
  8
0
100
AcDbLine
 62
7
  6
BYLAYER
 10
17.4086895381
 20
37.0610027365
 11
17.4086895085
 21
37.0663241722
  0
LINE
  5
21B
100
AcDbEntity
  8
0
100
AcDbLine
 62
7
  6
BYLAYER
 10
17.4086888814
 20
53.0468513152
 11
17.4086889283
 21
53.0415291367
  0
LWPOLYLINE
  5
21C
100
AcDbEntity
  8
0
100
AcDbPolyline
 62
7
  6
BYLAYER
 90
4
 70
0
 10
16.6020536209
 20
37.0538982767
 10
16.8363529222
 20
37.0556410824
 10
17.1710270162
 20
37.0598199784
 10
17.4086895381
 20
37.0610027365
  0
LINE
  5
21D
100
AcDbEntity
  8
0
100
AcDbLine
 62
7
  6
BYLAYER
 10
7.4086892894
 20
37.05392199
 11
57.4086892894
 21
37.05392199
  0
LINE
  5
21E
100
AcDbEntity
  8
0
100
AcDbLine
 62
7
  6
BYLAYER
 10
9.0682160902
 20
37.35392199
 11
7.4558452876
 21
37.35392199
  0
LINE
  5
21F
100
AcDbEntity
  8
0
100
AcDbLine
 62
7
  6
BYLAYER
 10
56.2086892894
 20
37.75392199
 11
9.6128072191
 21
37.75392199
  0
LINE
  5
220
100
AcDbEntity
  8
0
100
AcDbLine
 62
7
  6
BYLAYER
 10
45.8586892894
 20
38.05392199
 11
56.4086892894
 21
38.05392199
  0
LWPOLYLINE
  5
221
100
AcDbEntity
  8
0
100
AcDbPolyline
 62
7
  6
BYLAYER
 90
4
 70
0
 10
17.4086895827
 20
37.0609940003
 10
17.6379329177
 20
37.059901809
 10
17.9725784258
 20
37.0557458504
 10
18.2153293664
 20
37.053893549
  0
LINE
  5
222
100
AcDbEntity
  8
0
100
AcDbLine
 62
7
  6
BYLAYER
 10
52.4086892894
 20
41.35392199
 11
45.8586892894
 21
41.35392199
  0
LINE
  5
223
100
AcDbEntity
  8
0
100
AcDbLine
 62
7
  6
BYLAYER
 10
54.2723601425
 20
41.90392199
 11
56.4086892894
 21
41.90392199
  0
LINE
  5
224
100
AcDbEntity
  8
0
100
AcDbLine
 62
7
  6
BYLAYER
 10
57.4086892894
 20
41.90392199
 11
57.9086892894
 21
41.90392199
  0
LINE
  5
225
100
AcDbEntity
  8
0
100
AcDbLine
 62
7
  6
BYLAYER
 10
57.9086892894
 20
48.20392199
 11
57.4086892894
 21
48.20392199
  0
LINE
  5
226
100
AcDbEntity
  8
0
100
AcDbLine
 62
7
  6
BYLAYER
 10
56.4086892894
 20
48.20392199
 11
54.2721990624
 21
48.20392199
  0
LINE
  5
227
100
AcDbEntity
  8
0
100
AcDbLine
 62
7
  6
BYLAYER
 10
52.4086892894
 20
48.75392199
 11
45.8586892894
 21
48.75392199
  0
LINE
  5
228
100
AcDbEntity
  8
0
100
AcDbLine
 62
7
  6
BYLAYER
 10
56.4086892894
 20
52.05392199
 11
45.8586892894
 21
52.05392199
  0
LINE
  5
229
100
AcDbEntity
  8
0
100
AcDbLine
 62
7
  6
BYLAYER
 10
9.6128072191
 20
52.35392199
 11
56.2086892894
 21
52.35392199
  0
LWPOLYLINE
  5
22A
100
AcDbEntity
  8
0
100
AcDbPolyline
 62
7
  6
BYLAYER
 90
4
 70
0
 10
18.2153232426
 20
53.0539503382
 10
17.9813908486
 20
53.0522084961
 10
17.646715409
 20
53.0480249015
 10
17.4086888814
 20
53.0468513149
  0
LINE
  5
22B
100
AcDbEntity
  8
0
100
AcDbLine
 62
7
  6
BYLAYER
 10
7.4558452876
 20
52.75392199
 11
9.0682160902
 21
52.75392199
  0
LINE
  5
22C
100
AcDbEntity
  8
0
100
AcDbLine
 62
7
  6
BYLAYER
 10
7.4086892894
 20
53.05392199
 11
16.6020760011
 21
53.05392199
  0
LINE
  5
22D
100
AcDbEntity
  8
0
100
AcDbLine
 62
7
  6
BYLAYER
 10
16.6073037503
 20
53.05392199
 11
57.4086892894
 21
53.05392199
  0
LWPOLYLINE
  5
22E
100
AcDbEntity
  8
0
100
AcDbPolyline
 62
7
  6
BYLAYER
 90
4
 70
0
 10
17.4086888091
 20
53.0468381861
 10
17.1797173563
 20
53.0479385849
 10
16.8450700257
 20
53.052090109
 10
16.6020494542
 20
53.053962472
  0
LINE
  5
22F
100
AcDbEntity
  8
0
100
AcDbLine
 62
7
  6
BYLAYER
 10
45.8586892894
 20
38.05392199
 11
45.8586892894
 21
52.05392199
  0
LINE
  5
230
100
AcDbEntity
  8
0
100
AcDbLine
 62
7
  6
BYLAYER
 10
56.2086892894
 20
52.35392199
 11
56.2086892894
 21
52.05392199
  0
LINE
  5
231
100
AcDbEntity
  8
0
100
AcDbLine
 62
7
  6
BYLAYER
 10
56.2086892894
 20
38.05392199
 11
56.2086892894
 21
37.75392199
  0
LINE
  5
232
100
AcDbEntity
  8
0
100
AcDbLine
 62
7
  6
BYLAYER
 10
56.4086892894
 20
37.05392199
 11
56.4086892894
 21
53.05392199
  0
LINE
  5
233
100
AcDbEntity
  8
0
100
AcDbLine
 62
7
  6
BYLAYER
 10
57.4086892894
 20
37.05392199
 11
57.4086892894
 21
53.05392199
  0
LINE
  5
234
100
AcDbEntity
  8
0
100
AcDbLine
 62
7
  6
BYLAYER
 10
57.9086892894
 20
41.90392199
 11
57.9086892894
 21
48.20392199
  0
CIRCLE
  5
235
100
AcDbEntity
  8
0
100
AcDbCircle
 62
7
  6
BYLAYER
 10
52.4086892894
 20
45.05392199
 40
3.7
  0
SPLINE
  5
236
100
AcDbEntity
  8
0
100
AcDbSpline
 62
7
  6
BYLAYER
 70
0
 71
3
 72
19
 73
15
 74
0
 42
0.0000001
 43
0.0000001
 44
0.0000000001
 40
0.0
 40
0.0
 40
0.0
 40
0.0
 40
0.1283052633
 40
0.2560987834
 40
0.3829580082
 40
0.5085773306
 40
0.5709548278
 40
0.6329960821
 40
0.6947197974
 40
0.7561554808
 40
0.8173459932
 40
0.878342481
 40
0.9392054578
 40
1.0
 40
1.0
 40
1.0
 40
1.0
 10
46.0680165987
 20
45.05392199
 30
0.0
 10
46.0680165987
 20
44.8122639249
 30
0.0
 10
46.1129166739
 20
44.3287104912
 30
0.0
 10
46.3126766856
 20
43.6314205127
 30
0.0
 10
46.6371517438
 20
42.9881307577
 30
0.0
 10
47.0028760968
 20
42.5161571722
 30
0.0
 10
47.3433082793
 20
42.1898293428
 30
0.0
 10
47.6196257362
 20
41.9730632749
 30
0.0
 10
47.9147131344
 20
41.7859658333
 30
0.0
 10
48.2257824386
 20
41.6303648194
 30
0.0
 10
48.5497928886
 20
41.5077078686
 30
0.0
 10
48.8836670987
 20
41.4192769526
 30
0.0
 10
49.2241036975
 20
41.3658240518
 30
0.0
 10
49.453420469
 20
41.353933332
 30
0.0
 10
49.5679246684
 20
41.353933332
 30
0.0
  0
SPLINE
  5
237
100
AcDbEntity
  8
0
100
AcDbSpline
 62
7
  6
BYLAYER
 70
0
 71
3
 72
19
 73
15
 74
0
 42
0.0000001
 43
0.0000001
 44
0.0000000001
 40
0.0
 40
0.0
 40
0.0
 40
0.0
 40
0.0607945422
 40
0.121657519
 40
0.1826540068
 40
0.2438445192
 40
0.3052802026
 40
0.3670039179
 40
0.4290451722
 40
0.4914226694
 40
0.6170419918
 40
0.7439012166
 40
0.8716947367
 40
1.0
 40
1.0
 40
1.0
 40
1.0
 10
49.5679246684
 20
48.753910648
 30
0.0
 10
49.453420469
 20
48.753910648
 30
0.0
 10
49.2241036975
 20
48.7420199283
 30
0.0
 10
48.8836670987
 20
48.6885670274
 30
0.0
 10
48.5497928886
 20
48.6001361115
 30
0.0
 10
48.2257824386
 20
48.4774791606
 30
0.0
 10
47.9147131344
 20
48.3218781468
 30
0.0
 10
47.6196257362
 20
48.1347807051
 30
0.0
 10
47.3433082793
 20
47.9180146373
 30
0.0
 10
47.0028760968
 20
47.5916868078
 30
0.0
 10
46.6371517438
 20
47.1197132223
 30
0.0
 10
46.3126766856
 20
46.4764234674
 30
0.0
 10
46.1129166739
 20
45.7791334888
 30
0.0
 10
46.0680165987
 20
45.2955800552
 30
0.0
 10
46.0680165987
 20
45.05392199
 30
0.0
  0
SPLINE
  5
238
100
AcDbEntity
  8
0
100
AcDbSpline
 62
7
  6
BYLAYER
 70
0
 71
3
 72
13
 73
9
 74
0
 42
0.0000001
 43
0.0000001
 44
0.0000000001
 40
0.0
 40
0.0
 40
0.0
 40
0.0
 40
0.1108954817
 40
0.1974647432
 40
0.3083851331
 40
0.444272093
 40
0.6050903743
 40
1.0
 40
1.0
 40
1.0
 40
1.0
 10
9.3604110759
 20
53.05392199
 30
0.0
 10
9.3664701202
 20
53.0539209429
 30
0.0
 10
9.3759023467
 20
53.0454025101
 30
0.0
 10
9.3841586997
 20
53.0312397821
 30
0.0
 10
9.3915824044
 20
53.0143939576
 30
0.0
 10
9.3986625264
 20
52.9933174716
 30
0.0
 10
9.4086105687
 20
52.956821462
 30
0.0
 10
9.4145065826
 20
52.9270070814
 30
0.0
 10
9.4181942445
 20
52.9057476948
 30
0.0
  0
SPLINE
  5
239
100
AcDbEntity
  8
0
100
AcDbSpline
 62
7
  6
BYLAYER
 70
0
 71
3
 72
13
 73
9
 74
0
 42
0.0000001
 43
0.0000001
 44
0.0000000001
 40
0.0
 40
0.0
 40
0.0
 40
0.0
 40
0.1559949363
 40
0.2951595811
 40
0.4228795347
 40
0.5430474979
 40
0.771777301
 40
1.0
 40
1.0
 40
1.0
 40
1.0
 10
7.4558452876
 20
52.75392199
 30
0.0
 10
7.4530091412
 20
52.7772604704
 30
0.0
 10
7.4524744435
 20
52.8222577376
 30
0.0
 10
7.4673342563
 20
52.8848184311
 30
0.0
 10
7.4935095798
 20
52.9375073669
 30
0.0
 10
7.5391191491
 20
52.9936601416
 30
0.0
 10
7.6146551955
 20
53.0418634309
 30
0.0
 10
7.6842935838
 20
53.05392199
 30
0.0
 10
7.7186892894
 20
53.05392199
 30
0.0
  0
SPLINE
  5
23A
100
AcDbEntity
  8
0
100
AcDbSpline
 62
7
  6
BYLAYER
 70
0
 71
3
 72
9
 73
5
 74
0
 42
0.0000001
 43
0.0000001
 44
0.0000000001
 40
0.0
 40
0.0
 40
0.0
 40
0.0
 40
0.626368625
 40
1.0
 40
1.0
 40
1.0
 40
1.0
 10
7.9254464091
 20
45.05392199
 30
0.0
 10
7.9254464091
 20
46.6652774978
 30
0.0
 10
7.8261399601
 20
49.2391022914
 30
0.0
 10
7.5717970786
 20
51.7997615683
 30
0.0
 10
7.4558452876
 20
52.75392199
 30
0.0
  0
SPLINE
  5
23B
100
AcDbEntity
  8
0
100
AcDbSpline
 62
7
  6
BYLAYER
 70
0
 71
3
 72
13
 73
9
 74
0
 42
0.0000001
 43
0.0000001
 44
0.0000000001
 40
0.0
 40
0.0
 40
0.0
 40
0.0
 40
0.395509846
 40
0.5569388746
 40
0.6929545356
 40
0.8035852885
 40
0.8896138772
 40
1.0
 40
1.0
 40
1.0
 40
1.0
 10
9.4181942257
 20
37.2020972429
 30
0.0
 10
9.4145067238
 20
37.1807901957
 30
0.0
 10
9.4086091713
 20
37.1508887623
 30
0.0
 10
9.3986894833
 20
37.1142849508
 30
0.0
 10
9.391623462
 20
37.0931591419
 30
0.0
 10
9.3842125135
 20
37.0763443554
 30
0.0
 10
9.3759235332
 20
37.0622373207
 30
0.0
 10
9.3664459677
 20
37.0539219346
 30
0.0
 10
9.3604108072
 20
37.05392199
 30
0.0
  0
SPLINE
  5
23C
100
AcDbEntity
  8
0
100
AcDbSpline
 62
7
  6
BYLAYER
 70
0
 71
3
 72
12
 73
8
 74
0
 42
0.0000001
 43
0.0000001
 44
0.0000000001
 40
0.0
 40
0.0
 40
0.0
 40
0.0
 40
0.2850383545
 40
0.5565078497
 40
0.8006355633
 40
0.9069951362
 40
1.0
 40
1.0
 40
1.0
 40
1.0
 10
9.6128058932
 20
37.7539225258
 30
0.0
 10
9.5919490954
 20
37.7023098407
 30
0.0
 10
9.5511892549
 20
37.6015526343
 30
0.0
 10
9.4945892728
 20
37.4557990246
 30
0.0
 10
9.454019688
 20
37.3412284963
 30
0.0
 10
9.4299147338
 20
37.2580132838
 30
0.0
 10
9.4212979248
 20
37.2199936404
 30
0.0
 10
9.4181926339
 20
37.2020973475
 30
0.0
  0
SPLINE
  5
23D
100
AcDbEntity
  8
0
100
AcDbSpline
 62
7
  6
BYLAYER
 70
0
 71
3
 72
13
 73
9
 74
0
 42
0.0000001
 43
0.0000001
 44
0.0000000001
 40
0.0
 40
0.0
 40
0.0
 40
0.0
 40
0.2424023859
 40
0.3723550875
 40
0.5042706712
 40
0.6354664967
 40
0.7634667998
 40
1.0
 40
1.0
 40
1.0
 40
1.0
 10
9.0682160902
 20
37.35392199
 30
0.0
 10
9.0682160902
 20
37.316482677
 30
0.0
 10
9.0789269281
 20
37.2582184709
 30
0.0
 10
9.1144272312
 20
37.1884861448
 30
0.0
 10
9.1521460594
 20
37.1403399317
 30
0.0
 10
9.1990374953
 20
37.1015290114
 30
0.0
 10
9.2667952819
 20
37.0650739811
 30
0.0
 10
9.3238779474
 20
37.0539219902
 30
0.0
 10
9.3604107584
 20
37.05392199
 30
0.0
  0
SPLINE
  5
23E
100
AcDbEntity
  8
0
100
AcDbSpline
 62
7
  6
BYLAYER
 70
0
 71
3
 72
13
 73
9
 74
0
 42
0.0000001
 43
0.0000001
 44
0.0000000001
 40
0.0
 40
0.0
 40
0.0
 40
0.0
 40
0.2170065456
 40
0.3403987269
 40
0.4711676754
 40
0.6064186997
 40
0.7423149481
 40
1.0
 40
1.0
 40
1.0
 40
1.0
 10
9.1262739753
 20
37.4385930123
 30
0.0
 10
9.1312612616
 20
37.4101059286
 30
0.0
 10
9.1488260113
 20
37.3667560654
 30
0.0
 10
9.1868109254
 20
37.3165543806
 30
0.0
 10
9.2245849135
 20
37.2805914503
 30
0.0
 10
9.2690133606
 20
37.2502863921
 30
0.0
 10
9.3324350996
 20
37.2191763615
 30
0.0
 10
9.3840768497
 20
37.2060165023
 30
0.0
 10
9.4181939216
 20
37.202096279
 30
0.0
  0
SPLINE
  5
23F
100
AcDbEntity
  8
0
100
AcDbSpline
 62
7
  6
BYLAYER
 70
0
 71
3
 72
9
 73
5
 74
0
 42
0.0000001
 43
0.0000001
 44
0.0000000001
 40
0.0
 40
0.0
 40
0.0
 40
0.0
 40
0.4935341277
 40
1.0
 40
1.0
 40
1.0
 40
1.0
 10
18.2153025788
 20
37.05392199
 30
0.0
 10
18.0825895836
 20
37.0539313256
 30
0.0
 10
17.8137570969
 20
37.0615877819
 30
0.0
 10
17.5448796719
 20
37.0663253772
 30
0.0
 10
17.4086892871
 20
37.0663367681
 30
0.0
  0
SPLINE
  5
240
100
AcDbEntity
  8
0
100
AcDbSpline
 62
7
  6
BYLAYER
 70
0
 71
3
 72
9
 73
5
 74
0
 42
0.0000001
 43
0.0000001
 44
0.0000000001
 40
0.0
 40
0.0
 40
0.0
 40
0.0
 40
0.5064659888
 40
1.0
 40
1.0
 40
1.0
 40
1.0
 10
17.4086892871
 20
37.0663367681
 30
0.0
 10
17.272498872
 20
37.0663229119
 30
0.0
 10
17.0036214521
 20
37.0615884327
 30
0.0
 10
16.7347889629
 20
37.0539319006
 30
0.0
 10
16.602076
 20
37.05392199
 30
0.0
  0
SPLINE
  5
241
100
AcDbEntity
  8
0
100
AcDbSpline
 62
7
  6
BYLAYER
 70
0
 71
3
 72
13
 73
9
 74
0
 42
0.0000001
 43
0.0000001
 44
0.0000000001
 40
0.0
 40
0.0
 40
0.0
 40
0.0
 40
0.0691503152
 40
0.1600139031
 40
0.2702717544
 40
0.3968162202
 40
0.6856700173
 40
1.0
 40
1.0
 40
1.0
 40
1.0
 10
9.1262739753
 20
37.4385930123
 30
0.0
 10
9.1343487911
 20
37.4492962745
 30
0.0
 10
9.1565673267
 20
37.4712767406
 30
0.0
 10
9.1976483988
 20
37.5037978142
 30
0.0
 10
9.2499467615
 20
37.5399524919
 30
0.0
 10
9.3359308153
 20
37.5946804489
 30
0.0
 10
9.4579583221
 20
37.6663609653
 30
0.0
 10
9.5598120139
 20
37.7238245826
 30
0.0
 10
9.6128072191
 20
37.75392199
 30
0.0
  0
SPLINE
  5
242
100
AcDbEntity
  8
0
100
AcDbSpline
 62
7
  6
BYLAYER
 70
0
 71
3
 72
13
 73
9
 74
0
 42
0.0000001
 43
0.0000001
 44
0.0000000001
 40
0.0
 40
0.0
 40
0.0
 40
0.0
 40
0.3142809016
 40
0.6031596304
 40
0.7297349869
 40
0.8400083587
 40
0.9308630902
 40
1.0
 40
1.0
 40
1.0
 40
1.0
 10
9.6128072191
 20
52.35392199
 30
0.0
 10
9.5598277131
 20
52.3840277767
 30
0.0
 10
9.4579681943
 20
52.4414716455
 30
0.0
 10
9.3359413383
 20
52.5131560908
 30
0.0
 10
9.2499457204
 20
52.5678916806
 30
0.0
 10
9.1976418088
 20
52.6040510275
 30
0.0
 10
9.1565617158
 20
52.6365715911
 30
0.0
 10
9.1343479016
 20
52.658550289
 30
0.0
 10
9.1262739753
 20
52.6692509677
 30
0.0
  0
SPLINE
  5
243
100
AcDbEntity
  8
0
100
AcDbSpline
 62
7
  6
BYLAYER
 70
0
 71
3
 72
12
 73
8
 74
0
 42
0.0000001
 43
0.0000001
 44
0.0000000001
 40
0.0
 40
0.0
 40
0.0
 40
0.0
 40
0.3602602561
 40
0.6415055379
 40
0.7533770201
 40
0.8480869404
 40
1.0
 40
1.0
 40
1.0
 40
1.0
 10
9.1262739753
 20
52.6692509677
 30
0.0
 10
9.1225048125
 20
52.6816016795
 30
0.0
 10
9.1148769532
 20
52.7033260643
 30
0.0
 10
9.1026259938
 20
52.7275817931
 30
0.0
 10
9.0918564494
 20
52.7414689885
 30
0.0
 10
9.0824650912
 20
52.7502161575
 30
0.0
 10
9.0736612086
 20
52.7539204354
 30
0.0
 10
9.0682160902
 20
52.75392199
 30
0.0
  0
SPLINE
  5
244
100
AcDbEntity
  8
0
100
AcDbSpline
 62
7
  6
BYLAYER
 70
0
 71
3
 72
11
 73
7
 74
0
 42
0.0000001
 43
0.0000001
 44
0.0000000001
 40
0.0
 40
0.0
 40
0.0
 40
0.0
 40
0.3532735533
 40
0.4856222945
 40
0.6374514868
 40
1.0
 40
1.0
 40
1.0
 40
1.0
 10
9.0682160902
 20
37.3539205372
 30
0.0
 10
9.080736377
 20
37.3539217704
 30
0.0
 10
9.0952984873
 20
37.3693188662
 30
0.0
 10
9.1064971697
 20
37.388282516
 30
0.0
 10
9.116524353
 20
37.409096252
 30
0.0
 10
9.1225257187
 20
37.4263017833
 30
0.0
 10
9.1262741773
 20
37.4385918533
 30
0.0
  0
SPLINE
  5
245
100
AcDbEntity
  8
0
100
AcDbSpline
 62
7
  6
BYLAYER
 70
0
 71
3
 72
13
 73
9
 74
0
 42
0.0000001
 43
0.0000001
 44
0.0000000001
 40
0.0
 40
0.0
 40
0.0
 40
0.0
 40
0.2217136768
 40
0.3466971289
 40
0.4782108231
 40
0.6131052983
 40
0.7475972135
 40
1.0
 40
1.0
 40
1.0
 40
1.0
 10
9.1262739753
 20
52.6692509677
 30
0.0
 10
9.1313692831
 20
52.698355064
 30
0.0
 10
9.1494798794
 20
52.7424767386
 30
0.0
 10
9.1884396915
 20
52.7931131486
 30
0.0
 10
9.2267020956
 20
52.8289431227
 30
0.0
 10
9.2712440052
 20
52.8588292503
 30
0.0
 10
9.3340139713
 20
52.8891166462
 30
0.0
 10
9.3847772569
 20
52.9019079584
 30
0.0
 10
9.418193925
 20
52.9057477014
 30
0.0
  0
SPLINE
  5
246
100
AcDbEntity
  8
0
100
AcDbSpline
 62
7
  6
BYLAYER
 70
0
 71
3
 72
9
 73
5
 74
0
 42
0.0000001
 43
0.0000001
 44
0.0000000001
 40
0.0
 40
0.0
 40
0.0
 40
0.0
 40
0.4935315174
 40
1.0
 40
1.0
 40
1.0
 40
1.0
 10
16.6020760007
 20
53.05392199
 30
0.0
 10
16.7347882931
 20
53.0539103773
 30
0.0
 10
17.0036207926
 20
53.0462589563
 30
0.0
 10
17.2724982034
 20
53.0415171029
 30
0.0
 10
17.4086892896
 20
53.041507212
 30
0.0
  0
SPLINE
  5
247
100
AcDbEntity
  8
0
100
AcDbSpline
 62
7
  6
BYLAYER
 70
0
 71
3
 72
13
 73
9
 74
0
 42
0.0000001
 43
0.0000001
 44
0.0000000001
 40
0.0
 40
0.0
 40
0.0
 40
0.0
 40
0.2424018287
 40
0.3723543655
 40
0.5042698867
 40
0.635465768
 40
0.7634662318
 40
1.0
 40
1.0
 40
1.0
 40
1.0
 10
9.0682159484
 20
52.75392199
 30
0.0
 10
9.0682159355
 20
52.791361213
 30
0.0
 10
9.0789267053
 20
52.8496253002
 30
0.0
 10
9.1144268584
 20
52.919357556
 30
0.0
 10
9.1521455995
 20
52.9675037949
 30
0.0
 10
9.199036998
 20
53.0063147887
 30
0.0
 10
9.266794844
 20
53.0427699504
 30
0.0
 10
9.3238776218
 20
53.0539219896
 30
0.0
 10
9.3604105165
 20
53.0539219901
 30
0.0
  0
SPLINE
  5
248
100
AcDbEntity
  8
0
100
AcDbSpline
 62
7
  6
BYLAYER
 70
0
 71
3
 72
10
 73
6
 74
0
 42
0.0000001
 43
0.0000001
 44
0.0000000001
 40
0.0
 40
0.0
 40
0.0
 40
0.0
 40
0.2857190706
 40
0.5427758368
 40
1.0
 40
1.0
 40
1.0
 40
1.0
 10
7.4558452876
 20
37.35392199
 30
0.0
 10
7.4532725445
 20
37.3327510394
 30
0.0
 10
7.4523992047
 20
37.2918364293
 30
0.0
 10
7.467142274
 20
37.2182803375
 30
0.0
 10
7.4935633597
 20
37.1698490775
 30
0.0
 10
7.515737527
 20
37.1439060323
 30
0.0
  0
SPLINE
  5
249
100
AcDbEntity
  8
0
100
AcDbSpline
 62
7
  6
BYLAYER
 70
0
 71
3
 72
11
 73
7
 74
0
 42
0.0000001
 43
0.0000001
 44
0.0000000001
 40
0.0
 40
0.0
 40
0.0
 40
0.0
 40
0.2542671323
 40
0.5024529627
 40
0.7497202032
 40
1.0
 40
1.0
 40
1.0
 40
1.0
 10
7.515737527
 20
37.1439060323
 30
0.0
 10
7.5283304672
 20
37.1291727072
 30
0.0
 10
7.5567824562
 20
37.1029132462
 30
0.0
 10
7.6068703451
 20
37.0744740398
 30
0.0
 10
7.6615680242
 20
37.0575574067
 30
0.0
 10
7.6996114581
 20
37.05392199
 30
0.0
 10
7.7186892894
 20
37.05392199
 30
0.0
  0
SPLINE
  5
24A
100
AcDbEntity
  8
0
100
AcDbSpline
 62
7
  6
BYLAYER
 70
0
 71
3
 72
9
 73
5
 74
0
 42
0.0000001
 43
0.0000001
 44
0.0000000001
 40
0.0
 40
0.0
 40
0.0
 40
0.0
 40
0.2507866092
 40
1.0
 40
1.0
 40
1.0
 40
1.0
 10
56.2086892894
 20
37.75392199
 30
0.0
 10
56.2263010892
 20
37.7503450317
 30
0.0
 10
56.2963291785
 20
37.7351064753
 30
0.0
 10
56.3655709699
 20
37.7163845412
 30
0.0
 10
56.4170079587
 20
37.7009992981
 30
0.0
  0
SPLINE
  5
24B
100
AcDbEntity
  8
0
100
AcDbSpline
 62
7
  6
BYLAYER
 70
0
 71
3
 72
9
 73
5
 74
0
 42
0.0000001
 43
0.0000001
 44
0.0000000001
 40
0.0
 40
0.0
 40
0.0
 40
0.0
 40
0.516159184
 40
1.0
 40
1.0
 40
1.0
 40
1.0
 10
56.2086892894
 20
37.75392199
 30
0.0
 10
56.2333286312
 20
37.6830768304
 30
0.0
 10
56.2902141801
 20
37.5488053758
 30
0.0
 10
56.3663476817
 20
37.4241563656
 30
0.0
 10
56.4083468872
 20
37.3677673858
 30
0.0
  0
SPLINE
  5
24C
100
AcDbEntity
  8
0
100
AcDbSpline
 62
7
  6
BYLAYER
 70
0
 71
3
 72
9
 73
5
 74
0
 42
0.0000001
 43
0.0000001
 44
0.0000000001
 40
0.0
 40
0.0
 40
0.0
 40
0.0
 40
0.3736324993
 40
1.0
 40
1.0
 40
1.0
 40
1.0
 10
7.4558452876
 20
37.35392199
 30
0.0
 10
7.5717974282
 20
38.3080852882
 30
0.0
 10
7.8261414936
 20
40.8687444808
 30
0.0
 10
7.9254464091
 20
43.4425693657
 30
0.0
 10
7.9254464091
 20
45.05392199
 30
0.0
  0
SPLINE
  5
24D
100
AcDbEntity
  8
0
100
AcDbSpline
 62
7
  6
BYLAYER
 70
0
 71
3
 72
9
 73
5
 74
0
 42
0.0000001
 43
0.0000001
 44
0.0000000001
 40
0.0
 40
0.0
 40
0.0
 40
0.0
 40
0.5064709617
 40
1.0
 40
1.0
 40
1.0
 40
1.0
 10
17.4086892896
 20
53.041507212
 30
0.0
 10
17.5448810433
 20
53.0415197428
 30
0.0
 10
17.8137585104
 20
53.0462546205
 30
0.0
 10
18.0825909517
 20
53.0539091068
 30
0.0
 10
18.2153025784
 20
53.05392199
 30
0.0
  0
SPLINE
  5
24E
100
AcDbEntity
  8
0
100
AcDbSpline
 62
7
  6
BYLAYER
 70
0
 71
3
 72
9
 73
5
 74
0
 42
0.0000001
 43
0.0000001
 44
0.0000000001
 40
0.0
 40
0.0
 40
0.0
 40
0.0
 40
0.248777681
 40
1.0
 40
1.0
 40
1.0
 40
1.0
 10
56.4175387021
 20
52.4071876458
 30
0.0
 10
56.4003967836
 20
52.4021179575
 30
0.0
 10
56.3313123499
 20
52.3823567812
 30
0.0
 10
56.261486834
 20
52.3651535263
 30
0.0
 10
56.2086892894
 20
52.35392199
 30
0.0
  0
SPLINE
  5
24F
100
AcDbEntity
  8
0
100
AcDbSpline
 62
7
  6
BYLAYER
 70
0
 71
3
 72
11
 73
7
 74
0
 42
0.0000001
 43
0.0000001
 44
0.0000000001
 40
0.0
 40
0.0
 40
0.0
 40
0.0
 40
0.2367619367
 40
0.4842511999
 40
0.7402391651
 40
1.0
 40
1.0
 40
1.0
 40
1.0
 10
56.4038259882
 20
52.7341152983
 30
0.0
 10
56.3837483101
 20
52.7068794126
 30
0.0
 10
56.3450713005
 20
52.6493672963
 30
0.0
 10
56.2938114578
 20
52.556687668
 30
0.0
 10
56.2485023036
 20
52.4573791681
 30
0.0
 10
56.2215654284
 20
52.3887407495
 30
0.0
 10
56.2086892894
 20
52.35392199
 30
0.0
  0
SPLINE
  5
250
100
AcDbEntity
  8
0
100
AcDbSpline
 62
7
  6
BYLAYER
 70
0
 71
3
 72
12
 73
8
 74
0
 42
0.0000001
 43
0.0000001
 44
0.0000000001
 40
0.0
 40
0.0
 40
0.0
 40
0.0
 40
0.0930019382
 40
0.1993626356
 40
0.4434913739
 40
0.7149501229
 40
1.0
 40
1.0
 40
1.0
 40
1.0
 10
9.4181922326
 20
52.9057475627
 30
0.0
 10
9.4212973102
 20
52.8878517807
 30
0.0
 10
9.4299141462
 20
52.8498324256
 30
0.0
 10
9.4540191566
 20
52.7666172411
 30
0.0
 10
9.494587819
 20
52.6520479445
 30
0.0
 10
9.5511880841
 20
52.5062937698
 30
0.0
 10
9.5919481465
 20
52.4055362874
 30
0.0
 10
9.6128056773
 20
52.353921367
 30
0.0
  0
ENDSEC
  0
SECTION
  2
OBJECTS
  0
DICTIONARY
  5
C
100
AcDbDictionary
280
0
281
1
  3
ACAD_GROUP
350
D
  3
ACAD_MLINESTYLE
350
17
  3
ACAD_LAYOUT
350
1A
  3
ACAD_PLOTSETTINGS
350
19
  3
ACAD_PLOTSTYLENAME
350
E
  0
DICTIONARY
  5
D
102
{ACAD_REACTORS
330
C
102
}
100
AcDbDictionary
280
0
281
1
  0
ACDBDICTIONARYWDFLT
  5
E
102
{ACAD_REACTORS
330
C
102
}
100
AcDbDictionary
281
1
  3
Normal
350
F
100
AcDbDictionaryWithDefault
340
F
  0
DICTIONARY
  5
17
102
{ACAD_REACTORS
330
C
102
}
100
AcDbDictionary
280
0
281
1
  3
Standard
350
18
  0
DICTIONARY
  5
19
102
{ACAD_REACTORS
330
C
102
}
100
AcDbDictionary
281
1
  0
DICTIONARY
  5
1A
102
{ACAD_REACTORS
330
C
102
}
100
AcDbDictionary
281
1
  3
Model
350
251
  3
Layout1
350
252
  0
ACDBPLACEHOLDER
  5
F
102
{ACAD_REACTORS
330
E
102
}
  0
MLINESTYLE
  5
18
102
{ACAD_REACTORS
330
17
102
}
100
AcDbMlineStyle
  2
STANDARD
 70
0
  3

 62
256
 51
90.0
 52
90.0
 71
2
 49
0.5
 62
256
  6
BYLAYER
 49
-0.5
 62
256
  6
BYLAYER
  0
LAYOUT
  5
251
102
{ACAD_REACTORS
330
1A
102
}
100
AcDbPlotSettings
  1

  2
none_device
  4

  6

 40
0.0
 41
0.0
 42
0.0
 43
0.0
 44
210.0
 45
297.0
 46
0.0
 47
0.0
 48
0.0
 49
0.0
140
0.0
141
0.0
142
1.0
143
1.0
 70
1024
 72
1
 73
0
 74
0
  7

 75
0
147
1.0
148
0.0
149
0.0
100
AcDbLayout
  1
Model
 70
0
 71
0
 10
0.0
 20
0.0
 11
210.0
 21
297.0
 12
0.0
 22
0.0
 32
0.0
 14
0.0
 24
0.0
 34
0.0
 15
0.0
 25
0.0
 35
0.0
146
0.0
 13
0.0
 23
0.0
 33
0.0
 16
1.0
 26
0.0
 36
0.0
 17
0.0
 27
1.0
 37
0.0
 76
0
330
210
345
0
346
0
  0
LAYOUT
  5
252
102
{ACAD_REACTORS
330
1A
102
}
100
AcDbPlotSettings
  1

  2
none_device
  4

  6

 40
0.0
 41
0.0
 42
0.0
 43
0.0
 44
210.0
 45
297.0
 46
0.0
 47
0.0
 48
0.0
 49
0.0
140
0.0
141
0.0
142
1.0
143
1.0
 70
0
 72
1
 73
0
 74
0
  7

 75
0
147
1.0
148
0.0
149
0.0
100
AcDbLayout
  1
Layout1
 70
0
 71
1
 10
0.0
 20
0.0
 11
210.0
 21
297.0
 12
0.0
 22
0.0
 32
0.0
 14
0.0
 24
0.0
 34
0.0
 15
0.0
 25
0.0
 35
0.0
146
0.0
 13
0.0
 23
0.0
 33
0.0
 16
1.0
 26
0.0
 36
0.0
 17
0.0
 27
1.0
 37
0.0
 76
0
330
211
345
0
346
0
  0
ENDSEC
  0
EOF
