999
DXF file: C:\Users\sesa63760\Dev\_Creo\CAD\MCADID0004815_3D-CAD\drw0001_4.dxf
999
Pro/ENGINEER 2019471 by Parametric Technology Corporation
  0
SECTION
  2
HEADER
  9
$ACADVER
  1
AC1024
  9
$DWGCODEPAGE
  3
ANSI_1252
  9
$EXTMAX
 10
37.3501406292
 20
52.8237703184
 30
0.0
  9
$EXTMIN
 10
0.0
 20
0.0
 30
0.0
  9
$LIMMIN
 10
0.0
 20
0.0
  9
$LIMMAX
 10
37.3501406292
 20
52.8237703184
  9
$VIEWCTR
 10
18.6750703146
 20
26.4118851592
  9
$VIEWSIZE
 40
52.8237703184
  9
$CLAYER
  8
0
  9
$LTSCALE
 40
3.4433272504
  9
$CELTYPE
  6
BYLAYER
  9
$DIMSCALE
 40
1.0
  9
$DIMASZ
 40
0.4446445313
  9
$DIMEXO
 40
1.0
  9
$DIMDLI
 40
2.3790261003
  9
$DIMEXE
 40
1.0
  9
$DIMCEN
 40
0.5634535501
  9
$DIMLFAC
 40
1.0
  9
$DIMBLK
  1
_FILLED
  9
$DIMALT
 70
0
  9
$DIMALTF
 40
0.0393700787
  9
$DIMTXT
 40
0.6225023438
  9
$DIMTOL
 70
1
  9
$DIMLIM
 70
0
  9
$DIMTFAC
 40
1.0
  9
$DIMTP
 40
0.01
  9
$DIMTM
 40
0.01
  9
$DIMGAP
 40
0.625
  9
$DIMDSEP
 70
46
  9
$AUNITS
 70
0
  9
$PDMODE
 70
3
  9
$PDSIZE
 40
0.3125
  9
$HANDSEED
  5
2D0
  9
$TILEMODE
 70
1
  9
$MEASUREMENT
 70
1
  9
$INSUNITS
 70
4
  0
ENDSEC
  0
SECTION
  2
CLASSES
  0
CLASS
  1
ACDBDICTIONARYWDFLT
  2
AcDbDictionaryWithDefault
  3
AutoCAD 2000
 90
0
 91
1
280
0
281
0
  0
CLASS
  1
ACDBPLACEHOLDER
  2
AcDbPlaceHolder
  3
AutoCAD 2000
 90
0
 91
1
280
0
281
0
  0
CLASS
  1
LAYOUT
  2
AcDbLayout
  3
AutoCAD 2000
 90
0
 91
0
280
0
281
0
  0
ENDSEC
  0
SECTION
  2
TABLES
  0
TABLE
  2
VPORT
  5
8
100
AcDbSymbolTable
 70
2
  0
VPORT
  5
1F4
100
AcDbSymbolTableRecord
100
AcDbViewportTableRecord
  2
*ACTIVE
 70
0
 10
0.0
 20
0.0
 11
1.0
 21
1.0
 12
18.6750703146
 22
26.4118851592
 13
0.0
 23
0.0
 14
1.0
 24
1.0
 15
0.0
 25
0.0
 16
0.0
 26
0.0
 36
1.0
 17
0.0
 27
0.0
 37
0.0
 40
52.8237703184
 41
0.7070707071
 42
50.0
 43
0.0
 44
0.0
 50
0.0
 51
0.0
 71
0
 72
100
 73
1
 74
1
 75
0
 76
0
 77
0
 78
0
  0
ENDTAB
  0
TABLE
  2
LTYPE
  5
5
100
AcDbSymbolTable
 70
6
  0
LTYPE
  5
14
100
AcDbSymbolTableRecord
100
AcDbLinetypeTableRecord
  2
BYBLOCK
 70
0
  3

 72
65
 73
0
 40
0.0
  0
LTYPE
  5
15
100
AcDbSymbolTableRecord
100
AcDbLinetypeTableRecord
  2
BYLAYER
 70
0
  3

 72
65
 73
0
 40
0.0
  0
LTYPE
  5
16
100
AcDbSymbolTableRecord
100
AcDbLinetypeTableRecord
  2
CONTINUOUS
 70
64
  3
Solid line
 72
65
 73
0
 40
0.0
  0
LTYPE
  5
1F5
100
AcDbSymbolTableRecord
100
AcDbLinetypeTableRecord
  2
CENTER
 70
64
  3
____ _ ____ _ ____ _ ____ _ ____ _ ____ _ ____
 72
65
 73
4
 40
0.6
 49
0.375
 74
0
 49
-0.075
 74
0
 49
0.075
 74
0
 49
-0.075
 74
0
  0
LTYPE
  5
1F6
100
AcDbSymbolTableRecord
100
AcDbLinetypeTableRecord
  2
HIDDEN
 70
64
  3
- - - - - - - - - - - - - - - - - - - -
 72
65
 73
2
 40
0.2
 49
0.1
 74
0
 49
-0.1
 74
0
  0
LTYPE
  5
1F7
100
AcDbSymbolTableRecord
100
AcDbLinetypeTableRecord
  2
PHANTOM
 70
64
  3
_____ _ _ _____ _ _ _____ _ _ _____
 72
65
 73
6
 40
0.8
 49
0.45
 74
0
 49
-0.05
 74
0
 49
0.1
 74
0
 49
-0.05
 74
0
 49
0.1
 74
0
 49
-0.05
 74
0
  0
LTYPE
  5
1F8
100
AcDbSymbolTableRecord
100
AcDbLinetypeTableRecord
  2
DOT
 70
64
  3
. . . . . . . . . . . . . . . . . . . .
 72
65
 73
2
 40
0.2
 49
0.1
 74
0
 49
-0.1
 74
0
  0
LTYPE
  5
1F9
100
AcDbSymbolTableRecord
100
AcDbLinetypeTableRecord
  2
DASHED
 70
64
  3
- - - - - - - - - - - - - - - - - - - -
 72
65
 73
2
 40
0.2
 49
0.1
 74
0
 49
-0.1
 74
0
  0
ENDTAB
  0
TABLE
  2
LAYER
  5
2
100
AcDbSymbolTable
 70
36
  0
LAYER
  5
10
100
AcDbSymbolTableRecord
100
AcDbLayerTableRecord
  2
0
 70
0
 62
7
  6
CONTINUOUS
370
-3
390
F
  0
LAYER
  5
1FA
100
AcDbSymbolTableRecord
100
AcDbLayerTableRecord
  2
DEFAULT_1
 70
0
 62
7
  6
CENTER
370
-3
390
F
  0
LAYER
  5
1FB
100
AcDbSymbolTableRecord
100
AcDbLayerTableRecord
  2
DEFAULT_2
 70
0
 62
7
  6
HIDDEN
370
-3
390
F
  0
LAYER
  5
1FC
100
AcDbSymbolTableRecord
100
AcDbLayerTableRecord
  2
DEFAULT_3
 70
0
 62
7
  6
PHANTOM
370
-3
390
F
  0
LAYER
  5
1FD
100
AcDbSymbolTableRecord
100
AcDbLayerTableRecord
  2
00_COMPONENTS
 70
0
 62
7
  6
CONTINUOUS
370
-3
390
F
  0
LAYER
  5
1FE
100
AcDbSymbolTableRecord
100
AcDbLayerTableRecord
  2
01_1_DEFAULT_DATUMS
 70
0
 62
7
  6
CONTINUOUS
370
-3
390
F
  0
LAYER
  5
1FF
100
AcDbSymbolTableRecord
100
AcDbLayerTableRecord
  2
01_PLANES
 70
0
 62
7
  6
CONTINUOUS
370
-3
390
F
  0
LAYER
  5
200
100
AcDbSymbolTableRecord
100
AcDbLayerTableRecord
  2
02_COORD_SYS
 70
0
 62
7
  6
CONTINUOUS
370
-3
390
F
  0
LAYER
  5
201
100
AcDbSymbolTableRecord
100
AcDbLayerTableRecord
  2
03_AXES
 70
0
 62
7
  6
CONTINUOUS
370
-3
390
F
  0
LAYER
  5
202
100
AcDbSymbolTableRecord
100
AcDbLayerTableRecord
  2
04_POINTS
 70
0
 62
7
  6
CONTINUOUS
370
-3
390
F
  0
LAYER
  5
203
100
AcDbSymbolTableRecord
100
AcDbLayerTableRecord
  2
05_CURVES
 70
0
 62
7
  6
CONTINUOUS
370
-3
390
F
  0
LAYER
  5
204
100
AcDbSymbolTableRecord
100
AcDbLayerTableRecord
  2
06_SURFS
 70
0
 62
7
  6
CONTINUOUS
370
-3
390
F
  0
LAYER
  5
205
100
AcDbSymbolTableRecord
100
AcDbLayerTableRecord
  2
07_COSMETICS
 70
0
 62
7
  6
CONTINUOUS
370
-3
390
F
  0
LAYER
  5
206
100
AcDbSymbolTableRecord
100
AcDbLayerTableRecord
  2
10_NOTES
 70
0
 62
7
  6
CONTINUOUS
370
-3
390
F
  0
LAYER
  5
207
100
AcDbSymbolTableRecord
100
AcDbLayerTableRecord
  2
11_NOTES_PUB
 70
0
 62
7
  6
CONTINUOUS
370
-3
390
F
  0
LAYER
  5
208
100
AcDbSymbolTableRecord
100
AcDbLayerTableRecord
  2
13_REF_GTOL
 70
0
 62
7
  6
CONTINUOUS
370
-3
390
F
  0
LAYER
  5
209
100
AcDbSymbolTableRecord
100
AcDbLayerTableRecord
  2
16_MISC
 70
0
 62
7
  6
CONTINUOUS
370
-3
390
F
  0
LAYER
  5
20A
100
AcDbSymbolTableRecord
100
AcDbLayerTableRecord
  2
17_NO_PRINT
 70
0
 62
7
  6
CONTINUOUS
370
-3
390
F
  0
LAYER
  5
20B
100
AcDbSymbolTableRecord
100
AcDbLayerTableRecord
  2
18_DATUM_CAMS_JOINTS
 70
0
 62
7
  6
CONTINUOUS
370
-3
390
F
  0
LAYER
  5
20C
100
AcDbSymbolTableRecord
100
AcDbLayerTableRecord
  2
19_DATUM_FUNCTIONAL
 70
0
 62
7
  6
CONTINUOUS
370
-3
390
F
  0
LAYER
  5
20D
100
AcDbSymbolTableRecord
100
AcDbLayerTableRecord
  2
20_DATUM_KINEMATIC_SCHEME
 70
0
 62
7
  6
CONTINUOUS
370
-3
390
F
  0
ENDTAB
  0
TABLE
  2
STYLE
  5
3
100
AcDbSymbolTable
 70
1
  0
STYLE
  5
11
100
AcDbSymbolTableRecord
100
AcDbTextStyleTableRecord
  2
STANDARD
 70
0
 40
0.0
 41
1.0
 50
0.0
 71
0
 42
0.2
  3
ARIAL.TTF
  4

  0
STYLE
  5
20E
100
AcDbSymbolTableRecord
100
AcDbTextStyleTableRecord
  2
TEXTSTYLE_1
 70
0
 40
0.0
 41
0.8
 50
0.0
 71
0
 42
0.2
  3
gdt
  4

  0
ENDTAB
  0
TABLE
  2
VIEW
  5
6
100
AcDbSymbolTable
 70
0
  0
ENDTAB
  0
TABLE
  2
UCS
  5
7
100
AcDbSymbolTable
 70
0
  0
ENDTAB
  0
TABLE
  2
APPID
  5
9
100
AcDbSymbolTable
 70
1
  0
APPID
  5
20F
100
AcDbSymbolTableRecord
100
AcDbRegAppTableRecord
  2
ACAD
 70
0
  0
ENDTAB
  0
TABLE
  2
BLOCK_RECORD
  5
1
100
AcDbSymbolTable
 70
0
  0
BLOCK_RECORD
  5
210
100
AcDbSymbolTableRecord
100
AcDbBlockTableRecord
  2
*Model_Space
  0
BLOCK_RECORD
  5
211
100
AcDbSymbolTableRecord
100
AcDbBlockTableRecord
  2
*Paper_Space
  0
BLOCK_RECORD
  5
212
100
AcDbSymbolTableRecord
100
AcDbBlockTableRecord
  2
_FILLED
  0
ENDTAB
  0
TABLE
  2
DIMSTYLE
  5
A
100
AcDbSymbolTable
 70
1
100
AcDbDimStyleTable
 71
0
  0
DIMSTYLE
105
213
100
AcDbSymbolTableRecord
100
AcDbDimStyleTableRecord
  2
STANDARD
 70
0
  3

  4

 40
1.0
 41
0.4446445313
 42
1.0
 43
0.38
 44
1.0
 45
0.0
 46
0.0
 47
0.01
 48
0.01
140
0.6225023438
141
0.09
142
0.0
143
25.4
144
1.0
145
0.0
146
1.0
147
0.625
 71
1
 72
0
 73
0
 74
0
 75
0
 76
0
 77
1
 78
8
 79
2
170
0
171
1
172
0
173
0
174
0
175
0
176
0
177
0
178
0
270
2
179
2
271
2
272
2
273
2
274
2
275
0
280
0
281
0
282
0
283
1
284
8
285
0
286
0
287
3
288
0
340
11
278
46
341
212
342
212
343
212
344
212
  0
ENDTAB
  0
ENDSEC
  0
SECTION
  2
BLOCKS
  0
BLOCK
  5
20
100
AcDbEntity
  8
0
100
AcDbBlockBegin
  2
*Model_Space
 70
0
 10
0.0
 20
0.0
 30
0.0
  3
*Model_Space
  1

  0
ENDBLK
  5
21
100
AcDbEntity
  8
0
100
AcDbBlockEnd
  0
BLOCK
  5
1C
100
AcDbEntity
  8
0
100
AcDbBlockBegin
  2
*Paper_Space
 70
0
 10
0.0
 20
0.0
 30
0.0
  3
*Paper_Space
  1

  0
ENDBLK
  5
1D
100
AcDbEntity
  8
0
100
AcDbBlockEnd
  0
BLOCK
  5
214
100
AcDbEntity
  8
0
100
AcDbBlockBegin
  2
_FILLED
 70
64
 10
0.0
 20
0.0
  3
_FILLED
  1

  0
SOLID
  5
215
100
AcDbEntity
  8
0
  6
BYBLOCK
 62
0
100
AcDbTrace
 10
0.0
 20
0.0
 11
-1.0
 21
0.25
 12
-1.0
 22
-0.25
 13
-1.0
 23
-0.25
  0
ENDBLK
  5
216
100
AcDbEntity
  8
0
  6
BYBLOCK
 62
0
100
AcDbBlockEnd
  0
ENDSEC
  0
SECTION
  2
ENTITIES
  0
LINE
  5
217
100
AcDbEntity
  8
0
100
AcDbLine
 62
7
  6
BYLAYER
 10
4.1598482382
 20
18.9502457064
 11
4.1598482382
 21
33.5502452937
  0
LINE
  5
218
100
AcDbEntity
  8
0
100
AcDbLine
 62
7
  6
BYLAYER
 10
5.1824483461
 20
21.0365194552
 11
5.13694885
 21
26.2502452937
  0
LINE
  5
219
100
AcDbEntity
  8
0
100
AcDbLine
 62
7
  6
BYLAYER
 10
5.4833793634
 20
21.0391456405
 11
5.4379027857
 21
26.2502452937
  0
LINE
  5
21A
100
AcDbEntity
  8
0
100
AcDbLine
 62
7
  6
BYLAYER
 10
5.5380010685
 20
22.7002452937
 11
5.5524920021
 21
21.0397487773
  0
LINE
  5
21B
100
AcDbEntity
  8
0
100
AcDbLine
 62
7
  6
BYLAYER
 10
5.5098482382
 20
26.250245294
 11
5.5338471246
 21
23.5002452937
  0
LINE
  5
21C
100
AcDbEntity
  8
0
100
AcDbLine
 62
7
  6
BYLAYER
 10
5.0547867628
 20
20.9502452937
 11
5.0547867628
 21
31.5502452937
  0
LINE
  5
21D
100
AcDbEntity
  8
0
100
AcDbLine
 62
7
  6
BYLAYER
 10
5.13694885
 20
26.2502452937
 11
5.1824483461
 21
31.4639711322
  0
LINE
  5
21E
100
AcDbEntity
  8
0
100
AcDbLine
 62
7
  6
BYLAYER
 10
5.4379027857
 20
26.2502452937
 11
5.4833793634
 21
31.4613449469
  0
LINE
  5
21F
100
AcDbEntity
  8
0
100
AcDbLine
 62
7
  6
BYLAYER
 10
5.5524920021
 20
31.4607418101
 11
5.5380010685
 21
29.8002452937
  0
LINE
  5
220
100
AcDbEntity
  8
0
100
AcDbLine
 62
7
  6
BYLAYER
 10
5.5338471246
 20
29.0002452937
 11
5.5098482382
 21
26.250245294
  0
LINE
  5
221
100
AcDbEntity
  8
0
100
AcDbLine
 62
7
  6
BYLAYER
 10
6.7552736448
 20
19.4773601044
 11
6.7552736448
 21
19.847417851
  0
LINE
  5
222
100
AcDbEntity
  8
0
100
AcDbLine
 62
7
  6
BYLAYER
 10
6.7552736448
 20
32.6530727364
 11
6.7552736448
 21
33.023130483
  0
LINE
  5
223
100
AcDbEntity
  8
0
100
AcDbLine
 62
7
  6
BYLAYER
 10
33.4867378639
 20
18.2507619501
 11
33.7243762289
 21
18.3021519808
  0
LINE
  5
224
100
AcDbEntity
  8
0
100
AcDbLine
 62
7
  6
BYLAYER
 10
9.1598481818
 20
18.2502452937
 11
9.1598482382
 21
19.2048665488
  0
LINE
  5
225
100
AcDbEntity
  8
0
100
AcDbLine
 62
7
  6
BYLAYER
 10
9.1598482382
 20
33.2956240386
 11
9.1598482354
 21
34.2502452937
  0
LINE
  5
226
100
AcDbEntity
  8
0
100
AcDbLine
 62
7
  6
BYLAYER
 10
33.467106143
 20
18.2502731668
 11
33.487244113
 21
18.2509931816
  0
LINE
  5
227
100
AcDbEntity
  8
0
100
AcDbLine
 62
7
  6
BYLAYER
 10
33.4598482382
 20
18.2502452937
 11
33.4867378639
 21
18.2507619501
  0
LINE
  5
228
100
AcDbEntity
  8
0
100
AcDbLine
 62
7
  6
BYLAYER
 10
4.8598482382
 20
18.2502452937
 11
33.4598482382
 21
18.2502452937
  0
LINE
  5
229
100
AcDbEntity
  8
0
100
AcDbLine
 62
7
  6
BYLAYER
 10
32.9598484309
 20
18.5502452937
 11
9.1598481916
 21
18.5502452937
  0
LINE
  5
22A
100
AcDbEntity
  8
0
100
AcDbLine
 62
7
  6
BYLAYER
 10
9.1598482382
 20
19.2048665488
 11
32.9598482382
 21
19.2048665488
  0
LINE
  5
22B
100
AcDbEntity
  8
0
100
AcDbLine
 62
7
  6
BYLAYER
 10
31.5598482382
 20
19.2102770915
 11
34.1598482382
 21
19.2102770915
  0
LINE
  5
22C
100
AcDbEntity
  8
0
100
AcDbLine
 62
7
  6
BYLAYER
 10
19.5762675038
 20
19.2111497597
 11
23.4098482382
 21
19.2111497597
  0
LINE
  5
22D
100
AcDbEntity
  8
0
100
AcDbLine
 62
7
  6
BYLAYER
 10
23.4098482382
 20
19.2174329705
 11
15.0598482382
 21
19.2174329705
  0
LINE
  5
22E
100
AcDbEntity
  8
0
100
AcDbLine
 62
7
  6
BYLAYER
 10
6.7598482382
 20
19.2451838183
 11
4.1598482382
 21
19.2451838183
  0
LINE
  5
22F
100
AcDbEntity
  8
0
100
AcDbLine
 62
7
  6
BYLAYER
 10
31.5598482382
 20
19.2502452937
 11
6.7598482382
 21
19.2502452937
  0
LINE
  5
230
100
AcDbEntity
  8
0
100
AcDbLine
 62
7
  6
BYLAYER
 10
31.5644228316
 20
19.4773601044
 11
6.7552736448
 21
19.4773601044
  0
LINE
  5
231
100
AcDbEntity
  8
0
100
AcDbLine
 62
7
  6
BYLAYER
 10
13.3598482382
 20
32.6530727364
 11
13.3598482382
 21
30.5332465778
  0
LINE
  5
232
100
AcDbEntity
  8
0
100
AcDbLine
 62
7
  6
BYLAYER
 10
13.3598482382
 20
21.9672440095
 11
13.3598482382
 21
19.847417851
  0
LINE
  5
233
100
AcDbEntity
  8
0
100
AcDbLine
 62
7
  6
BYLAYER
 10
31.5644228316
 20
19.7783025806
 11
6.7552736448
 21
19.7783025806
  0
LINE
  5
234
100
AcDbEntity
  8
0
100
AcDbLine
 62
7
  6
BYLAYER
 10
31.5644228316
 20
19.847417851
 11
24.9598482382
 21
19.847417851
  0
LINE
  5
235
100
AcDbEntity
  8
0
100
AcDbLine
 62
7
  6
BYLAYER
 10
13.3598482382
 20
19.847417851
 11
6.7552736448
 21
19.847417851
  0
LINE
  5
236
100
AcDbEntity
  8
0
100
AcDbLine
 62
7
  6
BYLAYER
 10
24.1598482382
 20
19.8502452937
 11
20.8127547692
 21
19.8502452937
  0
LINE
  5
237
100
AcDbEntity
  8
0
100
AcDbLine
 62
7
  6
BYLAYER
 10
17.5069417073
 20
19.8502452937
 11
14.1598482382
 21
19.8502452937
  0
LINE
  5
238
100
AcDbEntity
  8
0
100
AcDbLine
 62
7
  6
BYLAYER
 10
14.1598482382
 20
19.8499311334
 11
14.1598482382
 21
22.2392479115
  0
LINE
  5
239
100
AcDbEntity
  8
0
100
AcDbLine
 62
7
  6
BYLAYER
 10
14.1598482382
 20
30.2612426759
 11
14.1598482382
 21
32.650559454
  0
LINE
  5
23A
100
AcDbEntity
  8
0
100
AcDbLine
 62
7
  6
BYLAYER
 10
5.1824483461
 20
21.0365194553
 11
5.5524920021
 21
21.0397487773
  0
LINE
  5
23B
100
AcDbEntity
  8
0
100
AcDbLine
 62
7
  6
BYLAYER
 10
33.2998164404
 20
20.9502452937
 11
33.2598482382
 21
20.9502452937
  0
LINE
  5
23C
100
AcDbEntity
  8
0
100
AcDbLine
 62
7
  6
BYLAYER
 10
33.2998164404
 20
21.5005084589
 11
34.1598482382
 21
21.5005084589
  0
LINE
  5
23D
100
AcDbEntity
  8
0
100
AcDbLine
 62
7
  6
BYLAYER
 10
32.7672044744
 20
21.0397487773
 11
33.1372481303
 21
21.0365194553
  0
LINE
  5
23E
100
AcDbEntity
  8
0
100
AcDbLine
 62
7
  6
BYLAYER
 10
14.9098482382
 20
33.2893408277
 11
14.9098482382
 21
33.2830576169
  0
LINE
  5
23F
100
AcDbEntity
  8
0
100
AcDbLine
 62
7
  6
BYLAYER
 10
15.0598482382
 20
19.2174329705
 11
15.0598482382
 21
19.2111497597
  0
LINE
  5
240
100
AcDbEntity
  8
0
100
AcDbLine
 62
7
  6
BYLAYER
 10
5.5380010685
 20
22.7002452937
 11
12.8843721607
 21
22.7002452937
  0
LINE
  5
241
100
AcDbEntity
  8
0
100
AcDbLine
 62
7
  6
BYLAYER
 10
25.4353243158
 20
22.7002452937
 11
32.7816954079
 21
22.7002452937
  0
LINE
  5
242
100
AcDbEntity
  8
0
100
AcDbLine
 62
7
  6
BYLAYER
 10
32.7861635241
 20
23.5002452937
 11
24.9499777704
 21
23.5002452937
  0
LINE
  5
243
100
AcDbEntity
  8
0
100
AcDbLine
 62
7
  6
BYLAYER
 10
13.369718706
 20
23.5002452937
 11
5.5335329524
 21
23.5002452937
  0
LINE
  5
244
100
AcDbEntity
  8
0
100
AcDbLine
 62
7
  6
BYLAYER
 10
5.13694885
 20
26.2502452937
 11
5.5098482382
 21
26.2502452937
  0
LINE
  5
245
100
AcDbEntity
  8
0
100
AcDbLine
 62
7
  6
BYLAYER
 10
32.8098482382
 20
26.2502452937
 11
33.1827476264
 21
26.2502452937
  0
LINE
  5
246
100
AcDbEntity
  8
0
100
AcDbLine
 62
7
  6
BYLAYER
 10
5.5335329524
 20
29.0002452937
 11
13.369718706
 21
29.0002452937
  0
LINE
  5
247
100
AcDbEntity
  8
0
100
AcDbLine
 62
7
  6
BYLAYER
 10
24.9499777704
 20
29.0002452937
 11
32.7861635241
 21
29.0002452937
  0
LINE
  5
248
100
AcDbEntity
  8
0
100
AcDbLine
 62
7
  6
BYLAYER
 10
32.7816954079
 20
29.8002452937
 11
25.4353243158
 21
29.8002452937
  0
LINE
  5
249
100
AcDbEntity
  8
0
100
AcDbLine
 62
7
  6
BYLAYER
 10
12.8843721607
 20
29.8002452937
 11
5.5380010685
 21
29.8002452937
  0
LINE
  5
24A
100
AcDbEntity
  8
0
100
AcDbLine
 62
7
  6
BYLAYER
 10
23.2598482382
 20
33.2830576169
 11
23.2598482382
 21
33.2893408277
  0
LINE
  5
24B
100
AcDbEntity
  8
0
100
AcDbLine
 62
7
  6
BYLAYER
 10
23.4098482382
 20
19.2111497597
 11
23.4098482382
 21
19.2174329705
  0
LINE
  5
24C
100
AcDbEntity
  8
0
100
AcDbLine
 62
7
  6
BYLAYER
 10
24.1598482382
 20
32.650559454
 11
24.1598482382
 21
30.2612426759
  0
LINE
  5
24D
100
AcDbEntity
  8
0
100
AcDbLine
 62
7
  6
BYLAYER
 10
24.1598482382
 20
22.2392479115
 11
24.1598482382
 21
19.8499311334
  0
LINE
  5
24E
100
AcDbEntity
  8
0
100
AcDbLine
 62
7
  6
BYLAYER
 10
24.9598482382
 20
19.847417851
 11
24.9598482382
 21
21.9672440095
  0
LINE
  5
24F
100
AcDbEntity
  8
0
100
AcDbLine
 62
7
  6
BYLAYER
 10
24.9598482382
 20
30.5332465778
 11
24.9598482382
 21
32.6530727364
  0
LINE
  5
250
100
AcDbEntity
  8
0
100
AcDbLine
 62
7
  6
BYLAYER
 10
32.7672044743
 20
31.4607418101
 11
33.1372481303
 21
31.4639711321
  0
LINE
  5
251
100
AcDbEntity
  8
0
100
AcDbLine
 62
7
  6
BYLAYER
 10
34.1598482382
 20
30.9999821285
 11
33.2998164404
 21
30.9999821285
  0
LINE
  5
252
100
AcDbEntity
  8
0
100
AcDbLine
 62
7
  6
BYLAYER
 10
33.2598482382
 20
31.5502452937
 11
33.2998164404
 21
31.5502452937
  0
LINE
  5
253
100
AcDbEntity
  8
0
100
AcDbLine
 62
7
  6
BYLAYER
 10
5.5524920021
 20
31.4607418101
 11
5.1824483461
 21
31.4639711321
  0
LINE
  5
254
100
AcDbEntity
  8
0
100
AcDbLine
 62
7
  6
BYLAYER
 10
14.1598482382
 20
32.6502452937
 11
17.5069417073
 21
32.6502452937
  0
LINE
  5
255
100
AcDbEntity
  8
0
100
AcDbLine
 62
7
  6
BYLAYER
 10
20.8127547692
 20
32.6502452937
 11
24.1598482382
 21
32.6502452937
  0
LINE
  5
256
100
AcDbEntity
  8
0
100
AcDbLine
 62
7
  6
BYLAYER
 10
6.7552736448
 20
32.6530727364
 11
13.3598482382
 21
32.6530727364
  0
LINE
  5
257
100
AcDbEntity
  8
0
100
AcDbLine
 62
7
  6
BYLAYER
 10
24.9598482382
 20
32.6530727364
 11
31.5644228316
 21
32.6530727364
  0
LINE
  5
258
100
AcDbEntity
  8
0
100
AcDbLine
 62
7
  6
BYLAYER
 10
6.7552736448
 20
32.7221880068
 11
31.5644228316
 21
32.7221880068
  0
LINE
  5
259
100
AcDbEntity
  8
0
100
AcDbLine
 62
7
  6
BYLAYER
 10
6.7552736448
 20
33.023130483
 11
31.5644228316
 21
33.023130483
  0
LINE
  5
25A
100
AcDbEntity
  8
0
100
AcDbLine
 62
7
  6
BYLAYER
 10
6.7598482382
 20
33.2502452937
 11
31.5598482382
 21
33.2502452937
  0
LINE
  5
25B
100
AcDbEntity
  8
0
100
AcDbLine
 62
7
  6
BYLAYER
 10
6.7598482382
 20
33.2553067691
 11
4.1598482382
 21
33.2553067691
  0
LINE
  5
25C
100
AcDbEntity
  8
0
100
AcDbLine
 62
7
  6
BYLAYER
 10
14.9098482382
 20
33.2830576169
 11
23.2598482382
 21
33.2830576169
  0
LINE
  5
25D
100
AcDbEntity
  8
0
100
AcDbLine
 62
7
  6
BYLAYER
 10
32.9598482382
 20
33.2956240386
 11
9.1598482382
 21
33.2956240386
  0
LINE
  5
25E
100
AcDbEntity
  8
0
100
AcDbLine
 62
7
  6
BYLAYER
 10
9.1598481918
 20
33.9502452937
 11
32.9598484378
 21
33.9502452937
  0
LINE
  5
25F
100
AcDbEntity
  8
0
100
AcDbLine
 62
7
  6
BYLAYER
 10
4.8598482379
 20
34.2502452937
 11
33.4598482385
 21
34.2502452937
  0
LINE
  5
260
100
AcDbEntity
  8
0
100
AcDbLine
 62
7
  6
BYLAYER
 10
33.4664651593
 20
34.2501410497
 11
33.4598482855
 21
34.2502452937
  0
LINE
  5
261
100
AcDbEntity
  8
0
100
AcDbLine
 62
7
  6
BYLAYER
 10
33.4909335249
 20
34.2493404973
 11
33.4664689427
 21
34.2502395101
  0
LINE
  5
262
100
AcDbEntity
  8
0
100
AcDbLine
 62
7
  6
BYLAYER
 10
31.5598482382
 20
33.2902134959
 11
31.5598482382
 21
33.2502452937
  0
LINE
  5
263
100
AcDbEntity
  8
0
100
AcDbLine
 62
7
  6
BYLAYER
 10
31.5598482382
 20
19.2502452937
 11
31.5598482382
 21
19.2102770915
  0
LINE
  5
264
100
AcDbEntity
  8
0
100
AcDbLine
 62
7
  6
BYLAYER
 10
31.5644228316
 20
33.023130483
 11
31.5644228316
 21
32.6530727364
  0
LINE
  5
265
100
AcDbEntity
  8
0
100
AcDbLine
 62
7
  6
BYLAYER
 10
31.5644228316
 20
19.847417851
 11
31.5644228316
 21
19.4773601044
  0
LINE
  5
266
100
AcDbEntity
  8
0
100
AcDbLine
 62
7
  6
BYLAYER
 10
32.7858493518
 20
29.0002452937
 11
32.8098482382
 21
26.2502452937
  0
LINE
  5
267
100
AcDbEntity
  8
0
100
AcDbLine
 62
7
  6
BYLAYER
 10
32.7672044743
 20
31.4607418101
 11
32.7816954079
 21
29.8002452937
  0
LINE
  5
268
100
AcDbEntity
  8
0
100
AcDbLine
 62
7
  6
BYLAYER
 10
32.8363171131
 20
31.4613449469
 11
32.8817936908
 21
26.2502452937
  0
LINE
  5
269
100
AcDbEntity
  8
0
100
AcDbLine
 62
7
  6
BYLAYER
 10
32.8098482382
 20
26.2502452937
 11
32.7858493518
 21
23.5002452937
  0
LINE
  5
26A
100
AcDbEntity
  8
0
100
AcDbLine
 62
7
  6
BYLAYER
 10
32.7816954079
 20
22.7002452937
 11
32.7672044744
 21
21.0397487773
  0
LINE
  5
26B
100
AcDbEntity
  8
0
100
AcDbLine
 62
7
  6
BYLAYER
 10
32.8817936908
 20
26.2502452937
 11
32.8363171131
 21
21.0391456405
  0
LINE
  5
26C
100
AcDbEntity
  8
0
100
AcDbLine
 62
7
  6
BYLAYER
 10
33.1372481303
 20
31.4639711322
 11
33.1827476264
 21
26.2502452937
  0
LINE
  5
26D
100
AcDbEntity
  8
0
100
AcDbLine
 62
7
  6
BYLAYER
 10
32.9598482382
 20
19.2048665488
 11
32.9598482499
 21
18.2502452937
  0
LINE
  5
26E
100
AcDbEntity
  8
0
100
AcDbLine
 62
7
  6
BYLAYER
 10
32.9598482382
 20
33.2956240386
 11
32.9598484784
 21
34.2502452937
  0
LINE
  5
26F
100
AcDbEntity
  8
0
100
AcDbLine
 62
7
  6
BYLAYER
 10
33.2598482382
 20
31.5502452937
 11
33.2598482382
 21
20.9502452937
  0
LINE
  5
270
100
AcDbEntity
  8
0
100
AcDbLine
 62
7
  6
BYLAYER
 10
33.2998164404
 20
31.5502452937
 11
33.2998164404
 21
30.9999821285
  0
LINE
  5
271
100
AcDbEntity
  8
0
100
AcDbLine
 62
7
  6
BYLAYER
 10
33.2998164404
 20
21.5005084589
 11
33.2998164404
 21
20.9502452937
  0
LINE
  5
272
100
AcDbEntity
  8
0
100
AcDbLine
 62
7
  6
BYLAYER
 10
33.1827476264
 20
26.2502452937
 11
33.1372481303
 21
21.0365194552
  0
LINE
  5
273
100
AcDbEntity
  8
0
100
AcDbLine
 62
7
  6
BYLAYER
 10
34.1598482382
 20
18.9502452937
 11
34.1598482382
 21
33.5502441874
  0
ARC
  5
274
100
AcDbEntity
  8
0
100
AcDbCircle
 62
7
  6
BYLAYER
 10
0.2762292737
 20
-9.2598893126
 40
41.8888380025
100
AcDbArc
 50
70.6438244255
 51
71.7996081328
  0
ARC
  5
275
100
AcDbEntity
  8
0
100
AcDbCircle
 62
7
  6
BYLAYER
 10
3.0459134064
 20
9.6641920409
 40
25.9079988667
100
AcDbArc
 50
30.2097573174
 51
32.2792106689
  0
ARC
  5
276
100
AcDbEntity
  8
0
100
AcDbCircle
 62
7
  6
BYLAYER
 10
6.7598482382
 20
20.9502452937
 40
1.7050614754
100
AcDbArc
 50
179.9999999994
 51
270.0
  0
ARC
  5
277
100
AcDbEntity
  8
0
100
AcDbCircle
 62
7
  6
BYLAYER
 10
6.7552736448
 20
21.0502452937
 40
1.5728851893
100
AcDbArc
 50
180.5000000019
 51
270.0
  0
ARC
  5
278
100
AcDbEntity
  8
0
100
AcDbCircle
 62
7
  6
BYLAYER
 10
6.7552736448
 20
21.0502452937
 40
1.2719427131
100
AcDbArc
 50
180.5
 51
270.0
  0
ARC
  5
279
100
AcDbEntity
  8
0
100
AcDbCircle
 62
7
  6
BYLAYER
 10
6.7552736448
 20
21.0502452937
 40
1.2028274427
100
AcDbArc
 50
180.5000000008
 51
270.0
  0
ARC
  5
27A
100
AcDbEntity
  8
0
100
AcDbCircle
 62
7
  6
BYLAYER
 10
4.8598482382
 20
18.9502452937
 40
0.7
100
AcDbArc
 50
179.9999831099
 51
270.0
  0
ARC
  5
27B
100
AcDbEntity
  8
0
100
AcDbCircle
 62
7
  6
BYLAYER
 10
0.3292845956
 20
61.6043370742
 40
41.7240306714
100
AcDbArc
 50
288.1981091524
 51
289.3584582893
  0
ARC
  5
27C
100
AcDbEntity
  8
0
100
AcDbCircle
 62
7
  6
BYLAYER
 10
2.9498000161
 20
42.8946089239
 40
26.0203989576
100
AcDbArc
 50
327.7252595137
 51
329.7857724999
  0
ARC
  5
27D
100
AcDbEntity
  8
0
100
AcDbCircle
 62
7
  6
BYLAYER
 10
6.7598482382
 20
31.5502452937
 40
1.7050614754
100
AcDbArc
 50
90.0
 51
180.0000000006
  0
ARC
  5
27E
100
AcDbEntity
  8
0
100
AcDbCircle
 62
7
  6
BYLAYER
 10
6.7552736448
 20
31.4502452937
 40
1.5728851893
100
AcDbArc
 50
90.0
 51
179.4999999979
  0
ARC
  5
27F
100
AcDbEntity
  8
0
100
AcDbCircle
 62
7
  6
BYLAYER
 10
6.7552736448
 20
31.4502452937
 40
1.2719427131
100
AcDbArc
 50
90.0
 51
179.5
  0
ARC
  5
280
100
AcDbEntity
  8
0
100
AcDbCircle
 62
7
  6
BYLAYER
 10
6.7552736448
 20
31.4502452937
 40
1.2028274427
100
AcDbArc
 50
90.0
 51
179.4999999976
  0
ARC
  5
281
100
AcDbEntity
  8
0
100
AcDbCircle
 62
7
  6
BYLAYER
 10
4.8598482382
 20
33.5502452937
 40
0.7
100
AcDbArc
 50
90.0
 51
180.0
  0
ARC
  5
282
100
AcDbEntity
  8
0
100
AcDbCircle
 62
7
  6
BYLAYER
 10
4.7847345796
 20
33.942913293
 40
0.3002334046
100
AcDbArc
 50
94.3597662351
 51
100.7771083186
  0
ARC
  5
283
100
AcDbEntity
  8
0
100
AcDbCircle
 62
7
  6
BYLAYER
 10
37.9904118809
 20
-9.1038464869
 40
41.7240306714
100
AcDbArc
 50
108.1981091524
 51
109.3584582893
  0
ARC
  5
284
100
AcDbEntity
  8
0
100
AcDbCircle
 62
7
  6
BYLAYER
 10
35.3698964603
 20
9.6058816635
 40
26.0203989576
100
AcDbArc
 50
147.7252595137
 51
149.7857724999
  0
ARC
  5
285
100
AcDbEntity
  8
0
100
AcDbCircle
 62
7
  6
BYLAYER
 10
31.5598482382
 20
20.9502452937
 40
1.7399682022
100
AcDbArc
 50
270.0
 51
359.9999999988
  0
ARC
  5
286
100
AcDbEntity
  8
0
100
AcDbCircle
 62
7
  6
BYLAYER
 10
31.5598482382
 20
20.9502452937
 40
1.7
100
AcDbArc
 50
270.0
 51
360.0
  0
ARC
  5
287
100
AcDbEntity
  8
0
100
AcDbCircle
 62
7
  6
BYLAYER
 10
31.5644228316
 20
21.0502452937
 40
1.5728851893
100
AcDbArc
 50
270.0
 51
359.4999999979
  0
ARC
  5
288
100
AcDbEntity
  8
0
100
AcDbCircle
 62
7
  6
BYLAYER
 10
31.5644228316
 20
21.0502452937
 40
1.2719427131
100
AcDbArc
 50
270.0
 51
359.5
  0
ARC
  5
289
100
AcDbEntity
  8
0
100
AcDbCircle
 62
7
  6
BYLAYER
 10
31.5644228316
 20
21.0502452937
 40
1.2028274427
100
AcDbArc
 50
270.0
 51
359.4999999976
  0
ARC
  5
28A
100
AcDbEntity
  8
0
100
AcDbCircle
 62
7
  6
BYLAYER
 10
33.4598482382
 20
18.9502452937
 40
0.7
100
AcDbArc
 50
280.180617975
 51
360.0
  0
ARC
  5
28B
100
AcDbEntity
  8
0
100
AcDbCircle
 62
7
  6
BYLAYER
 10
33.4598482382
 20
18.9502452937
 40
0.7
100
AcDbArc
 50
270.0
 51
272.9227413287
  0
ARC
  5
28C
100
AcDbEntity
  8
0
100
AcDbCircle
 62
7
  6
BYLAYER
 10
33.5347150229
 20
18.5577547025
 40
0.3004349643
100
AcDbArc
 50
261.1646317682
 51
275.5696858591
  0
ARC
  5
28D
100
AcDbEntity
  8
0
100
AcDbCircle
 62
7
  6
BYLAYER
 10
33.4599080388
 20
18.4545406004
 40
0.2042940473
100
AcDbArc
 50
272.018200559
 51
276.9745827747
  0
ARC
  5
28E
100
AcDbEntity
  8
0
100
AcDbCircle
 62
7
  6
BYLAYER
 10
19.1598482382
 20
26.2502452937
 40
7.21
100
AcDbArc
 50
143.5560417727
 51
150.5034135162
  0
ARC
  5
28F
100
AcDbEntity
  8
0
100
AcDbCircle
 62
7
  6
BYLAYER
 10
19.1598482382
 20
26.2502452937
 40
7.21
100
AcDbArc
 50
209.4965864838
 51
216.4439582273
  0
ARC
  5
290
100
AcDbEntity
  8
0
100
AcDbCircle
 62
7
  6
BYLAYER
 10
19.1598482382
 20
26.2502452937
 40
7.21
100
AcDbArc
 50
29.4965864838
 51
36.4439582273
  0
ARC
  5
291
100
AcDbEntity
  8
0
100
AcDbCircle
 62
7
  6
BYLAYER
 10
19.1598482382
 20
26.2502452937
 40
7.21
100
AcDbArc
 50
323.5560417727
 51
330.5034135162
  0
ARC
  5
292
100
AcDbEntity
  8
0
100
AcDbCircle
 62
7
  6
BYLAYER
 10
19.1598482382
 20
26.2502452937
 40
6.61
100
AcDbArc
 50
104.4811516102
 51
139.1504468895
  0
ARC
  5
293
100
AcDbEntity
  8
0
100
AcDbCircle
 62
7
  6
BYLAYER
 10
19.1598482382
 20
26.2502452937
 40
6.61
100
AcDbArc
 50
220.8495531105
 51
255.5188483897
  0
ARC
  5
294
100
AcDbEntity
  8
0
100
AcDbCircle
 62
7
  6
BYLAYER
 10
19.1598482382
 20
26.2502452937
 40
6.61
100
AcDbArc
 50
40.8495531105
 51
75.5188483897
  0
ARC
  5
295
100
AcDbEntity
  8
0
100
AcDbCircle
 62
7
  6
BYLAYER
 10
19.1598482382
 20
26.2502452937
 40
6.61
100
AcDbArc
 50
335.4154052599
 51
24.5845947401
  0
ARC
  5
296
100
AcDbEntity
  8
0
100
AcDbCircle
 62
7
  6
BYLAYER
 10
19.1598482382
 20
26.2502452937
 40
6.61
100
AcDbArc
 50
284.4811516102
 51
319.1504468895
  0
ARC
  5
297
100
AcDbEntity
  8
0
100
AcDbCircle
 62
7
  6
BYLAYER
 10
19.1598482382
 20
26.2502452937
 40
6.61
100
AcDbArc
 50
155.4154052599
 51
204.5845947401
  0
CIRCLE
  5
298
100
AcDbEntity
  8
0
100
AcDbCircle
 62
7
  6
BYLAYER
 10
19.1598482382
 20
26.2502452937
 40
6.41
  0
ARC
  5
299
100
AcDbEntity
  8
0
100
AcDbCircle
 62
7
  6
BYLAYER
 10
35.2737830701
 20
42.8362985466
 40
25.9079988668
100
AcDbArc
 50
210.2097573174
 51
212.2792106689
  0
ARC
  5
29A
100
AcDbEntity
  8
0
100
AcDbCircle
 62
7
  6
BYLAYER
 10
31.5598482382
 20
31.5502452937
 40
1.7399682022
100
AcDbArc
 50
0.0000000012
 51
90.0
  0
ARC
  5
29B
100
AcDbEntity
  8
0
100
AcDbCircle
 62
7
  6
BYLAYER
 10
31.5598482382
 20
31.5502452937
 40
1.7
100
AcDbArc
 50
0.0
 51
90.0
  0
ARC
  5
29C
100
AcDbEntity
  8
0
100
AcDbCircle
 62
7
  6
BYLAYER
 10
31.5644228316
 20
31.4502452937
 40
1.5728851893
100
AcDbArc
 50
0.5000000019
 51
90.0
  0
ARC
  5
29D
100
AcDbEntity
  8
0
100
AcDbCircle
 62
7
  6
BYLAYER
 10
31.5644228316
 20
31.4502452937
 40
1.2719427131
100
AcDbArc
 50
0.5
 51
90.0
  0
ARC
  5
29E
100
AcDbEntity
  8
0
100
AcDbCircle
 62
7
  6
BYLAYER
 10
31.5644228316
 20
31.4502452937
 40
1.2028274427
100
AcDbArc
 50
0.5000000008
 51
90.0
  0
ARC
  5
29F
100
AcDbEntity
  8
0
100
AcDbCircle
 62
7
  6
BYLAYER
 10
33.4598482382
 20
33.5502452937
 40
0.7
100
AcDbArc
 50
359.9999547222
 51
90.0
  0
ARC
  5
2A0
100
AcDbEntity
  8
0
100
AcDbCircle
 62
7
  6
BYLAYER
 10
33.5353685119
 20
33.9455561685
 40
0.2975528996
100
AcDbArc
 50
79.2046492066
 51
82.7961189217
  0
ARC
  5
2A1
100
AcDbEntity
  8
0
100
AcDbCircle
 62
7
  6
BYLAYER
 10
33.4599584555
 20
34.0465792047
 40
0.2036636873
100
AcDbArc
 50
81.8701975321
 51
88.1684889498
  0
ARC
  5
2A2
100
AcDbEntity
  8
0
100
AcDbCircle
 62
7
  6
BYLAYER
 10
38.0434672027
 20
61.7603798998
 40
41.8888380024
100
AcDbArc
 50
250.6438244255
 51
251.7996081328
  0
SPLINE
  5
2A3
100
AcDbEntity
  8
0
100
AcDbSpline
 62
7
  6
BYLAYER
 70
0
 71
3
 72
13
 73
9
 74
0
 42
0.0000001
 43
0.0000001
 44
0.0000000001
 40
0.0
 40
0.0
 40
0.0
 40
0.0
 40
0.0777788098
 40
0.1945872308
 40
0.5000012616
 40
0.8054148937
 40
0.9222216163
 40
1.0
 40
1.0
 40
1.0
 40
1.0
 10
18.7434203431
 20
19.2111497597
 30
0.0
 10
18.7650122825
 20
19.2113585425
 30
0.0
 10
18.8190331789
 20
19.2116347424
 30
0.0
 10
18.9578426645
 20
19.2120788865
 30
0.0
 10
19.1598491781
 20
19.212235651
 30
0.0
 10
19.3618552201
 20
19.2120788899
 30
0.0
 10
19.5006640052
 20
19.2116347374
 30
0.0
 10
19.5546843118
 20
19.2113585413
 30
0.0
 10
19.5762761329
 20
19.2111497597
 30
0.0
  0
SPLINE
  5
2A4
100
AcDbEntity
  8
0
100
AcDbSpline
 62
7
  6
BYLAYER
 70
0
 71
3
 72
13
 73
9
 74
0
 42
0.0000001
 43
0.0000001
 44
0.0000000001
 40
0.0
 40
0.0
 40
0.0
 40
0.0
 40
0.077637979
 40
0.194566747
 40
0.5
 40
0.805433253
 40
0.922362021
 40
1.0
 40
1.0
 40
1.0
 40
1.0
 10
18.7434203328
 20
33.2893408277
 30
0.0
 10
18.7649731773
 20
33.2891324229
 30
0.0
 10
18.8189883754
 20
33.2888540851
 30
0.0
 10
18.9577975301
 20
33.2884130338
 30
0.0
 10
19.1598482382
 20
33.288253135
 30
0.0
 10
19.3618989463
 20
33.2884130338
 30
0.0
 10
19.500708101
 20
33.2888540851
 30
0.0
 10
19.5547232991
 20
33.2891324229
 30
0.0
 10
19.5762761437
 20
33.2893408277
 30
0.0
  0
SPLINE
  5
2A5
100
AcDbEntity
  8
0
100
AcDbSpline
 62
7
  6
BYLAYER
 70
0
 71
3
 72
15
 73
11
 74
0
 42
0.0000001
 43
0.0000001
 44
0.0000000001
 40
0.0
 40
0.0
 40
0.0
 40
0.0
 40
0.0407269459
 40
0.0853808657
 40
0.1857511822
 40
0.2995758219
 40
0.4250737774
 40
0.5601700604
 40
0.7026083885
 40
1.0
 40
1.0
 40
1.0
 40
1.0
 10
4.8598478741
 20
18.7152537036
 30
0.0
 10
4.9175107101
 20
18.7056050167
 30
0.0
 10
5.0387731957
 20
18.687606806
 30
0.0
 10
5.3035359645
 20
18.6557420074
 30
0.0
 10
5.6738435535
 20
18.6238302821
 30
0.0
 10
6.1607137834
 20
18.5958610442
 30
0.0
 10
6.6978545771
 20
18.5758033367
 30
0.0
 10
7.2762757648
 20
18.5624314137
 30
0.0
 10
8.1015368021
 20
18.5517344033
 30
0.0
 10
8.7329353507
 20
18.5502452764
 30
0.0
 10
9.1598482149
 20
18.5502452936
 30
0.0
  0
SPLINE
  5
2A6
100
AcDbEntity
  8
0
100
AcDbSpline
 62
7
  6
BYLAYER
 70
0
 71
3
 72
11
 73
7
 74
0
 42
0.0000001
 43
0.0000001
 44
0.0000000001
 40
0.0
 40
0.0
 40
0.0
 40
0.0
 40
0.1780987388
 40
0.4053165441
 40
0.6799449868
 40
1.0
 40
1.0
 40
1.0
 40
1.0
 10
4.2740281286
 20
18.8500474829
 30
0.0
 10
4.3074261877
 20
18.8373528795
 30
0.0
 10
4.3851493244
 20
18.8130567146
 30
0.0
 10
4.5175295325
 20
18.7800539355
 30
0.0
 10
4.6790256923
 20
18.7465985195
 30
0.0
 10
4.79651013
 20
18.7257808798
 30
0.0
 10
4.8598474213
 20
18.7152433204
 30
0.0
  0
SPLINE
  5
2A7
100
AcDbEntity
  8
0
100
AcDbSpline
 62
7
  6
BYLAYER
 70
0
 71
3
 72
13
 73
9
 74
0
 42
0.0000001
 43
0.0000001
 44
0.0000000001
 40
0.0
 40
0.0
 40
0.0
 40
0.0
 40
0.0363595212
 40
0.1034654916
 40
0.1978031671
 40
0.3164897345
 40
0.6186575475
 40
1.0
 40
1.0
 40
1.0
 40
1.0
 10
4.1598482382
 20
18.950245678
 30
0.0
 10
4.1598485285
 20
18.9483388691
 30
0.0
 10
4.1610605043
 20
18.9429662695
 30
0.0
 10
4.1650395032
 20
18.933367908
 30
0.0
 10
4.1728488096
 20
18.9208406685
 30
0.0
 10
4.1900622908
 20
18.8999375932
 30
0.0
 10
4.2230118527
 20
18.8730994372
 30
0.0
 10
4.2553190627
 20
18.856839262
 30
0.0
 10
4.2740231116
 20
18.8497603514
 30
0.0
  0
SPLINE
  5
2A8
100
AcDbEntity
  8
0
100
AcDbSpline
 62
7
  6
BYLAYER
 70
0
 71
3
 72
13
 73
9
 74
0
 42
0.0000001
 43
0.0000001
 44
0.0000000001
 40
0.0
 40
0.0
 40
0.0
 40
0.0
 40
0.3813669847
 40
0.6835367769
 40
0.8022166355
 40
0.8965457236
 40
0.9636442406
 40
1.0
 40
1.0
 40
1.0
 40
1.0
 10
4.2740663678
 20
33.6507706538
 30
0.0
 10
4.255355126
 20
33.6436861497
 30
0.0
 10
4.2230366836
 20
33.6274159323
 30
0.0
 10
4.1900744064
 20
33.6005672334
 30
0.0
 10
4.1728540983
 20
33.5796576968
 30
0.0
 10
4.1650418194
 20
33.5671272771
 30
0.0
 10
4.1610611711
 20
33.5575265516
 30
0.0
 10
4.1598486092
 20
33.5521525946
 30
0.0
 10
4.1598482382
 20
33.5502452756
 30
0.0
  0
SPLINE
  5
2A9
100
AcDbEntity
  8
0
100
AcDbSpline
 62
7
  6
BYLAYER
 70
0
 71
3
 72
11
 73
7
 74
0
 42
0.0000001
 43
0.0000001
 44
0.0000000001
 40
0.0
 40
0.0
 40
0.0
 40
0.0
 40
0.3200393449
 40
0.5946605778
 40
0.8218824775
 40
1.0
 40
1.0
 40
1.0
 40
1.0
 10
4.8598481924
 20
33.7852387788
 30
0.0
 10
4.7965174446
 20
33.774714287
 30
0.0
 10
4.6790441145
 20
33.753918036
 30
0.0
 10
4.5175618137
 20
33.7204827622
 30
0.0
 10
4.3851885493
 20
33.6874865503
 30
0.0
 10
4.3074686319
 20
33.6631869546
 30
0.0
 10
4.2740713032
 20
33.6504883688
 30
0.0
  0
SPLINE
  5
2AA
100
AcDbEntity
  8
0
100
AcDbSpline
 62
7
  6
BYLAYER
 70
0
 71
3
 72
15
 73
11
 74
0
 42
0.0000001
 43
0.0000001
 44
0.0000000001
 40
0.0
 40
0.0
 40
0.0
 40
0.0
 40
0.2973915708
 40
0.4398300143
 40
0.5749264825
 40
0.7004246392
 40
0.8142494682
 40
0.9146198437
 40
0.9592735666
 40
1.0
 40
1.0
 40
1.0
 40
1.0
 10
9.159848215
 20
33.9502452938
 30
0.0
 10
8.7329360945
 20
33.9502453111
 30
0.0
 10
8.1015384151
 20
33.9487429534
 30
0.0
 10
7.2762786586
 20
33.9380205679
 30
0.0
 10
6.6978580801
 20
33.9246315438
 30
0.0
 10
6.1607177789
 20
33.9045631178
 30
0.0
 10
5.6738476775
 20
33.8765954677
 30
0.0
 10
5.3035396072
 20
33.8446984497
 30
0.0
 10
5.0387754846
 20
33.8128568748
 30
0.0
 10
4.9175119195
 20
33.7948747808
 30
0.0
 10
4.8598483329
 20
33.7852356108
 30
0.0
  0
SPLINE
  5
2AB
100
AcDbEntity
  8
0
100
AcDbSpline
 62
7
  6
BYLAYER
 70
0
 71
3
 72
13
 73
9
 74
0
 42
0.0000001
 43
0.0000001
 44
0.0000000001
 40
0.0
 40
0.0
 40
0.0
 40
0.0
 40
0.2401406904
 40
0.3691671989
 40
0.5005904635
 40
0.6319136259
 40
0.7606691695
 40
1.0
 40
1.0
 40
1.0
 40
1.0
 10
4.2740692693
 20
33.6507718666
 30
0.0
 10
4.2726226541
 20
33.7252249087
 30
0.0
 10
4.2923312877
 20
33.8416995282
 30
0.0
 10
4.3624014879
 20
33.9810810495
 30
0.0
 10
4.4378947073
 20
34.0774711553
 30
0.0
 10
4.5324466658
 20
34.1551260026
 30
0.0
 10
4.6698900401
 20
34.2281563587
 30
0.0
 10
4.7856326682
 20
34.2502453372
 30
0.0
 10
4.8598486271
 20
34.2502452965
 30
0.0
  0
SPLINE
  5
2AC
100
AcDbEntity
  8
0
100
AcDbSpline
 62
7
  6
BYLAYER
 70
0
 71
3
 72
14
 73
10
 74
0
 42
0.0000001
 43
0.0000001
 44
0.0000000001
 40
0.0
 40
0.0
 40
0.0
 40
0.0
 40
0.2513765077
 40
0.3835446334
 40
0.5155764849
 40
0.6448439797
 40
0.7695446113
 40
0.888024363
 40
1.0
 40
1.0
 40
1.0
 40
1.0
 10
4.8598483612
 20
33.7852342799
 30
0.0
 10
4.8570976696
 20
33.8425447027
 30
0.0
 10
4.8678218161
 20
33.931853313
 30
0.0
 10
4.9140964751
 20
34.0406586304
 30
0.0
 10
4.9650132621
 20
34.1154990237
 30
0.0
 10
5.0299994786
 20
34.1760263429
 30
0.0
 10
5.1036614658
 20
34.219843016
 30
0.0
 10
5.1814436623
 20
34.2448287255
 30
0.0
 10
5.2341857472
 20
34.2502445275
 30
0.0
 10
5.2597440565
 20
34.2502452935
 30
0.0
  0
SPLINE
  5
2AD
100
AcDbEntity
  8
0
100
AcDbSpline
 62
7
  6
BYLAYER
 70
0
 71
3
 72
12
 73
8
 74
0
 42
0.0000001
 43
0.0000001
 44
0.0000000001
 40
0.0
 40
0.0
 40
0.0
 40
0.0
 40
0.2605063614
 40
0.5253602194
 40
0.6542607231
 40
0.7776531797
 40
1.0
 40
1.0
 40
1.0
 40
1.0
 10
33.4598487791
 20
33.9317940992
 30
0.0
 10
33.4629701926
 20
33.9545455546
 30
0.0
 10
33.4665428992
 20
34.0008444943
 30
0.0
 10
33.4635246572
 20
34.0586586649
 30
0.0
 10
33.4556275765
 20
34.1036212581
 30
0.0
 10
33.4448593465
 20
34.1440645835
 30
0.0
 10
33.4325405836
 20
34.1723740827
 30
0.0
 10
33.4221503642
 20
34.1889942492
 30
0.0
  0
SPLINE
  5
2AE
100
AcDbEntity
  8
0
100
AcDbSpline
 62
7
  6
BYLAYER
 70
0
 71
3
 72
11
 73
7
 74
0
 42
0.0000001
 43
0.0000001
 44
0.0000000001
 40
0.0
 40
0.0
 40
0.0
 40
0.0
 40
0.2942940081
 40
0.5527991556
 40
0.7841141468
 40
1.0
 40
1.0
 40
1.0
 40
1.0
 10
33.4221503642
 20
34.1889942492
 30
0.0
 10
33.4160175463
 20
34.1988042881
 30
0.0
 10
33.4028662527
 20
34.2163212951
 30
0.0
 10
33.378981304
 20
34.236336565
 30
0.0
 10
33.3533207698
 20
34.2477972906
 30
0.0
 10
33.3356478748
 20
34.2502452937
 30
0.0
 10
33.327160972
 20
34.2502452937
 30
0.0
  0
SPLINE
  5
2AF
100
AcDbEntity
  8
0
100
AcDbSpline
 62
7
  6
BYLAYER
 70
0
 71
3
 72
14
 73
10
 74
0
 42
0.0000001
 43
0.0000001
 44
0.0000000001
 40
0.0
 40
0.0
 40
0.0
 40
0.0
 40
0.2514420727
 40
0.380362656
 40
0.5095083313
 40
0.6374323293
 40
0.762518719
 40
0.8835226699
 40
1.0
 40
1.0
 40
1.0
 40
1.0
 10
33.670729308
 20
33.8942728404
 30
0.0
 10
33.6757419248
 20
33.9191818563
 30
0.0
 10
33.6801095458
 20
33.9576344158
 30
0.0
 10
33.6787751713
 20
34.0091681658
 30
0.0
 10
33.6736055762
 20
34.0479138964
 30
0.0
 10
33.6642089055
 20
34.0854559474
 30
0.0
 10
33.6507220415
 20
34.1208696521
 30
0.0
 10
33.6331589819
 20
34.1531610801
 30
0.0
 10
33.618588893
 20
34.172366884
 30
0.0
 10
33.6107804267
 20
34.1811738817
 30
0.0
  0
SPLINE
  5
2B0
100
AcDbEntity
  8
0
100
AcDbSpline
 62
7
  6
BYLAYER
 70
0
 71
3
 72
9
 73
5
 74
0
 42
0.0000001
 43
0.0000001
 44
0.0000000001
 40
0.0
 40
0.0
 40
0.0
 40
0.0
 40
0.5204147316
 40
1.0
 40
1.0
 40
1.0
 40
1.0
 10
33.6107804267
 20
34.1811738817
 30
0.0
 10
33.5944967906
 20
34.1995398377
 30
0.0
 10
33.5571437346
 20
34.230232327
 30
0.0
 10
33.5111516506
 20
34.2449953792
 30
0.0
 10
33.4887597951
 20
34.2481961196
 30
0.0
  0
SPLINE
  5
2B1
100
AcDbEntity
  8
0
100
AcDbSpline
 62
7
  6
BYLAYER
 70
0
 71
3
 72
9
 73
5
 74
0
 42
0.0000001
 43
0.0000001
 44
0.0000000001
 40
0.0
 40
0.0
 40
0.0
 40
0.0
 40
0.4882386204
 40
1.0
 40
1.0
 40
1.0
 40
1.0
 10
33.4598481007
 20
33.931794206
 30
0.0
 10
33.3789843692
 20
33.9416630684
 30
0.0
 10
33.2120496334
 20
33.9505680093
 30
0.0
 10
33.0452368826
 20
33.950246585
 30
0.0
 10
32.959848338
 20
33.950245294
 30
0.0
  0
SPLINE
  5
2B2
100
AcDbEntity
  8
0
100
AcDbSpline
 62
7
  6
BYLAYER
 70
0
 71
3
 72
9
 73
5
 74
0
 42
0.0000001
 43
0.0000001
 44
0.0000000001
 40
0.0
 40
0.0
 40
0.0
 40
0.0
 40
0.2391032353
 40
1.0
 40
1.0
 40
1.0
 40
1.0
 10
33.6707240877
 20
33.894274479
 30
0.0
 10
33.6540425261
 20
33.8979130415
 30
0.0
 10
33.5841965368
 20
33.9127244469
 30
0.0
 10
33.5137821477
 20
33.9252157922
 30
0.0
 10
33.4598481007
 20
33.931794206
 30
0.0
  0
SPLINE
  5
2B3
100
AcDbEntity
  8
0
100
AcDbSpline
 62
7
  6
BYLAYER
 70
0
 71
3
 72
17
 73
13
 74
0
 42
0.0000001
 43
0.0000001
 44
0.0000000001
 40
0.0
 40
0.0
 40
0.0
 40
0.0
 40
0.0258106997
 40
0.0568398662
 40
0.1349415947
 40
0.2339934463
 40
0.3531077181
 40
0.4197677016
 40
0.4908137426
 40
0.645140166
 40
0.8150652057
 40
1.0
 40
1.0
 40
1.0
 40
1.0
 10
34.1598482382
 20
33.5502455177
 30
0.0
 10
34.1598483503
 20
33.5555932327
 30
0.0
 10
34.1579893187
 20
33.5673651582
 30
0.0
 10
34.1483375689
 20
33.5937061879
 30
0.0
 10
34.1249424263
 20
33.6304511495
 30
0.0
 10
34.0837989882
 20
33.6761771435
 30
0.0
 10
34.0393180998
 20
33.7151561976
 30
0.0
 10
33.9969781687
 20
33.7474049114
 30
0.0
 10
33.9470267904
 20
33.7815915186
 30
0.0
 10
33.8757266963
 20
33.8222858027
 30
0.0
 10
33.7783542081
 20
33.8634579494
 30
0.0
 10
33.7078588244
 20
33.8848312722
 30
0.0
 10
33.6707240877
 20
33.894274479
 30
0.0
  0
SPLINE
  5
2B4
100
AcDbEntity
  8
0
100
AcDbSpline
 62
7
  6
BYLAYER
 70
0
 71
3
 72
25
 73
21
 74
0
 42
0.0000001
 43
0.0000001
 44
0.0000000001
 40
0.0
 40
0.0
 40
0.0
 40
0.0
 40
0.1276957491
 40
0.2551669735
 40
0.3823070513
 40
0.509063737
 40
0.6353967578
 40
0.6983817022
 40
0.7612176098
 40
0.8238542126
 40
0.8550649437
 40
0.8861669589
 40
0.9170995335
 40
0.9477200438
 40
0.9627980723
 40
0.9775375068
 40
0.9846509425
 40
0.9914150898
 40
0.9972469098
 40
1.0
 40
1.0
 40
1.0
 40
1.0
 10
17.5069417073
 20
32.6502452937
 30
0.0
 10
17.5615926139
 20
32.6502452937
 30
0.0
 10
17.6707983355
 20
32.650236589
 30
0.0
 10
17.8344171467
 20
32.6502031757
 30
0.0
 10
17.9976340518
 20
32.6501532557
 30
0.0
 10
18.1603638407
 20
32.6500894785
 30
0.0
 10
18.2956366281
 20
32.6500260673
 30
0.0
 10
18.4035528662
 20
32.6499692042
 30
0.0
 10
18.4842081876
 20
32.6499232267
 30
0.0
 10
18.5512657444
 20
32.6498815504
 30
0.0
 10
18.6047398829
 20
32.6498452659
 30
0.0
 10
18.6446508917
 20
32.6498163203
 30
0.0
 10
18.6842898499
 20
32.6497843172
 30
0.0
 10
18.7171332873
 20
32.6497555225
 30
0.0
 10
18.7429052846
 20
32.6497255486
 30
0.0
 10
18.7589421248
 20
32.649710362
 30
0.0
 10
18.7707356826
 20
32.6496815168
 30
0.0
 10
18.7804108714
 20
32.6496911211
 30
0.0
 10
18.7836482266
 20
32.6496059282
 30
0.0
 10
18.7920501438
 20
32.6496847965
 30
0.0
 10
18.7908738369
 20
32.6496169731
 30
0.0
  0
SPLINE
  5
2B5
100
AcDbEntity
  8
0
100
AcDbSpline
 62
7
  6
BYLAYER
 70
0
 71
3
 72
25
 73
21
 74
0
 42
0.0000001
 43
0.0000001
 44
0.0000000001
 40
0.0
 40
0.0
 40
0.0
 40
0.0
 40
0.1276957365
 40
0.2551669205
 40
0.3823070425
 40
0.5090636723
 40
0.6353967164
 40
0.69838163
 40
0.7612175284
 40
0.8238541403
 40
0.8550648662
 40
0.8861668727
 40
0.9170994468
 40
0.9477199552
 40
0.9627979731
 40
0.9775374321
 40
0.984650817
 40
0.99141501
 40
0.9972469195
 40
1.0
 40
1.0
 40
1.0
 40
1.0
 10
20.8127547692
 20
32.6502452937
 30
0.0
 10
20.7581038679
 20
32.6502452937
 30
0.0
 10
20.648898169
 20
32.6502365867
 30
0.0
 10
20.4852793615
 20
32.6502031737
 30
0.0
 10
20.3220624787
 20
32.6501532578
 30
0.0
 10
20.1593326848
 20
32.6500894765
 30
0.0
 10
20.0240599246
 20
32.6500260685
 30
0.0
 10
19.9161436937
 20
32.6499692039
 30
0.0
 10
19.8354883855
 20
32.6499232264
 30
0.0
 10
19.7684308311
 20
32.6498815507
 30
0.0
 10
19.7149566946
 20
32.649845266
 30
0.0
 10
19.6750456919
 20
32.6498163203
 30
0.0
 10
19.6354067385
 20
32.6497843173
 30
0.0
 10
19.6025633068
 20
32.6497555229
 30
0.0
 10
19.576791304
 20
32.6497255483
 30
0.0
 10
19.5607544802
 20
32.6497103628
 30
0.0
 10
19.5489609117
 20
32.6496815163
 30
0.0
 10
19.5392856772
 20
32.6496911218
 30
0.0
 10
19.5360483184
 20
32.6496059277
 30
0.0
 10
19.5276463367
 20
32.6496847963
 30
0.0
 10
19.5288226396
 20
32.6496169731
 30
0.0
  0
SPLINE
  5
2B6
100
AcDbEntity
  8
0
100
AcDbSpline
 62
7
  6
BYLAYER
 70
0
 71
3
 72
13
 73
9
 74
0
 42
0.0000001
 43
0.0000001
 44
0.0000000001
 40
0.0
 40
0.0
 40
0.0
 40
0.0
 40
0.2401655183
 40
0.3691989757
 40
0.5006246573
 40
0.6319450286
 40
0.7606933757
 40
1.0
 40
1.0
 40
1.0
 40
1.0
 10
4.2740229601
 20
18.8497574697
 30
0.0
 10
4.2725776155
 20
18.7752925542
 30
0.0
 10
4.2922930947
 20
18.658801536
 30
0.0
 10
4.3623791473
 20
18.519406316
 30
0.0
 10
4.4378827307
 20
18.4230130949
 30
0.0
 10
4.5324414727
 20
18.3453596298
 30
0.0
 10
4.6698854522
 20
18.2723348906
 30
0.0
 10
4.7856237751
 20
18.250246777
 30
0.0
 10
4.8598363601
 20
18.2502452938
 30
0.0
  0
SPLINE
  5
2B7
100
AcDbEntity
  8
0
100
AcDbSpline
 62
7
  6
BYLAYER
 70
0
 71
3
 72
25
 73
21
 74
0
 42
0.0000001
 43
0.0000001
 44
0.0000000001
 40
0.0
 40
0.0
 40
0.0
 40
0.0
 40
0.1276957365
 40
0.2551669205
 40
0.3823070425
 40
0.5090636723
 40
0.6353967164
 40
0.69838163
 40
0.7612175284
 40
0.8238541403
 40
0.8550648662
 40
0.8861668727
 40
0.9170994468
 40
0.9477199552
 40
0.9627979731
 40
0.9775374321
 40
0.984650817
 40
0.99141501
 40
0.9972469195
 40
1.0
 40
1.0
 40
1.0
 40
1.0
 10
17.5069417073
 20
19.8502452937
 30
0.0
 10
17.5615926085
 20
19.8502452937
 30
0.0
 10
17.6707983074
 20
19.8502540007
 30
0.0
 10
17.8344171149
 20
19.8502874137
 30
0.0
 10
17.9976339977
 20
19.8503373296
 30
0.0
 10
18.1603637916
 20
19.8504011109
 30
0.0
 10
18.2956365518
 20
19.8504645189
 30
0.0
 10
18.4035527827
 20
19.8505213835
 30
0.0
 10
18.4842080909
 20
19.850567361
 30
0.0
 10
18.5512656454
 20
19.8506090367
 30
0.0
 10
18.6047397819
 20
19.8506453214
 30
0.0
 10
18.6446507845
 20
19.8506742671
 30
0.0
 10
18.684289738
 20
19.8507062701
 30
0.0
 10
18.7171331697
 20
19.8507350645
 30
0.0
 10
18.7429051724
 20
19.8507650391
 30
0.0
 10
18.7589419962
 20
19.8507802246
 30
0.0
 10
18.7707355648
 20
19.8508090711
 30
0.0
 10
18.7804107993
 20
19.8507994656
 30
0.0
 10
18.7836481581
 20
19.8508846597
 30
0.0
 10
18.7920501397
 20
19.8508057911
 30
0.0
 10
18.7908738369
 20
19.8508736143
 30
0.0
  0
SPLINE
  5
2B8
100
AcDbEntity
  8
0
100
AcDbSpline
 62
7
  6
BYLAYER
 70
0
 71
3
 72
14
 73
10
 74
0
 42
0.0000001
 43
0.0000001
 44
0.0000000001
 40
0.0
 40
0.0
 40
0.0
 40
0.0
 40
0.2513679301
 40
0.3835330288
 40
0.5155633758
 40
0.6448314233
 40
0.7695346693
 40
0.8880188084
 40
1.0
 40
1.0
 40
1.0
 40
1.0
 10
4.8598482951
 20
18.7152536461
 30
0.0
 10
4.8570951937
 20
18.6579440749
 30
0.0
 10
4.8678162955
 20
18.5686356061
 30
0.0
 10
4.9140894009
 20
18.4598300531
 30
0.0
 10
4.9650069267
 20
18.3849888144
 30
0.0
 10
5.0299958865
 20
18.3244609804
 30
0.0
 10
5.1036621242
 20
18.2806443859
 30
0.0
 10
5.1814495548
 20
18.2556597698
 30
0.0
 10
5.234195201
 20
18.2502452957
 30
0.0
 10
5.2597553229
 20
18.2502452937
 30
0.0
  0
SPLINE
  5
2B9
100
AcDbEntity
  8
0
100
AcDbSpline
 62
7
  6
BYLAYER
 70
0
 71
3
 72
25
 73
21
 74
0
 42
0.0000001
 43
0.0000001
 44
0.0000000001
 40
0.0
 40
0.0
 40
0.0
 40
0.0
 40
0.1276957491
 40
0.2551669735
 40
0.3823070513
 40
0.509063737
 40
0.6353967578
 40
0.6983817022
 40
0.7612176098
 40
0.8238542126
 40
0.8550649437
 40
0.8861669589
 40
0.9170995335
 40
0.9477200438
 40
0.9627980723
 40
0.9775375068
 40
0.9846509425
 40
0.9914150898
 40
0.9972469098
 40
1.0
 40
1.0
 40
1.0
 40
1.0
 10
20.8127547692
 20
19.8502452937
 30
0.0
 10
20.7581038625
 20
19.8502452937
 30
0.0
 10
20.6488981409
 20
19.8502539984
 30
0.0
 10
20.4852793297
 20
19.8502874117
 30
0.0
 10
20.3220624246
 20
19.8503373317
 30
0.0
 10
20.1593326357
 20
19.8504011089
 30
0.0
 10
20.0240598483
 20
19.8504645201
 30
0.0
 10
19.9161436103
 20
19.8505213831
 30
0.0
 10
19.8354882888
 20
19.8505673607
 30
0.0
 10
19.7684307321
 20
19.850609037
 30
0.0
 10
19.7149565935
 20
19.8506453215
 30
0.0
 10
19.6750455847
 20
19.8506742671
 30
0.0
 10
19.6354066266
 20
19.8507062701
 30
0.0
 10
19.6025631892
 20
19.8507350649
 30
0.0
 10
19.5767911919
 20
19.8507650388
 30
0.0
 10
19.5607543516
 20
19.8507802254
 30
0.0
 10
19.5489607938
 20
19.8508090706
 30
0.0
 10
19.539285605
 20
19.8507994663
 30
0.0
 10
19.5360482498
 20
19.8508846591
 30
0.0
 10
19.5276463326
 20
19.8508057909
 30
0.0
 10
19.5288226396
 20
19.8508736143
 30
0.0
  0
SPLINE
  5
2BA
100
AcDbEntity
  8
0
100
AcDbSpline
 62
7
  6
BYLAYER
 70
0
 71
3
 72
12
 73
8
 74
0
 42
0.0000001
 43
0.0000001
 44
0.0000000001
 40
0.0
 40
0.0
 40
0.0
 40
0.0
 40
0.2618325771
 40
0.5272787223
 40
0.6560832496
 40
0.7791100867
 40
1.0
 40
1.0
 40
1.0
 40
1.0
 10
33.4598475328
 20
18.5686963005
 30
0.0
 10
33.4630047754
 20
18.5456847036
 30
0.0
 10
33.4665808933
 20
18.4989179977
 30
0.0
 10
33.4634116881
 20
18.4405781178
 30
0.0
 10
33.4552950126
 20
18.3953484474
 30
0.0
 10
33.4443113673
 20
18.354865496
 30
0.0
 10
33.4317875523
 20
18.3266012156
 30
0.0
 10
33.4212572304
 20
18.3100760132
 30
0.0
  0
SPLINE
  5
2BB
100
AcDbEntity
  8
0
100
AcDbSpline
 62
7
  6
BYLAYER
 70
0
 71
3
 72
11
 73
7
 74
0
 42
0.0000001
 43
0.0000001
 44
0.0000000001
 40
0.0
 40
0.0
 40
0.0
 40
0.0
 40
0.2942647482
 40
0.5527008777
 40
0.7840730302
 40
1.0
 40
1.0
 40
1.0
 40
1.0
 10
33.4212572304
 20
18.3100760132
 30
0.0
 10
33.4151284209
 20
18.300458091
 30
0.0
 10
33.4020155262
 20
18.2833045071
 30
0.0
 10
33.3783093775
 20
18.2637719226
 30
0.0
 10
33.3529531524
 20
18.2526211286
 30
0.0
 10
33.3355283484
 20
18.2502452937
 30
0.0
 10
33.3271597685
 20
18.2502452937
 30
0.0
  0
SPLINE
  5
2BC
100
AcDbEntity
  8
0
100
AcDbSpline
 62
7
  6
BYLAYER
 70
0
 71
3
 72
14
 73
10
 74
0
 42
0.0000001
 43
0.0000001
 44
0.0000000001
 40
0.0
 40
0.0
 40
0.0
 40
0.0
 40
0.2514463306
 40
0.3803689666
 40
0.5095161354
 40
0.6374403797
 40
0.7625254024
 40
0.8835264238
 40
1.0
 40
1.0
 40
1.0
 40
1.0
 10
33.6707240931
 20
18.6062160154
 30
0.0
 10
33.6757373194
 20
18.5813033987
 30
0.0
 10
33.6801049764
 20
18.5428451844
 30
0.0
 10
33.678768468
 20
18.4913041391
 30
0.0
 10
33.6735959406
 20
18.4525533862
 30
0.0
 10
33.6641952865
 20
18.4150072134
 30
0.0
 10
33.6507034203
 20
18.3795906571
 30
0.0
 10
33.6331341488
 20
18.34729817
 30
0.0
 10
33.6185595378
 20
18.3280927743
 30
0.0
 10
33.6107488212
 20
18.3192862855
 30
0.0
  0
SPLINE
  5
2BD
100
AcDbEntity
  8
0
100
AcDbSpline
 62
7
  6
BYLAYER
 70
0
 71
3
 72
9
 73
5
 74
0
 42
0.0000001
 43
0.0000001
 44
0.0000000001
 40
0.0
 40
0.0
 40
0.0
 40
0.0
 40
0.5208019967
 40
1.0
 40
1.0
 40
1.0
 40
1.0
 10
33.6107488212
 20
18.3192862855
 30
0.0
 10
33.5939925448
 20
18.3003937859
 30
0.0
 10
33.5553668048
 20
18.2689851106
 30
0.0
 10
33.5077784246
 20
18.2545823058
 30
0.0
 10
33.4847152655
 20
18.2517583051
 30
0.0
  0
SPLINE
  5
2BE
100
AcDbEntity
  8
0
100
AcDbSpline
 62
7
  6
BYLAYER
 70
0
 71
3
 72
15
 73
11
 74
0
 42
0.0000001
 43
0.0000001
 44
0.0000000001
 40
0.0
 40
0.0
 40
0.0
 40
0.0
 40
0.354496463
 40
0.5089705808
 40
0.6467053389
 40
0.76598515
 40
0.8650569081
 40
0.9066249954
 40
0.9428179187
 40
1.0
 40
1.0
 40
1.0
 40
1.0
 10
33.6707240829
 20
18.6062161069
 30
0.0
 10
33.742120323
 20
18.62323841
 30
0.0
 10
33.8425078849
 20
18.6592846925
 30
0.0
 10
33.9588670738
 20
18.7258888031
 30
0.0
 10
34.0282315999
 20
18.7756178387
 30
0.0
 10
34.0837393675
 20
18.8243271422
 30
0.0
 10
34.1198681104
 20
18.8644557358
 30
0.0
 10
34.1406610947
 20
18.8947171183
 30
0.0
 10
34.1538601904
 20
18.9192515329
 30
0.0
 10
34.1598482382
 20
18.9384059161
 30
0.0
 10
34.1598482382
 20
18.9502452937
 30
0.0
  0
SPLINE
  5
2BF
100
AcDbEntity
  8
0
100
AcDbSpline
 62
7
  6
BYLAYER
 70
0
 71
3
 72
9
 73
5
 74
0
 42
0.0000001
 43
0.0000001
 44
0.0000000001
 40
0.0
 40
0.0
 40
0.0
 40
0.0
 40
0.2603518782
 40
1.0
 40
1.0
 40
1.0
 40
1.0
 10
33.4598481076
 20
18.5686963825
 30
0.0
 10
33.4783038969
 20
18.5709474644
 30
0.0
 10
33.5490301593
 20
18.5809399544
 30
0.0
 10
33.6191167512
 20
18.5949597765
 30
0.0
 10
33.6707240829
 20
18.6062161069
 30
0.0
  0
SPLINE
  5
2C0
100
AcDbEntity
  8
0
100
AcDbSpline
 62
7
  6
BYLAYER
 70
0
 71
3
 72
9
 73
5
 74
0
 42
0.0000001
 43
0.0000001
 44
0.0000000001
 40
0.0
 40
0.0
 40
0.0
 40
0.0
 40
0.5117585765
 40
1.0
 40
1.0
 40
1.0
 40
1.0
 10
32.9598483346
 20
18.5502452934
 30
0.0
 10
33.045236413
 20
18.5502439947
 30
0.0
 10
33.2120491552
 20
18.5499226757
 30
0.0
 10
33.3789839296
 20
18.5588273061
 30
0.0
 10
33.4598481076
 20
18.5686963825
 30
0.0
  0
ELLIPSE
  5
2C1
100
AcDbEntity
  8
0
100
AcDbEllipse
 62
7
  6
BYLAYER
 10
9.1598482382
 20
19.2223199122
 30
0.0
 11
5.0
 21
-0.0
 31
0.0
 40
0.0034906727
 41
3.1415926536
 42
4.7123889804
  0
ELLIPSE
  5
2C2
100
AcDbEntity
  8
0
100
AcDbEllipse
 62
7
  6
BYLAYER
 10
32.9598482382
 20
19.2090553561
 30
0.0
 11
1.2
 21
-0.0
 31
0.0
 40
0.0034906727
 41
-1.5707963268
 42
0.0
  0
ELLIPSE
  5
2C3
100
AcDbEntity
  8
0
100
AcDbEllipse
 62
7
  6
BYLAYER
 10
9.1598482382
 20
33.2781706751
 30
0.0
 11
5.0
 21
0.0
 31
0.0
 40
0.0034906727
 41
1.5707963268
 42
3.1415926536
  0
ELLIPSE
  5
2C4
100
AcDbEntity
  8
0
100
AcDbEllipse
 62
7
  6
BYLAYER
 10
32.9598482382
 20
33.2914352313
 30
0.0
 11
1.2
 21
0.0
 31
0.0
 40
0.0034906727
 41
-0.0
 42
1.5707963268
  0
ELLIPSE
  5
2C5
100
AcDbEntity
  8
0
100
AcDbEllipse
 62
7
  6
BYLAYER
 10
33.33053436
 20
26.2502452937
 30
0.0
 11
0.0
 21
10.0
 31
0.0
 40
0.0034906727
 41
1.0758622005
 42
2.0657304531
  0
ELLIPSE
  5
2C6
100
AcDbEntity
  8
0
100
AcDbEllipse
 62
7
  6
BYLAYER
 10
5.5405144466
 20
22.7002452937
 30
0.0
 11
-0.0069815631
 21
0.7999999997
 31
0.0
 40
0.0031414834
 41
-0.0000274156
 42
1.5707689112
  0
ELLIPSE
  5
2C7
100
AcDbEntity
  8
0
100
AcDbEllipse
 62
7
  6
BYLAYER
 10
13.3598482382
 20
32.650559454
 30
0.0
 11
0.8
 21
0.0
 31
0.0
 40
0.003141603
 41
0.0
 42
1.5707963268
  0
ELLIPSE
  5
2C8
100
AcDbEntity
  8
0
100
AcDbEllipse
 62
7
  6
BYLAYER
 10
5.5405144466
 20
29.8002452937
 30
0.0
 11
0.0069815631
 21
0.7999999997
 31
0.0
 40
0.0031414834
 41
-4.7123615648
 42
-3.141565238
  0
ELLIPSE
  5
2C9
100
AcDbEntity
  8
0
100
AcDbEllipse
 62
7
  6
BYLAYER
 10
32.7791820298
 20
29.8002452937
 30
0.0
 11
-0.0069815631
 21
0.7999999997
 31
0.0
 40
0.0031414834
 41
-3.1416200692
 42
-1.5708237424
  0
ELLIPSE
  5
2CA
100
AcDbEntity
  8
0
100
AcDbEllipse
 62
7
  6
BYLAYER
 10
24.9598482382
 20
32.650559454
 30
0.0
 11
0.8
 21
0.0
 31
0.0
 40
0.003141603
 41
1.5707963268
 42
3.1415926536
  0
ELLIPSE
  5
2CB
100
AcDbEntity
  8
0
100
AcDbEllipse
 62
7
  6
BYLAYER
 10
13.3598482382
 20
19.8499311334
 30
0.0
 11
0.8
 21
-0.0
 31
0.0
 40
0.003141603
 41
-1.5707963268
 42
-0.0
  0
ELLIPSE
  5
2CC
100
AcDbEntity
  8
0
100
AcDbEllipse
 62
7
  6
BYLAYER
 10
32.7791820298
 20
22.7002452937
 30
0.0
 11
0.0069815631
 21
0.7999999997
 31
0.0
 40
0.0031414834
 41
-1.5707689112
 42
0.0000274156
  0
ELLIPSE
  5
2CD
100
AcDbEntity
  8
0
100
AcDbEllipse
 62
7
  6
BYLAYER
 10
24.9598482382
 20
19.8499311334
 30
0.0
 11
0.8
 21
-0.0
 31
0.0
 40
0.003141603
 41
3.1415926536
 42
4.7123889804
  0
ENDSEC
  0
SECTION
  2
OBJECTS
  0
DICTIONARY
  5
C
100
AcDbDictionary
280
0
281
1
  3
ACAD_GROUP
350
D
  3
ACAD_MLINESTYLE
350
17
  3
ACAD_LAYOUT
350
1A
  3
ACAD_PLOTSETTINGS
350
19
  3
ACAD_PLOTSTYLENAME
350
E
  0
DICTIONARY
  5
D
102
{ACAD_REACTORS
330
C
102
}
100
AcDbDictionary
280
0
281
1
  0
ACDBDICTIONARYWDFLT
  5
E
102
{ACAD_REACTORS
330
C
102
}
100
AcDbDictionary
281
1
  3
Normal
350
F
100
AcDbDictionaryWithDefault
340
F
  0
DICTIONARY
  5
17
102
{ACAD_REACTORS
330
C
102
}
100
AcDbDictionary
280
0
281
1
  3
Standard
350
18
  0
DICTIONARY
  5
19
102
{ACAD_REACTORS
330
C
102
}
100
AcDbDictionary
281
1
  0
DICTIONARY
  5
1A
102
{ACAD_REACTORS
330
C
102
}
100
AcDbDictionary
281
1
  3
Model
350
2CE
  3
Layout1
350
2CF
  0
ACDBPLACEHOLDER
  5
F
102
{ACAD_REACTORS
330
E
102
}
  0
MLINESTYLE
  5
18
102
{ACAD_REACTORS
330
17
102
}
100
AcDbMlineStyle
  2
STANDARD
 70
0
  3

 62
256
 51
90.0
 52
90.0
 71
2
 49
0.5
 62
256
  6
BYLAYER
 49
-0.5
 62
256
  6
BYLAYER
  0
LAYOUT
  5
2CE
102
{ACAD_REACTORS
330
1A
102
}
100
AcDbPlotSettings
  1

  2
none_device
  4

  6

 40
0.0
 41
0.0
 42
0.0
 43
0.0
 44
210.0
 45
297.0
 46
0.0
 47
0.0
 48
0.0
 49
0.0
140
0.0
141
0.0
142
1.0
143
1.0
 70
1024
 72
1
 73
0
 74
0
  7

 75
0
147
1.0
148
0.0
149
0.0
100
AcDbLayout
  1
Model
 70
0
 71
0
 10
0.0
 20
0.0
 11
210.0
 21
297.0
 12
0.0
 22
0.0
 32
0.0
 14
0.0
 24
0.0
 34
0.0
 15
0.0
 25
0.0
 35
0.0
146
0.0
 13
0.0
 23
0.0
 33
0.0
 16
1.0
 26
0.0
 36
0.0
 17
0.0
 27
1.0
 37
0.0
 76
0
330
210
345
0
346
0
  0
LAYOUT
  5
2CF
102
{ACAD_REACTORS
330
1A
102
}
100
AcDbPlotSettings
  1

  2
none_device
  4

  6

 40
0.0
 41
0.0
 42
0.0
 43
0.0
 44
210.0
 45
297.0
 46
0.0
 47
0.0
 48
0.0
 49
0.0
140
0.0
141
0.0
142
1.0
143
1.0
 70
0
 72
1
 73
0
 74
0
  7

 75
0
147
1.0
148
0.0
149
0.0
100
AcDbLayout
  1
Layout1
 70
0
 71
1
 10
0.0
 20
0.0
 11
210.0
 21
297.0
 12
0.0
 22
0.0
 32
0.0
 14
0.0
 24
0.0
 34
0.0
 15
0.0
 25
0.0
 35
0.0
146
0.0
 13
0.0
 23
0.0
 33
0.0
 16
1.0
 26
0.0
 36
0.0
 17
0.0
 27
1.0
 37
0.0
 76
0
330
211
345
0
346
0
  0
ENDSEC
  0
EOF
