999
DXF file: C:\Users\sesa63760\Dev\_Creo\CAD\MCADID0004803_3D-CAD\drw0001_1.dxf
999
Pro/ENGINEER 2019471 by Parametric Technology Corporation
  0
SECTION
  2
HEADER
  9
$ACADVER
  1
AC1024
  9
$DWGCODEPAGE
  3
ANSI_1252
  9
$EXTMAX
 10
67.8154134417
 20
95.910370439
 30
0.0
  9
$EXTMIN
 10
0.0
 20
0.0
 30
0.0
  9
$LIMMIN
 10
0.0
 20
0.0
  9
$LIMMAX
 10
67.8154134417
 20
95.910370439
  9
$VIEWCTR
 10
33.9077067208
 20
47.9551852195
  9
$VIEWSIZE
 40
95.910370439
  9
$CLAYER
  8
0
  9
$LTSCALE
 40
6.2519352582
  9
$CELTYPE
  6
BYLAYER
  9
$DIMSCALE
 40
1.0
  9
$DIMASZ
 40
0.8073263505
  9
$DIMEXO
 40
1.0
  9
$DIMDLI
 40
4.3195189057
  9
$DIMEXE
 40
1.0
  9
$DIMCEN
 40
1.0230439513
  9
$DIMLFAC
 40
1.0
  9
$DIMBLK
  1
_FILLED
  9
$DIMALT
 70
0
  9
$DIMALTF
 40
0.0393700787
  9
$DIMTXT
 40
1.1302568907
  9
$DIMTOL
 70
1
  9
$DIMLIM
 70
0
  9
$DIMTFAC
 40
1.0
  9
$DIMTP
 40
0.01
  9
$DIMTM
 40
0.01
  9
$DIMGAP
 40
0.625
  9
$DIMDSEP
 70
46
  9
$AUNITS
 70
0
  9
$PDMODE
 70
3
  9
$PDSIZE
 40
0.3125
  9
$HANDSEED
  5
51F
  9
$TILEMODE
 70
1
  9
$MEASUREMENT
 70
1
  9
$INSUNITS
 70
4
  0
ENDSEC
  0
SECTION
  2
CLASSES
  0
CLASS
  1
ACDBDICTIONARYWDFLT
  2
AcDbDictionaryWithDefault
  3
AutoCAD 2000
 90
0
 91
1
280
0
281
0
  0
CLASS
  1
ACDBPLACEHOLDER
  2
AcDbPlaceHolder
  3
AutoCAD 2000
 90
0
 91
1
280
0
281
0
  0
CLASS
  1
LAYOUT
  2
AcDbLayout
  3
AutoCAD 2000
 90
0
 91
0
280
0
281
0
  0
ENDSEC
  0
SECTION
  2
TABLES
  0
TABLE
  2
VPORT
  5
8
100
AcDbSymbolTable
 70
2
  0
VPORT
  5
1F4
100
AcDbSymbolTableRecord
100
AcDbViewportTableRecord
  2
*ACTIVE
 70
0
 10
0.0
 20
0.0
 11
1.0
 21
1.0
 12
33.9077067208
 22
47.9551852195
 13
0.0
 23
0.0
 14
1.0
 24
1.0
 15
0.0
 25
0.0
 16
0.0
 26
0.0
 36
1.0
 17
0.0
 27
0.0
 37
0.0
 40
95.910370439
 41
0.7070707071
 42
50.0
 43
0.0
 44
0.0
 50
0.0
 51
0.0
 71
0
 72
100
 73
1
 74
1
 75
0
 76
0
 77
0
 78
0
  0
ENDTAB
  0
TABLE
  2
LTYPE
  5
5
100
AcDbSymbolTable
 70
6
  0
LTYPE
  5
14
100
AcDbSymbolTableRecord
100
AcDbLinetypeTableRecord
  2
BYBLOCK
 70
0
  3

 72
65
 73
0
 40
0.0
  0
LTYPE
  5
15
100
AcDbSymbolTableRecord
100
AcDbLinetypeTableRecord
  2
BYLAYER
 70
0
  3

 72
65
 73
0
 40
0.0
  0
LTYPE
  5
16
100
AcDbSymbolTableRecord
100
AcDbLinetypeTableRecord
  2
CONTINUOUS
 70
64
  3
Solid line
 72
65
 73
0
 40
0.0
  0
LTYPE
  5
1F5
100
AcDbSymbolTableRecord
100
AcDbLinetypeTableRecord
  2
CENTER
 70
64
  3
____ _ ____ _ ____ _ ____ _ ____ _ ____ _ ____
 72
65
 73
4
 40
0.6
 49
0.375
 74
0
 49
-0.075
 74
0
 49
0.075
 74
0
 49
-0.075
 74
0
  0
LTYPE
  5
1F6
100
AcDbSymbolTableRecord
100
AcDbLinetypeTableRecord
  2
HIDDEN
 70
64
  3
- - - - - - - - - - - - - - - - - - - -
 72
65
 73
2
 40
0.2
 49
0.1
 74
0
 49
-0.1
 74
0
  0
LTYPE
  5
1F7
100
AcDbSymbolTableRecord
100
AcDbLinetypeTableRecord
  2
PHANTOM
 70
64
  3
_____ _ _ _____ _ _ _____ _ _ _____
 72
65
 73
6
 40
0.8
 49
0.45
 74
0
 49
-0.05
 74
0
 49
0.1
 74
0
 49
-0.05
 74
0
 49
0.1
 74
0
 49
-0.05
 74
0
  0
LTYPE
  5
1F8
100
AcDbSymbolTableRecord
100
AcDbLinetypeTableRecord
  2
DOT
 70
64
  3
. . . . . . . . . . . . . . . . . . . .
 72
65
 73
2
 40
0.2
 49
0.1
 74
0
 49
-0.1
 74
0
  0
LTYPE
  5
1F9
100
AcDbSymbolTableRecord
100
AcDbLinetypeTableRecord
  2
DASHED
 70
64
  3
- - - - - - - - - - - - - - - - - - - -
 72
65
 73
2
 40
0.2
 49
0.1
 74
0
 49
-0.1
 74
0
  0
ENDTAB
  0
TABLE
  2
LAYER
  5
2
100
AcDbSymbolTable
 70
36
  0
LAYER
  5
10
100
AcDbSymbolTableRecord
100
AcDbLayerTableRecord
  2
0
 70
0
 62
7
  6
CONTINUOUS
370
-3
390
F
  0
LAYER
  5
1FA
100
AcDbSymbolTableRecord
100
AcDbLayerTableRecord
  2
DEFAULT_1
 70
0
 62
7
  6
CENTER
370
-3
390
F
  0
LAYER
  5
1FB
100
AcDbSymbolTableRecord
100
AcDbLayerTableRecord
  2
DEFAULT_2
 70
0
 62
7
  6
HIDDEN
370
-3
390
F
  0
LAYER
  5
1FC
100
AcDbSymbolTableRecord
100
AcDbLayerTableRecord
  2
DEFAULT_3
 70
0
 62
7
  6
PHANTOM
370
-3
390
F
  0
LAYER
  5
1FD
100
AcDbSymbolTableRecord
100
AcDbLayerTableRecord
  2
00_COMPONENTS
 70
0
 62
7
  6
CONTINUOUS
370
-3
390
F
  0
LAYER
  5
1FE
100
AcDbSymbolTableRecord
100
AcDbLayerTableRecord
  2
01_1_DEFAULT_DATUMS
 70
0
 62
7
  6
CONTINUOUS
370
-3
390
F
  0
LAYER
  5
1FF
100
AcDbSymbolTableRecord
100
AcDbLayerTableRecord
  2
01_PLANES
 70
0
 62
7
  6
CONTINUOUS
370
-3
390
F
  0
LAYER
  5
200
100
AcDbSymbolTableRecord
100
AcDbLayerTableRecord
  2
02_COORD_SYS
 70
0
 62
7
  6
CONTINUOUS
370
-3
390
F
  0
LAYER
  5
201
100
AcDbSymbolTableRecord
100
AcDbLayerTableRecord
  2
03_AXES
 70
0
 62
7
  6
CONTINUOUS
370
-3
390
F
  0
LAYER
  5
202
100
AcDbSymbolTableRecord
100
AcDbLayerTableRecord
  2
04_POINTS
 70
0
 62
7
  6
CONTINUOUS
370
-3
390
F
  0
LAYER
  5
203
100
AcDbSymbolTableRecord
100
AcDbLayerTableRecord
  2
05_CURVES
 70
0
 62
7
  6
CONTINUOUS
370
-3
390
F
  0
LAYER
  5
204
100
AcDbSymbolTableRecord
100
AcDbLayerTableRecord
  2
06_SURFS
 70
0
 62
7
  6
CONTINUOUS
370
-3
390
F
  0
LAYER
  5
205
100
AcDbSymbolTableRecord
100
AcDbLayerTableRecord
  2
07_COSMETICS
 70
0
 62
7
  6
CONTINUOUS
370
-3
390
F
  0
LAYER
  5
206
100
AcDbSymbolTableRecord
100
AcDbLayerTableRecord
  2
10_NOTES
 70
0
 62
7
  6
CONTINUOUS
370
-3
390
F
  0
LAYER
  5
207
100
AcDbSymbolTableRecord
100
AcDbLayerTableRecord
  2
11_NOTES_PUB
 70
0
 62
7
  6
CONTINUOUS
370
-3
390
F
  0
LAYER
  5
208
100
AcDbSymbolTableRecord
100
AcDbLayerTableRecord
  2
13_REF_GTOL
 70
0
 62
7
  6
CONTINUOUS
370
-3
390
F
  0
LAYER
  5
209
100
AcDbSymbolTableRecord
100
AcDbLayerTableRecord
  2
16_MISC
 70
0
 62
7
  6
CONTINUOUS
370
-3
390
F
  0
LAYER
  5
20A
100
AcDbSymbolTableRecord
100
AcDbLayerTableRecord
  2
17_NO_PRINT
 70
0
 62
7
  6
CONTINUOUS
370
-3
390
F
  0
LAYER
  5
20B
100
AcDbSymbolTableRecord
100
AcDbLayerTableRecord
  2
18_DATUM_CAMS_JOINTS
 70
0
 62
7
  6
CONTINUOUS
370
-3
390
F
  0
LAYER
  5
20C
100
AcDbSymbolTableRecord
100
AcDbLayerTableRecord
  2
19_DATUM_FUNCTIONAL
 70
0
 62
7
  6
CONTINUOUS
370
-3
390
F
  0
LAYER
  5
20D
100
AcDbSymbolTableRecord
100
AcDbLayerTableRecord
  2
20_DATUM_KINEMATIC_SCHEME
 70
0
 62
7
  6
CONTINUOUS
370
-3
390
F
  0
ENDTAB
  0
TABLE
  2
STYLE
  5
3
100
AcDbSymbolTable
 70
1
  0
STYLE
  5
11
100
AcDbSymbolTableRecord
100
AcDbTextStyleTableRecord
  2
STANDARD
 70
0
 40
0.0
 41
1.0
 50
0.0
 71
0
 42
0.2
  3
ARIAL.TTF
  4

  0
STYLE
  5
20E
100
AcDbSymbolTableRecord
100
AcDbTextStyleTableRecord
  2
TEXTSTYLE_1
 70
0
 40
0.0
 41
0.8
 50
0.0
 71
0
 42
0.2
  3
gdt
  4

  0
ENDTAB
  0
TABLE
  2
VIEW
  5
6
100
AcDbSymbolTable
 70
0
  0
ENDTAB
  0
TABLE
  2
UCS
  5
7
100
AcDbSymbolTable
 70
0
  0
ENDTAB
  0
TABLE
  2
APPID
  5
9
100
AcDbSymbolTable
 70
1
  0
APPID
  5
20F
100
AcDbSymbolTableRecord
100
AcDbRegAppTableRecord
  2
ACAD
 70
0
  0
ENDTAB
  0
TABLE
  2
BLOCK_RECORD
  5
1
100
AcDbSymbolTable
 70
0
  0
BLOCK_RECORD
  5
210
100
AcDbSymbolTableRecord
100
AcDbBlockTableRecord
  2
*Model_Space
  0
BLOCK_RECORD
  5
211
100
AcDbSymbolTableRecord
100
AcDbBlockTableRecord
  2
*Paper_Space
  0
BLOCK_RECORD
  5
212
100
AcDbSymbolTableRecord
100
AcDbBlockTableRecord
  2
_FILLED
  0
ENDTAB
  0
TABLE
  2
DIMSTYLE
  5
A
100
AcDbSymbolTable
 70
1
100
AcDbDimStyleTable
 71
0
  0
DIMSTYLE
105
213
100
AcDbSymbolTableRecord
100
AcDbDimStyleTableRecord
  2
STANDARD
 70
0
  3

  4

 40
1.0
 41
0.8073263505
 42
1.0
 43
0.38
 44
1.0
 45
0.0
 46
0.0
 47
0.01
 48
0.01
140
1.1302568907
141
0.09
142
0.0
143
25.4
144
1.0
145
0.0
146
1.0
147
0.625
 71
1
 72
0
 73
0
 74
0
 75
0
 76
0
 77
1
 78
8
 79
2
170
0
171
1
172
0
173
0
174
0
175
0
176
0
177
0
178
0
270
2
179
2
271
2
272
2
273
2
274
2
275
0
280
0
281
0
282
0
283
1
284
8
285
0
286
0
287
3
288
0
340
11
278
46
341
212
342
212
343
212
344
212
  0
ENDTAB
  0
ENDSEC
  0
SECTION
  2
BLOCKS
  0
BLOCK
  5
20
100
AcDbEntity
  8
0
100
AcDbBlockBegin
  2
*Model_Space
 70
0
 10
0.0
 20
0.0
 30
0.0
  3
*Model_Space
  1

  0
ENDBLK
  5
21
100
AcDbEntity
  8
0
100
AcDbBlockEnd
  0
BLOCK
  5
1C
100
AcDbEntity
  8
0
100
AcDbBlockBegin
  2
*Paper_Space
 70
0
 10
0.0
 20
0.0
 30
0.0
  3
*Paper_Space
  1

  0
ENDBLK
  5
1D
100
AcDbEntity
  8
0
100
AcDbBlockEnd
  0
BLOCK
  5
214
100
AcDbEntity
  8
0
100
AcDbBlockBegin
  2
_FILLED
 70
64
 10
0.0
 20
0.0
  3
_FILLED
  1

  0
SOLID
  5
215
100
AcDbEntity
  8
0
  6
BYBLOCK
 62
0
100
AcDbTrace
 10
0.0
 20
0.0
 11
-1.0
 21
0.25
 12
-1.0
 22
-0.25
 13
-1.0
 23
-0.25
  0
ENDBLK
  5
216
100
AcDbEntity
  8
0
  6
BYBLOCK
 62
0
100
AcDbBlockEnd
  0
ENDSEC
  0
SECTION
  2
ENTITIES
  0
LINE
  5
217
100
AcDbEntity
  8
0
100
AcDbLine
 62
7
  6
BYLAYER
 10
26.8793572555
 20
86.0525128911
 11
30.7684283602
 21
88.2978557374
  0
LINE
  5
218
100
AcDbEntity
  8
0
100
AcDbLine
 62
7
  6
BYLAYER
 10
39.6394872862
 20
7.5439374725
 11
39.542149531
 21
7.6001341803
  0
LINE
  5
219
100
AcDbEntity
  8
0
100
AcDbLine
 62
7
  6
BYLAYER
 10
32.9088723335
 20
11.4297719179
 11
32.8115345783
 21
11.4859686257
  0
LINE
  5
21A
100
AcDbEntity
  8
0
100
AcDbLine
 62
7
  6
BYLAYER
 10
30.2150782685
 20
68.0989126188
 11
29.9372460488
 21
67.9385015257
  0
LINE
  5
21B
100
AcDbEntity
  8
0
100
AcDbLine
 62
7
  6
BYLAYER
 10
30.1400779562
 20
67.2407756692
 11
29.9365237182
 21
67.123250215
  0
LINE
  5
21C
100
AcDbEntity
  8
0
100
AcDbLine
 62
7
  6
BYLAYER
 10
30.1400779562
 20
66.4242732521
 11
29.9365237182
 21
66.3067477978
  0
LINE
  5
21D
100
AcDbEntity
  8
0
100
AcDbLine
 62
7
  6
BYLAYER
 10
36.3793147252
 20
69.5980056644
 11
40.2683858298
 21
71.8433485107
  0
LINE
  5
21E
100
AcDbEntity
  8
0
100
AcDbLine
 62
7
  6
BYLAYER
 10
30.1400779562
 20
65.607770835
 11
29.9365237182
 21
65.4902453807
  0
LINE
  5
21F
100
AcDbEntity
  8
0
100
AcDbLine
 62
7
  6
BYLAYER
 10
32.6015735908
 20
66.3128488637
 11
34.0157812653
 21
67.1293371714
  0
LINE
  5
220
100
AcDbEntity
  8
0
100
AcDbLine
 62
7
  6
BYLAYER
 10
30.1400779562
 20
64.7912684178
 11
29.9365237182
 21
64.6737429636
  0
LINE
  5
221
100
AcDbEntity
  8
0
100
AcDbLine
 62
7
  6
BYLAYER
 10
29.9358013875
 20
22.8584963214
 11
30.2150782685
 21
22.3747772595
  0
LINE
  5
222
100
AcDbEntity
  8
0
100
AcDbLine
 62
7
  6
BYLAYER
 10
30.1400779562
 20
63.9747660007
 11
29.9365237182
 21
63.8572405464
  0
LINE
  5
223
100
AcDbEntity
  8
0
100
AcDbLine
 62
7
  6
BYLAYER
 10
30.1400779562
 20
63.1582635836
 11
29.9365237182
 21
63.0407381293
  0
LINE
  5
224
100
AcDbEntity
  8
0
100
AcDbLine
 62
7
  6
BYLAYER
 10
30.1400779562
 20
62.3417611664
 11
29.9365237182
 21
62.2242357122
  0
LINE
  5
225
100
AcDbEntity
  8
0
100
AcDbLine
 62
7
  6
BYLAYER
 10
30.1400779562
 20
61.5252587493
 11
29.9365237182
 21
61.4077332951
  0
LINE
  5
226
100
AcDbEntity
  8
0
100
AcDbLine
 62
7
  6
BYLAYER
 10
29.9365237182
 20
23.6754157883
 11
30.1400779562
 21
23.322851463
  0
LINE
  5
227
100
AcDbEntity
  8
0
100
AcDbLine
 62
7
  6
BYLAYER
 10
29.9365237182
 20
24.4919182054
 11
30.1400779562
 21
24.1393538802
  0
LINE
  5
228
100
AcDbEntity
  8
0
100
AcDbLine
 62
7
  6
BYLAYER
 10
29.9365237182
 20
25.3084206225
 11
30.1400779562
 21
24.9558562973
  0
LINE
  5
229
100
AcDbEntity
  8
0
100
AcDbLine
 62
7
  6
BYLAYER
 10
29.9365237182
 20
26.1249230397
 11
30.1400779562
 21
25.7723587144
  0
LINE
  5
22A
100
AcDbEntity
  8
0
100
AcDbLine
 62
7
  6
BYLAYER
 10
29.9365237182
 20
26.9414254568
 11
30.1400779562
 21
26.5888611315
  0
LINE
  5
22B
100
AcDbEntity
  8
0
100
AcDbLine
 62
7
  6
BYLAYER
 10
29.9365237182
 20
27.7579278739
 11
30.1400779562
 21
27.4053635487
  0
LINE
  5
22C
100
AcDbEntity
  8
0
100
AcDbLine
 62
7
  6
BYLAYER
 10
29.9365237182
 20
28.5744302911
 11
30.1400779562
 21
28.2218659658
  0
LINE
  5
22D
100
AcDbEntity
  8
0
100
AcDbLine
 62
7
  6
BYLAYER
 10
30.1400779562
 20
60.7087563322
 11
29.9365237182
 21
60.5912308779
  0
LINE
  5
22E
100
AcDbEntity
  8
0
100
AcDbLine
 62
7
  6
BYLAYER
 10
30.1400779562
 20
59.8922539151
 11
29.9365237182
 21
59.7747284608
  0
LINE
  5
22F
100
AcDbEntity
  8
0
100
AcDbLine
 62
7
  6
BYLAYER
 10
30.1400779562
 20
59.0757514979
 11
29.9365237182
 21
58.9582260437
  0
LINE
  5
230
100
AcDbEntity
  8
0
100
AcDbLine
 62
7
  6
BYLAYER
 10
30.1400779562
 20
58.2592490808
 11
29.9365237182
 21
58.1417236265
  0
LINE
  5
231
100
AcDbEntity
  8
0
100
AcDbLine
 62
7
  6
BYLAYER
 10
29.9365237182
 20
29.3909327082
 11
30.1400779562
 21
29.0383683829
  0
LINE
  5
232
100
AcDbEntity
  8
0
100
AcDbLine
 62
7
  6
BYLAYER
 10
29.9365237182
 20
30.2074351253
 11
30.1400779562
 21
29.8548708001
  0
LINE
  5
233
100
AcDbEntity
  8
0
100
AcDbLine
 62
7
  6
BYLAYER
 10
29.9365237182
 20
31.0239375424
 11
30.1400779562
 21
30.6713732172
  0
LINE
  5
234
100
AcDbEntity
  8
0
100
AcDbLine
 62
7
  6
BYLAYER
 10
29.9365237182
 20
31.8404399596
 11
30.1400779562
 21
31.4878756343
  0
LINE
  5
235
100
AcDbEntity
  8
0
100
AcDbLine
 62
7
  6
BYLAYER
 10
29.9365237182
 20
32.6569423767
 11
30.1400779562
 21
32.3043780514
  0
LINE
  5
236
100
AcDbEntity
  8
0
100
AcDbLine
 62
7
  6
BYLAYER
 10
29.9365237182
 20
33.4734447938
 11
30.1400779562
 21
33.1208804686
  0
LINE
  5
237
100
AcDbEntity
  8
0
100
AcDbLine
 62
7
  6
BYLAYER
 10
29.9365237182
 20
34.289947211
 11
30.1400779562
 21
33.9373828857
  0
LINE
  5
238
100
AcDbEntity
  8
0
100
AcDbLine
 62
7
  6
BYLAYER
 10
30.1400779562
 20
57.4427466637
 11
29.9365237182
 21
57.3252212094
  0
LINE
  5
239
100
AcDbEntity
  8
0
100
AcDbLine
 62
7
  6
BYLAYER
 10
30.1400779562
 20
56.6262442465
 11
29.9365237182
 21
56.5087187923
  0
LINE
  5
23A
100
AcDbEntity
  8
0
100
AcDbLine
 62
7
  6
BYLAYER
 10
30.1400779562
 20
55.8097418294
 11
29.9365237182
 21
55.6922163751
  0
LINE
  5
23B
100
AcDbEntity
  8
0
100
AcDbLine
 62
7
  6
BYLAYER
 10
30.1400779562
 20
54.9932394123
 11
29.9365237182
 21
54.875713958
  0
LINE
  5
23C
100
AcDbEntity
  8
0
100
AcDbLine
 62
7
  6
BYLAYER
 10
29.9365237182
 20
35.1064496281
 11
30.1400779562
 21
34.7538853028
  0
LINE
  5
23D
100
AcDbEntity
  8
0
100
AcDbLine
 62
7
  6
BYLAYER
 10
29.9365237182
 20
35.9229520452
 11
30.1400779562
 21
35.57038772
  0
LINE
  5
23E
100
AcDbEntity
  8
0
100
AcDbLine
 62
7
  6
BYLAYER
 10
29.9365237182
 20
36.7394544624
 11
30.1400779562
 21
36.3868901371
  0
LINE
  5
23F
100
AcDbEntity
  8
0
100
AcDbLine
 62
7
  6
BYLAYER
 10
42.5152204769
 20
15.7691359439
 11
42.3109439082
 21
16.1229513756
  0
LINE
  5
240
100
AcDbEntity
  8
0
100
AcDbLine
 62
7
  6
BYLAYER
 10
29.9365237182
 20
37.5559568795
 11
30.1400779562
 21
37.2033925542
  0
LINE
  5
241
100
AcDbEntity
  8
0
100
AcDbLine
 62
7
  6
BYLAYER
 10
42.5144981463
 20
16.5868894675
 11
42.3109439082
 21
16.9394537927
  0
LINE
  5
242
100
AcDbEntity
  8
0
100
AcDbLine
 62
7
  6
BYLAYER
 10
29.9365237182
 20
38.3724592966
 11
30.1400779562
 21
38.0198949714
  0
LINE
  5
243
100
AcDbEntity
  8
0
100
AcDbLine
 62
7
  6
BYLAYER
 10
42.5144981463
 20
17.4033918846
 11
42.3109439082
 21
17.7559562099
  0
LINE
  5
244
100
AcDbEntity
  8
0
100
AcDbLine
 62
7
  6
BYLAYER
 10
29.9365237182
 20
39.1889617137
 11
30.1400779562
 21
38.8363973885
  0
LINE
  5
245
100
AcDbEntity
  8
0
100
AcDbLine
 62
7
  6
BYLAYER
 10
30.2150782685
 20
21.1720302795
 11
31.7823762618
 21
13.0085989218
  0
LINE
  5
246
100
AcDbEntity
  8
0
100
AcDbLine
 62
7
  6
BYLAYER
 10
30.6619669157
 20
70.7674252804
 11
30.2150782685
 21
68.0989126188
  0
LINE
  5
247
100
AcDbEntity
  8
0
100
AcDbLine
 62
7
  6
BYLAYER
 10
30.1400779562
 20
54.1767369951
 11
29.9365237182
 21
54.0592115409
  0
LINE
  5
248
100
AcDbEntity
  8
0
100
AcDbLine
 62
7
  6
BYLAYER
 10
43.6501512704
 20
61.9753080997
 11
42.235943596
 21
61.1588197919
  0
LINE
  5
249
100
AcDbEntity
  8
0
100
AcDbLine
 62
7
  6
BYLAYER
 10
43.9279834901
 20
61.4940912505
 11
42.5137758157
 21
60.6776029428
  0
LINE
  5
24A
100
AcDbEntity
  8
0
100
AcDbLine
 62
7
  6
BYLAYER
 10
30.1400779562
 20
53.360234578
 11
29.9365237182
 21
53.2427091237
  0
LINE
  5
24B
100
AcDbEntity
  8
0
100
AcDbLine
 62
7
  6
BYLAYER
 10
42.3109439082
 20
60.3872882194
 11
43.9279834901
 21
61.3208849317
  0
LINE
  5
24C
100
AcDbEntity
  8
0
100
AcDbLine
 62
7
  6
BYLAYER
 10
42.3109439082
 20
60.2140819006
 11
43.7251515827
 21
61.0305702084
  0
LINE
  5
24D
100
AcDbEntity
  8
0
100
AcDbLine
 62
7
  6
BYLAYER
 10
43.9287058207
 20
60.6780058831
 11
42.5144981463
 21
59.8615175754
  0
LINE
  5
24E
100
AcDbEntity
  8
0
100
AcDbLine
 62
7
  6
BYLAYER
 10
30.1400779562
 20
52.5437321609
 11
29.9365237182
 21
52.4262067066
  0
LINE
  5
24F
100
AcDbEntity
  8
0
100
AcDbLine
 62
7
  6
BYLAYER
 10
42.3109439082
 20
59.5707858023
 11
43.9287058207
 21
60.5047995643
  0
LINE
  5
250
100
AcDbEntity
  8
0
100
AcDbLine
 62
7
  6
BYLAYER
 10
42.3109439082
 20
59.3975794835
 11
43.7251515827
 21
60.2140677912
  0
LINE
  5
251
100
AcDbEntity
  8
0
100
AcDbLine
 62
7
  6
BYLAYER
 10
43.9287058207
 20
59.861503466
 11
42.5144981463
 21
59.0450151582
  0
LINE
  5
252
100
AcDbEntity
  8
0
100
AcDbLine
 62
7
  6
BYLAYER
 10
30.1400779562
 20
51.7272297438
 11
29.9365237182
 21
51.6097042895
  0
LINE
  5
253
100
AcDbEntity
  8
0
100
AcDbLine
 62
7
  6
BYLAYER
 10
42.3109439082
 20
58.7542833852
 11
43.9287058207
 21
59.6882971472
  0
LINE
  5
254
100
AcDbEntity
  8
0
100
AcDbLine
 62
7
  6
BYLAYER
 10
42.5144981463
 20
18.2198943017
 11
42.3109439082
 21
18.572458627
  0
LINE
  5
255
100
AcDbEntity
  8
0
100
AcDbLine
 62
7
  6
BYLAYER
 10
29.9365237182
 20
40.0054641309
 11
30.1400779562
 21
39.6528998056
  0
LINE
  5
256
100
AcDbEntity
  8
0
100
AcDbLine
 62
7
  6
BYLAYER
 10
43.7251515827
 20
16.9394396834
 11
43.9294281514
 21
16.5856242517
  0
LINE
  5
257
100
AcDbEntity
  8
0
100
AcDbLine
 62
7
  6
BYLAYER
 10
42.5144981463
 20
19.0363967189
 11
42.3109439082
 21
19.3889610441
  0
LINE
  5
258
100
AcDbEntity
  8
0
100
AcDbLine
 62
7
  6
BYLAYER
 10
29.9365237182
 20
40.821966548
 11
30.1400779562
 21
40.4694022227
  0
LINE
  5
259
100
AcDbEntity
  8
0
100
AcDbLine
 62
7
  6
BYLAYER
 10
43.7251515827
 20
17.7559421005
 11
43.9287058207
 21
17.4033777752
  0
LINE
  5
25A
100
AcDbEntity
  8
0
100
AcDbLine
 62
7
  6
BYLAYER
 10
42.5144981463
 20
19.852899136
 11
42.3109439082
 21
20.2054634613
  0
LINE
  5
25B
100
AcDbEntity
  8
0
100
AcDbLine
 62
7
  6
BYLAYER
 10
29.9365237182
 20
41.6384689651
 11
30.1400779562
 21
41.2859046399
  0
LINE
  5
25C
100
AcDbEntity
  8
0
100
AcDbLine
 62
7
  6
BYLAYER
 10
43.7251515827
 20
18.5724445176
 11
43.9287058207
 21
18.2198801924
  0
LINE
  5
25D
100
AcDbEntity
  8
0
100
AcDbLine
 62
7
  6
BYLAYER
 10
42.5144981463
 20
20.6694015531
 11
42.3109439082
 21
21.0219658784
  0
LINE
  5
25E
100
AcDbEntity
  8
0
100
AcDbLine
 62
7
  6
BYLAYER
 10
29.9365237182
 20
42.4549713823
 11
30.1400779562
 21
42.102407057
  0
LINE
  5
25F
100
AcDbEntity
  8
0
100
AcDbLine
 62
7
  6
BYLAYER
 10
43.7251515827
 20
19.3889469348
 11
43.9287058207
 21
19.0363826095
  0
LINE
  5
260
100
AcDbEntity
  8
0
100
AcDbLine
 62
7
  6
BYLAYER
 10
42.5144981463
 20
21.4859039703
 11
42.3109439082
 21
21.8384682955
  0
LINE
  5
261
100
AcDbEntity
  8
0
100
AcDbLine
 62
7
  6
BYLAYER
 10
29.9365237182
 20
43.2714737994
 11
30.1400779562
 21
42.9189094741
  0
LINE
  5
262
100
AcDbEntity
  8
0
100
AcDbLine
 62
7
  6
BYLAYER
 10
43.7251515827
 20
20.2054493519
 11
43.9287058207
 21
19.8528850266
  0
LINE
  5
263
100
AcDbEntity
  8
0
100
AcDbLine
 62
7
  6
BYLAYER
 10
42.5144981463
 20
22.3024063874
 11
42.3109439082
 21
22.6549707127
  0
LINE
  5
264
100
AcDbEntity
  8
0
100
AcDbLine
 62
7
  6
BYLAYER
 10
29.9365237182
 20
44.0879762165
 11
30.1400779562
 21
43.7354118913
  0
LINE
  5
265
100
AcDbEntity
  8
0
100
AcDbLine
 62
7
  6
BYLAYER
 10
43.7251515827
 20
21.021951769
 11
43.9287058207
 21
20.6693874438
  0
LINE
  5
266
100
AcDbEntity
  8
0
100
AcDbLine
 62
7
  6
BYLAYER
 10
29.9365237182
 20
44.9044786336
 11
30.1400779562
 21
44.5519143084
  0
LINE
  5
267
100
AcDbEntity
  8
0
100
AcDbLine
 62
7
  6
BYLAYER
 10
42.5144981463
 20
23.1189088045
 11
42.3109439082
 21
23.4714731298
  0
LINE
  5
268
100
AcDbEntity
  8
0
100
AcDbLine
 62
7
  6
BYLAYER
 10
30.2150782685
 20
21.1720302795
 11
30.2150782685
 21
22.3747772595
  0
LINE
  5
269
100
AcDbEntity
  8
0
100
AcDbLine
 62
7
  6
BYLAYER
 10
42.3109439082
 20
58.5810770664
 11
43.7251515827
 21
59.3975653741
  0
LINE
  5
26A
100
AcDbEntity
  8
0
100
AcDbLine
 62
7
  6
BYLAYER
 10
43.9287058207
 20
59.0450010488
 11
42.5144981463
 21
58.2285127411
  0
LINE
  5
26B
100
AcDbEntity
  8
0
100
AcDbLine
 62
7
  6
BYLAYER
 10
30.1400779562
 20
50.9107273266
 11
29.9365237182
 21
50.7932018724
  0
LINE
  5
26C
100
AcDbEntity
  8
0
100
AcDbLine
 62
7
  6
BYLAYER
 10
42.3109439082
 20
57.937780968
 11
43.9287058207
 21
58.87179473
  0
LINE
  5
26D
100
AcDbEntity
  8
0
100
AcDbLine
 62
7
  6
BYLAYER
 10
42.3109439082
 20
57.7645746492
 11
43.7251515827
 21
58.581062957
  0
LINE
  5
26E
100
AcDbEntity
  8
0
100
AcDbLine
 62
7
  6
BYLAYER
 10
43.9287058207
 20
58.2284986317
 11
42.5144981463
 21
57.412010324
  0
LINE
  5
26F
100
AcDbEntity
  8
0
100
AcDbLine
 62
7
  6
BYLAYER
 10
30.1400779562
 20
50.0942249095
 11
29.9365237182
 21
49.9766994552
  0
LINE
  5
270
100
AcDbEntity
  8
0
100
AcDbLine
 62
7
  6
BYLAYER
 10
42.3109439082
 20
57.1212785509
 11
43.9287058207
 21
58.0552923129
  0
LINE
  5
271
100
AcDbEntity
  8
0
100
AcDbLine
 62
7
  6
BYLAYER
 10
42.3109439082
 20
56.9480722321
 11
43.7251515827
 21
57.7645605398
  0
LINE
  5
272
100
AcDbEntity
  8
0
100
AcDbLine
 62
7
  6
BYLAYER
 10
43.9287058207
 20
57.4119962146
 11
42.5144981463
 21
56.5955079068
  0
LINE
  5
273
100
AcDbEntity
  8
0
100
AcDbLine
 62
7
  6
BYLAYER
 10
30.1400779562
 20
49.2777224924
 11
29.9365237182
 21
49.1601970381
  0
LINE
  5
274
100
AcDbEntity
  8
0
100
AcDbLine
 62
7
  6
BYLAYER
 10
42.3109439082
 20
56.3047761338
 11
43.9287058207
 21
57.2387898958
  0
LINE
  5
275
100
AcDbEntity
  8
0
100
AcDbLine
 62
7
  6
BYLAYER
 10
42.3109439082
 20
56.131569815
 11
43.7251515827
 21
56.9480581227
  0
LINE
  5
276
100
AcDbEntity
  8
0
100
AcDbLine
 62
7
  6
BYLAYER
 10
43.9287058207
 20
56.5954937975
 11
42.5144981463
 21
55.7790054897
  0
LINE
  5
277
100
AcDbEntity
  8
0
100
AcDbLine
 62
7
  6
BYLAYER
 10
30.1400779562
 20
48.4612200752
 11
29.9365237182
 21
48.343694621
  0
LINE
  5
278
100
AcDbEntity
  8
0
100
AcDbLine
 62
7
  6
BYLAYER
 10
42.3109439082
 20
55.4882737166
 11
43.9287058207
 21
56.4222874786
  0
LINE
  5
279
100
AcDbEntity
  8
0
100
AcDbLine
 62
7
  6
BYLAYER
 10
43.7251515827
 20
21.8384541861
 11
43.9287058207
 21
21.4858898609
  0
LINE
  5
27A
100
AcDbEntity
  8
0
100
AcDbLine
 62
7
  6
BYLAYER
 10
29.9365237182
 20
45.7209810508
 11
30.1400779562
 21
45.3684167255
  0
LINE
  5
27B
100
AcDbEntity
  8
0
100
AcDbLine
 62
7
  6
BYLAYER
 10
42.5144981463
 20
23.9354112217
 11
42.3109439082
 21
24.2879755469
  0
LINE
  5
27C
100
AcDbEntity
  8
0
100
AcDbLine
 62
7
  6
BYLAYER
 10
43.7251515827
 20
22.6549566033
 11
43.9287058207
 21
22.302392278
  0
LINE
  5
27D
100
AcDbEntity
  8
0
100
AcDbLine
 62
7
  6
BYLAYER
 10
29.9365237182
 20
46.5374834679
 11
30.1400779562
 21
46.1849191426
  0
LINE
  5
27E
100
AcDbEntity
  8
0
100
AcDbLine
 62
7
  6
BYLAYER
 10
42.5144981463
 20
24.7519136388
 11
42.3109439082
 21
25.104477964
  0
LINE
  5
27F
100
AcDbEntity
  8
0
100
AcDbLine
 62
7
  6
BYLAYER
 10
43.7251515827
 20
23.4714590204
 11
43.9287058207
 21
23.1188946951
  0
LINE
  5
280
100
AcDbEntity
  8
0
100
AcDbLine
 62
7
  6
BYLAYER
 10
29.9365237182
 20
47.353985885
 11
30.1400779562
 21
47.0014215598
  0
LINE
  5
281
100
AcDbEntity
  8
0
100
AcDbLine
 62
7
  6
BYLAYER
 10
42.5144981463
 20
25.5684160559
 11
42.3109439082
 21
25.9209803812
  0
LINE
  5
282
100
AcDbEntity
  8
0
100
AcDbLine
 62
7
  6
BYLAYER
 10
43.7251515827
 20
24.2879614375
 11
43.9287058207
 21
23.9353971123
  0
LINE
  5
283
100
AcDbEntity
  8
0
100
AcDbLine
 62
7
  6
BYLAYER
 10
29.9365237182
 20
48.1704883022
 11
30.1400779562
 21
47.8179239769
  0
LINE
  5
284
100
AcDbEntity
  8
0
100
AcDbLine
 62
7
  6
BYLAYER
 10
42.5144981463
 20
26.384918473
 11
42.3109439082
 21
26.7374827983
  0
LINE
  5
285
100
AcDbEntity
  8
0
100
AcDbLine
 62
7
  6
BYLAYER
 10
43.7251515827
 20
25.1044638547
 11
43.9287058207
 21
24.7518995294
  0
LINE
  5
286
100
AcDbEntity
  8
0
100
AcDbLine
 62
7
  6
BYLAYER
 10
29.9365237182
 20
48.9869907193
 11
30.1400779562
 21
48.634426394
  0
LINE
  5
287
100
AcDbEntity
  8
0
100
AcDbLine
 62
7
  6
BYLAYER
 10
42.5144981463
 20
27.2014208902
 11
42.3109439082
 21
27.5539852154
  0
LINE
  5
288
100
AcDbEntity
  8
0
100
AcDbLine
 62
7
  6
BYLAYER
 10
43.7251515827
 20
25.9209662718
 11
43.9287058207
 21
25.5684019465
  0
LINE
  5
289
100
AcDbEntity
  8
0
100
AcDbLine
 62
7
  6
BYLAYER
 10
29.9365237182
 20
49.8034931364
 11
30.1400779562
 21
49.4509288112
  0
LINE
  5
28A
100
AcDbEntity
  8
0
100
AcDbLine
 62
7
  6
BYLAYER
 10
42.5144981463
 20
28.0179233073
 11
42.3109439082
 21
28.3704876326
  0
LINE
  5
28B
100
AcDbEntity
  8
0
100
AcDbLine
 62
7
  6
BYLAYER
 10
43.7251515827
 20
26.7374686889
 11
43.9287058207
 21
26.3849043637
  0
LINE
  5
28C
100
AcDbEntity
  8
0
100
AcDbLine
 62
7
  6
BYLAYER
 10
29.9365237182
 20
50.6199955536
 11
30.1400779562
 21
50.2674312283
  0
LINE
  5
28D
100
AcDbEntity
  8
0
100
AcDbLine
 62
7
  6
BYLAYER
 10
42.5144981463
 20
28.8344257244
 11
42.3109439082
 21
29.1869900497
  0
LINE
  5
28E
100
AcDbEntity
  8
0
100
AcDbLine
 62
7
  6
BYLAYER
 10
32.6015735908
 20
66.3128488637
 11
32.6015735908
 21
21.4052159216
  0
LINE
  5
28F
100
AcDbEntity
  8
0
100
AcDbLine
 62
7
  6
BYLAYER
 10
34.0157812653
 20
67.1293371714
 11
34.0157812653
 21
22.2217042293
  0
LINE
  5
290
100
AcDbEntity
  8
0
100
AcDbLine
 62
7
  6
BYLAYER
 10
42.3109439082
 20
55.3150673978
 11
43.7251515827
 21
56.1315557056
  0
LINE
  5
291
100
AcDbEntity
  8
0
100
AcDbLine
 62
7
  6
BYLAYER
 10
43.9287058207
 20
55.7789913803
 11
42.5144981463
 21
54.9625030726
  0
LINE
  5
292
100
AcDbEntity
  8
0
100
AcDbLine
 62
7
  6
BYLAYER
 10
30.1400779562
 20
47.6447176581
 11
29.9365237182
 21
47.5271922038
  0
LINE
  5
293
100
AcDbEntity
  8
0
100
AcDbLine
 62
7
  6
BYLAYER
 10
42.3109439082
 20
54.6717712995
 11
43.9287058207
 21
55.6057850615
  0
LINE
  5
294
100
AcDbEntity
  8
0
100
AcDbLine
 62
7
  6
BYLAYER
 10
42.3109439082
 20
54.4985649807
 11
43.7251515827
 21
55.3150532885
  0
LINE
  5
295
100
AcDbEntity
  8
0
100
AcDbLine
 62
7
  6
BYLAYER
 10
43.9287058207
 20
54.9624889632
 11
42.5144981463
 21
54.1460006554
  0
LINE
  5
296
100
AcDbEntity
  8
0
100
AcDbLine
 62
7
  6
BYLAYER
 10
30.1400779562
 20
46.828215241
 11
29.9365237182
 21
46.7106897867
  0
LINE
  5
297
100
AcDbEntity
  8
0
100
AcDbLine
 62
7
  6
BYLAYER
 10
42.3109439082
 20
53.8552688824
 11
43.9287058207
 21
54.7892826444
  0
LINE
  5
298
100
AcDbEntity
  8
0
100
AcDbLine
 62
7
  6
BYLAYER
 10
42.3109439082
 20
53.6820625636
 11
43.7251515827
 21
54.4985508713
  0
LINE
  5
299
100
AcDbEntity
  8
0
100
AcDbLine
 62
7
  6
BYLAYER
 10
43.9287058207
 20
54.1459865461
 11
42.5144981463
 21
53.3294982383
  0
LINE
  5
29A
100
AcDbEntity
  8
0
100
AcDbLine
 62
7
  6
BYLAYER
 10
30.1400779562
 20
46.0117128238
 11
29.9365237182
 21
45.8941873696
  0
LINE
  5
29B
100
AcDbEntity
  8
0
100
AcDbLine
 62
7
  6
BYLAYER
 10
42.3109439082
 20
53.0387664653
 11
43.9287058207
 21
53.9727802273
  0
LINE
  5
29C
100
AcDbEntity
  8
0
100
AcDbLine
 62
7
  6
BYLAYER
 10
42.3109439082
 20
52.8655601464
 11
43.7251515827
 21
53.6820484542
  0
LINE
  5
29D
100
AcDbEntity
  8
0
100
AcDbLine
 62
7
  6
BYLAYER
 10
43.9287058207
 20
53.3294841289
 11
42.5144981463
 21
52.5129958212
  0
LINE
  5
29E
100
AcDbEntity
  8
0
100
AcDbLine
 62
7
  6
BYLAYER
 10
30.1400779562
 20
45.1952104067
 11
29.9365237182
 21
45.0776849525
  0
LINE
  5
29F
100
AcDbEntity
  8
0
100
AcDbLine
 62
7
  6
BYLAYER
 10
42.3109439082
 20
52.2222640481
 11
43.9287058207
 21
53.1562778101
  0
LINE
  5
2A0
100
AcDbEntity
  8
0
100
AcDbLine
 62
7
  6
BYLAYER
 10
43.7251515827
 20
27.553971106
 11
43.9287058207
 21
27.2014067808
  0
LINE
  5
2A1
100
AcDbEntity
  8
0
100
AcDbLine
 62
7
  6
BYLAYER
 10
29.9365237182
 20
51.4364979707
 11
30.1400779562
 21
51.0839336454
  0
LINE
  5
2A2
100
AcDbEntity
  8
0
100
AcDbLine
 62
7
  6
BYLAYER
 10
42.5144981463
 20
29.6509281416
 11
42.3109439082
 21
30.0034924668
  0
LINE
  5
2A3
100
AcDbEntity
  8
0
100
AcDbLine
 62
7
  6
BYLAYER
 10
43.7251515827
 20
28.3704735232
 11
43.9287058207
 21
28.0179091979
  0
LINE
  5
2A4
100
AcDbEntity
  8
0
100
AcDbLine
 62
7
  6
BYLAYER
 10
29.9365237182
 20
52.2530003878
 11
30.1400779562
 21
51.9004360626
  0
LINE
  5
2A5
100
AcDbEntity
  8
0
100
AcDbLine
 62
7
  6
BYLAYER
 10
42.5144981463
 20
30.4674305587
 11
42.3109439082
 21
30.819994884
  0
LINE
  5
2A6
100
AcDbEntity
  8
0
100
AcDbLine
 62
7
  6
BYLAYER
 10
43.7251515827
 20
29.1869759403
 11
43.9287058207
 21
28.834411615
  0
LINE
  5
2A7
100
AcDbEntity
  8
0
100
AcDbLine
 62
7
  6
BYLAYER
 10
29.9365237182
 20
53.0695028049
 11
30.1400779562
 21
52.7169384797
  0
LINE
  5
2A8
100
AcDbEntity
  8
0
100
AcDbLine
 62
7
  6
BYLAYER
 10
42.5144981463
 20
31.2839329758
 11
42.3109439082
 21
31.6364973011
  0
LINE
  5
2A9
100
AcDbEntity
  8
0
100
AcDbLine
 62
7
  6
BYLAYER
 10
43.7251515827
 20
30.0034783574
 11
43.9287058207
 21
29.6509140322
  0
LINE
  5
2AA
100
AcDbEntity
  8
0
100
AcDbLine
 62
7
  6
BYLAYER
 10
29.9365237182
 20
53.8860052221
 11
30.1400779562
 21
53.5334408968
  0
LINE
  5
2AB
100
AcDbEntity
  8
0
100
AcDbLine
 62
7
  6
BYLAYER
 10
42.5144981463
 20
32.100435393
 11
42.3109439082
 21
32.4529997182
  0
LINE
  5
2AC
100
AcDbEntity
  8
0
100
AcDbLine
 62
7
  6
BYLAYER
 10
43.7251515827
 20
30.8199807746
 11
43.9287058207
 21
30.4674164493
  0
LINE
  5
2AD
100
AcDbEntity
  8
0
100
AcDbLine
 62
7
  6
BYLAYER
 10
29.9365237182
 20
54.7025076392
 11
30.1400779562
 21
54.3499433139
  0
LINE
  5
2AE
100
AcDbEntity
  8
0
100
AcDbLine
 62
7
  6
BYLAYER
 10
42.5144981463
 20
32.9169378101
 11
42.3109439082
 21
33.2695021353
  0
LINE
  5
2AF
100
AcDbEntity
  8
0
100
AcDbLine
 62
7
  6
BYLAYER
 10
43.7251515827
 20
31.6364831917
 11
43.9287058207
 21
31.2839188664
  0
LINE
  5
2B0
100
AcDbEntity
  8
0
100
AcDbLine
 62
7
  6
BYLAYER
 10
29.9365237182
 20
55.5190100563
 11
30.1400779562
 21
55.1664457311
  0
LINE
  5
2B1
100
AcDbEntity
  8
0
100
AcDbLine
 62
7
  6
BYLAYER
 10
42.5144981463
 20
33.7334402272
 11
42.3109439082
 21
34.0860045525
  0
LINE
  5
2B2
100
AcDbEntity
  8
0
100
AcDbLine
 62
7
  6
BYLAYER
 10
43.7251515827
 20
32.4529856088
 11
43.9287058207
 21
32.1004212836
  0
LINE
  5
2B3
100
AcDbEntity
  8
0
100
AcDbLine
 62
7
  6
BYLAYER
 10
29.9365237182
 20
56.3355124735
 11
30.1400779562
 21
55.9829481482
  0
LINE
  5
2B4
100
AcDbEntity
  8
0
100
AcDbLine
 62
7
  6
BYLAYER
 10
42.5144981463
 20
34.5499426443
 11
42.3109439082
 21
34.9025069696
  0
LINE
  5
2B5
100
AcDbEntity
  8
0
100
AcDbLine
 62
7
  6
BYLAYER
 10
42.3109439082
 20
52.0490577293
 11
43.7251515827
 21
52.8655460371
  0
LINE
  5
2B6
100
AcDbEntity
  8
0
100
AcDbLine
 62
7
  6
BYLAYER
 10
43.9287058207
 20
52.5129817118
 11
42.5144981463
 21
51.6964934041
  0
LINE
  5
2B7
100
AcDbEntity
  8
0
100
AcDbLine
 62
7
  6
BYLAYER
 10
30.1400779562
 20
44.3787079896
 11
29.9365237182
 21
44.2611825353
  0
LINE
  5
2B8
100
AcDbEntity
  8
0
100
AcDbLine
 62
7
  6
BYLAYER
 10
42.3109439082
 20
51.405761631
 11
43.9287058207
 21
52.339775393
  0
LINE
  5
2B9
100
AcDbEntity
  8
0
100
AcDbLine
 62
7
  6
BYLAYER
 10
42.3109439082
 20
51.2325553122
 11
43.7251515827
 21
52.0490436199
  0
LINE
  5
2BA
100
AcDbEntity
  8
0
100
AcDbLine
 62
7
  6
BYLAYER
 10
43.9287058207
 20
51.6964792947
 11
42.5144981463
 21
50.8799909869
  0
LINE
  5
2BB
100
AcDbEntity
  8
0
100
AcDbLine
 62
7
  6
BYLAYER
 10
30.1400779562
 20
43.5622055725
 11
29.9365237182
 21
43.4446801182
  0
LINE
  5
2BC
100
AcDbEntity
  8
0
100
AcDbLine
 62
7
  6
BYLAYER
 10
42.3109439082
 20
50.5892592139
 11
43.9287058207
 21
51.5232729759
  0
LINE
  5
2BD
100
AcDbEntity
  8
0
100
AcDbLine
 62
7
  6
BYLAYER
 10
42.3109439082
 20
50.4160528951
 11
43.7251515827
 21
51.2325412028
  0
LINE
  5
2BE
100
AcDbEntity
  8
0
100
AcDbLine
 62
7
  6
BYLAYER
 10
43.9287058207
 20
50.8799768775
 11
42.5144981463
 21
50.0634885698
  0
LINE
  5
2BF
100
AcDbEntity
  8
0
100
AcDbLine
 62
7
  6
BYLAYER
 10
30.1400779562
 20
42.7457031553
 11
29.9365237182
 21
42.6281777011
  0
LINE
  5
2C0
100
AcDbEntity
  8
0
100
AcDbLine
 62
7
  6
BYLAYER
 10
42.3109439082
 20
49.7727567967
 11
43.9287058207
 21
50.7067705587
  0
LINE
  5
2C1
100
AcDbEntity
  8
0
100
AcDbLine
 62
7
  6
BYLAYER
 10
42.3109439082
 20
49.5995504779
 11
43.7251515827
 21
50.4160387857
  0
LINE
  5
2C2
100
AcDbEntity
  8
0
100
AcDbLine
 62
7
  6
BYLAYER
 10
43.9287058207
 20
50.0634744604
 11
42.5144981463
 21
49.2469861527
  0
LINE
  5
2C3
100
AcDbEntity
  8
0
100
AcDbLine
 62
7
  6
BYLAYER
 10
43.7251515827
 20
33.269488026
 11
43.9287058207
 21
32.9169237007
  0
LINE
  5
2C4
100
AcDbEntity
  8
0
100
AcDbLine
 62
7
  6
BYLAYER
 10
29.9365237182
 20
57.1520148906
 11
30.1400779562
 21
56.7994505653
  0
LINE
  5
2C5
100
AcDbEntity
  8
0
100
AcDbLine
 62
7
  6
BYLAYER
 10
42.5144981463
 20
35.3664450615
 11
42.3109439082
 21
35.7190093867
  0
LINE
  5
2C6
100
AcDbEntity
  8
0
100
AcDbLine
 62
7
  6
BYLAYER
 10
43.7251515827
 20
34.0859904431
 11
43.9287058207
 21
33.7334261178
  0
LINE
  5
2C7
100
AcDbEntity
  8
0
100
AcDbLine
 62
7
  6
BYLAYER
 10
29.9365237182
 20
57.9685173077
 11
30.1400779562
 21
57.6159529825
  0
LINE
  5
2C8
100
AcDbEntity
  8
0
100
AcDbLine
 62
7
  6
BYLAYER
 10
42.5144981463
 20
36.1829474786
 11
42.3109439082
 21
36.5355118039
  0
LINE
  5
2C9
100
AcDbEntity
  8
0
100
AcDbLine
 62
7
  6
BYLAYER
 10
43.7251515827
 20
34.9024928602
 11
43.9287058207
 21
34.549928535
  0
LINE
  5
2CA
100
AcDbEntity
  8
0
100
AcDbLine
 62
7
  6
BYLAYER
 10
29.9365237182
 20
58.7850197249
 11
30.1400779562
 21
58.4324553996
  0
LINE
  5
2CB
100
AcDbEntity
  8
0
100
AcDbLine
 62
7
  6
BYLAYER
 10
42.5144981463
 20
36.9994498957
 11
42.3109439082
 21
37.352014221
  0
LINE
  5
2CC
100
AcDbEntity
  8
0
100
AcDbLine
 62
7
  6
BYLAYER
 10
43.7251515827
 20
35.7189952773
 11
43.9287058207
 21
35.3664309521
  0
LINE
  5
2CD
100
AcDbEntity
  8
0
100
AcDbLine
 62
7
  6
BYLAYER
 10
29.9365237182
 20
59.601522142
 11
30.1400779562
 21
59.2489578167
  0
LINE
  5
2CE
100
AcDbEntity
  8
0
100
AcDbLine
 62
7
  6
BYLAYER
 10
42.5144981463
 20
37.8159523129
 11
42.3109439082
 21
38.1685166381
  0
LINE
  5
2CF
100
AcDbEntity
  8
0
100
AcDbLine
 62
7
  6
BYLAYER
 10
43.7251515827
 20
36.5354976945
 11
43.9287058207
 21
36.1829333692
  0
LINE
  5
2D0
100
AcDbEntity
  8
0
100
AcDbLine
 62
7
  6
BYLAYER
 10
29.9365237182
 20
60.4180245591
 11
30.1400779562
 21
60.0654602339
  0
LINE
  5
2D1
100
AcDbEntity
  8
0
100
AcDbLine
 62
7
  6
BYLAYER
 10
42.5144981463
 20
38.63245473
 11
42.3109439082
 21
38.9850190552
  0
LINE
  5
2D2
100
AcDbEntity
  8
0
100
AcDbLine
 62
7
  6
BYLAYER
 10
43.7251515827
 20
37.3520001116
 11
43.9287058207
 21
36.9994357863
  0
LINE
  5
2D3
100
AcDbEntity
  8
0
100
AcDbLine
 62
7
  6
BYLAYER
 10
29.9365237182
 20
61.2345269762
 11
30.1400779562
 21
60.881962651
  0
LINE
  5
2D4
100
AcDbEntity
  8
0
100
AcDbLine
 62
7
  6
BYLAYER
 10
42.5144981463
 20
39.4489571471
 11
42.3109439082
 21
39.8015214724
  0
LINE
  5
2D5
100
AcDbEntity
  8
0
100
AcDbLine
 62
7
  6
BYLAYER
 10
43.7251515827
 20
38.1685025287
 11
43.9287058207
 21
37.8159382035
  0
LINE
  5
2D6
100
AcDbEntity
  8
0
100
AcDbLine
 62
7
  6
BYLAYER
 10
29.9365237182
 20
62.0510293934
 11
30.1400779562
 21
61.6984650681
  0
LINE
  5
2D7
100
AcDbEntity
  8
0
100
AcDbLine
 62
7
  6
BYLAYER
 10
42.5144981463
 20
40.2654595642
 11
42.3109439082
 21
40.6180238895
  0
LINE
  5
2D8
100
AcDbEntity
  8
0
100
AcDbLine
 62
7
  6
BYLAYER
 10
39.8494482736
 20
17.2207481877
 11
39.8494482736
 21
62.1283811299
  0
LINE
  5
2D9
100
AcDbEntity
  8
0
100
AcDbLine
 62
7
  6
BYLAYER
 10
30.1400779562
 20
41.9292007382
 11
29.9365237182
 21
41.8116752839
  0
LINE
  5
2DA
100
AcDbEntity
  8
0
100
AcDbLine
 62
7
  6
BYLAYER
 10
42.3109439082
 20
48.9562543796
 11
43.9287058207
 21
49.8902681416
  0
LINE
  5
2DB
100
AcDbEntity
  8
0
100
AcDbLine
 62
7
  6
BYLAYER
 10
42.3109439082
 20
48.7830480608
 11
43.7251515827
 21
49.5995363685
  0
LINE
  5
2DC
100
AcDbEntity
  8
0
100
AcDbLine
 62
7
  6
BYLAYER
 10
43.9287058207
 20
49.2469720433
 11
42.5144981463
 21
48.4304837355
  0
LINE
  5
2DD
100
AcDbEntity
  8
0
100
AcDbLine
 62
7
  6
BYLAYER
 10
30.1400779562
 20
41.1126983211
 11
29.9365237182
 21
40.9951728668
  0
LINE
  5
2DE
100
AcDbEntity
  8
0
100
AcDbLine
 62
7
  6
BYLAYER
 10
42.3109439082
 20
48.1397519625
 11
43.9287058207
 21
49.0737657245
  0
LINE
  5
2DF
100
AcDbEntity
  8
0
100
AcDbLine
 62
7
  6
BYLAYER
 10
42.3109439082
 20
47.9665456437
 11
43.7251515827
 21
48.7830339514
  0
LINE
  5
2E0
100
AcDbEntity
  8
0
100
AcDbLine
 62
7
  6
BYLAYER
 10
43.9287058207
 20
48.4304696262
 11
42.5144981463
 21
47.6139813184
  0
LINE
  5
2E1
100
AcDbEntity
  8
0
100
AcDbLine
 62
7
  6
BYLAYER
 10
30.1400779562
 20
40.2961959039
 11
29.9365237182
 21
40.1786704497
  0
LINE
  5
2E2
100
AcDbEntity
  8
0
100
AcDbLine
 62
7
  6
BYLAYER
 10
42.3109439082
 20
47.3232495453
 11
43.9287058207
 21
48.2572633073
  0
LINE
  5
2E3
100
AcDbEntity
  8
0
100
AcDbLine
 62
7
  6
BYLAYER
 10
42.3109439082
 20
47.1500432265
 11
43.7251515827
 21
47.9665315343
  0
LINE
  5
2E4
100
AcDbEntity
  8
0
100
AcDbLine
 62
7
  6
BYLAYER
 10
43.9287058207
 20
47.613967209
 11
42.5144981463
 21
46.7974789013
  0
LINE
  5
2E5
100
AcDbEntity
  8
0
100
AcDbLine
 62
7
  6
BYLAYER
 10
30.1400779562
 20
39.4796934868
 11
29.9365237182
 21
39.3621680325
  0
LINE
  5
2E6
100
AcDbEntity
  8
0
100
AcDbLine
 62
7
  6
BYLAYER
 10
42.3109439082
 20
46.5067471282
 11
43.9287058207
 21
47.4407608902
  0
LINE
  5
2E7
100
AcDbEntity
  8
0
100
AcDbLine
 62
7
  6
BYLAYER
 10
42.3109439082
 20
46.3335408094
 11
43.7251515827
 21
47.1500291172
  0
LINE
  5
2E8
100
AcDbEntity
  8
0
100
AcDbLine
 62
7
  6
BYLAYER
 10
43.9287058207
 20
46.7974647919
 11
42.5144981463
 21
45.9809764842
  0
LINE
  5
2E9
100
AcDbEntity
  8
0
100
AcDbLine
 62
7
  6
BYLAYER
 10
43.7251515827
 20
38.9850049459
 11
43.9287058207
 21
38.6324406206
  0
LINE
  5
2EA
100
AcDbEntity
  8
0
100
AcDbLine
 62
7
  6
BYLAYER
 10
29.9365237182
 20
62.8675318105
 11
30.1400779562
 21
62.5149674852
  0
LINE
  5
2EB
100
AcDbEntity
  8
0
100
AcDbLine
 62
7
  6
BYLAYER
 10
42.5144981463
 20
41.0819619814
 11
42.3109439082
 21
41.4345263066
  0
LINE
  5
2EC
100
AcDbEntity
  8
0
100
AcDbLine
 62
7
  6
BYLAYER
 10
43.7251515827
 20
39.801507363
 11
43.9287058207
 21
39.4489430377
  0
LINE
  5
2ED
100
AcDbEntity
  8
0
100
AcDbLine
 62
7
  6
BYLAYER
 10
29.9365237182
 20
63.6840342276
 11
30.1400779562
 21
63.3314699024
  0
LINE
  5
2EE
100
AcDbEntity
  8
0
100
AcDbLine
 62
7
  6
BYLAYER
 10
42.5144981463
 20
41.8984643985
 11
42.3109439082
 21
42.2510287238
  0
LINE
  5
2EF
100
AcDbEntity
  8
0
100
AcDbLine
 62
7
  6
BYLAYER
 10
43.7251515827
 20
40.6180097801
 11
43.9287058207
 21
40.2654454549
  0
LINE
  5
2F0
100
AcDbEntity
  8
0
100
AcDbLine
 62
7
  6
BYLAYER
 10
29.9365237182
 20
64.5005366448
 11
30.1400779562
 21
64.1479723195
  0
LINE
  5
2F1
100
AcDbEntity
  8
0
100
AcDbLine
 62
7
  6
BYLAYER
 10
42.5144981463
 20
42.7149668156
 11
42.3109439082
 21
43.0675311409
  0
LINE
  5
2F2
100
AcDbEntity
  8
0
100
AcDbLine
 62
7
  6
BYLAYER
 10
43.7251515827
 20
41.4345121972
 11
43.9287058207
 21
41.081947872
  0
LINE
  5
2F3
100
AcDbEntity
  8
0
100
AcDbLine
 62
7
  6
BYLAYER
 10
29.9365237182
 20
65.3170390619
 11
30.1400779562
 21
64.9644747366
  0
LINE
  5
2F4
100
AcDbEntity
  8
0
100
AcDbLine
 62
7
  6
BYLAYER
 10
42.5144981463
 20
43.5314692328
 11
42.3109439082
 21
43.884033558
  0
LINE
  5
2F5
100
AcDbEntity
  8
0
100
AcDbLine
 62
7
  6
BYLAYER
 10
43.7251515827
 20
42.2510146144
 11
43.9287058207
 21
41.8984502891
  0
LINE
  5
2F6
100
AcDbEntity
  8
0
100
AcDbLine
 62
7
  6
BYLAYER
 10
29.9365237182
 20
66.133541479
 11
30.1400779562
 21
65.7809771538
  0
LINE
  5
2F7
100
AcDbEntity
  8
0
100
AcDbLine
 62
7
  6
BYLAYER
 10
42.5144981463
 20
44.3479716499
 11
42.3109439082
 21
44.7005359752
  0
LINE
  5
2F8
100
AcDbEntity
  8
0
100
AcDbLine
 62
7
  6
BYLAYER
 10
43.7251515827
 20
43.0675170315
 11
43.9287058207
 21
42.7149527063
  0
LINE
  5
2F9
100
AcDbEntity
  8
0
100
AcDbLine
 62
7
  6
BYLAYER
 10
29.9365237182
 20
66.9500438962
 11
30.1400779562
 21
66.5974795709
  0
LINE
  5
2FA
100
AcDbEntity
  8
0
100
AcDbLine
 62
7
  6
BYLAYER
 10
42.5144981463
 20
45.164474067
 11
42.3109439082
 21
45.5170383923
  0
LINE
  5
2FB
100
AcDbEntity
  8
0
100
AcDbLine
 62
7
  6
BYLAYER
 10
42.235943596
 20
15.4346844327
 11
42.235943596
 21
14.2319374527
  0
LINE
  5
2FC
100
AcDbEntity
  8
0
100
AcDbLine
 62
7
  6
BYLAYER
 10
30.1400779562
 20
38.6631910697
 11
29.9365237182
 21
38.5456656154
  0
LINE
  5
2FD
100
AcDbEntity
  8
0
100
AcDbLine
 62
7
  6
BYLAYER
 10
42.3109439082
 20
45.6902447111
 11
43.9287058207
 21
46.6242584731
  0
LINE
  5
2FE
100
AcDbEntity
  8
0
100
AcDbLine
 62
7
  6
BYLAYER
 10
42.3109439082
 20
45.5170383923
 11
43.7251515827
 21
46.3335267
  0
LINE
  5
2FF
100
AcDbEntity
  8
0
100
AcDbLine
 62
7
  6
BYLAYER
 10
43.9287058207
 20
45.9809623748
 11
42.5144981463
 21
45.164474067
  0
LINE
  5
300
100
AcDbEntity
  8
0
100
AcDbLine
 62
7
  6
BYLAYER
 10
30.1400779562
 20
37.8466886526
 11
29.9365237182
 21
37.7291631983
  0
LINE
  5
301
100
AcDbEntity
  8
0
100
AcDbLine
 62
7
  6
BYLAYER
 10
42.3109439082
 20
44.873742294
 11
43.9287058207
 21
45.807756056
  0
LINE
  5
302
100
AcDbEntity
  8
0
100
AcDbLine
 62
7
  6
BYLAYER
 10
42.3109439082
 20
44.7005359751
 11
43.7251515827
 21
45.5170242829
  0
LINE
  5
303
100
AcDbEntity
  8
0
100
AcDbLine
 62
7
  6
BYLAYER
 10
43.9287058207
 20
45.1644599576
 11
42.5144981463
 21
44.3479716499
  0
LINE
  5
304
100
AcDbEntity
  8
0
100
AcDbLine
 62
7
  6
BYLAYER
 10
30.1400779562
 20
37.0301862354
 11
29.9365237182
 21
36.9126607812
  0
LINE
  5
305
100
AcDbEntity
  8
0
100
AcDbLine
 62
7
  6
BYLAYER
 10
42.3109439082
 20
44.0572398768
 11
43.9287058207
 21
44.9912536388
  0
LINE
  5
306
100
AcDbEntity
  8
0
100
AcDbLine
 62
7
  6
BYLAYER
 10
42.3109439082
 20
43.884033558
 11
43.7251515827
 21
44.7005218658
  0
LINE
  5
307
100
AcDbEntity
  8
0
100
AcDbLine
 62
7
  6
BYLAYER
 10
43.9287058207
 20
44.3479575405
 11
42.5144981463
 21
43.5314692328
  0
LINE
  5
308
100
AcDbEntity
  8
0
100
AcDbLine
 62
7
  6
BYLAYER
 10
30.1400779562
 20
36.2136838183
 11
29.9365237182
 21
36.096158364
  0
LINE
  5
309
100
AcDbEntity
  8
0
100
AcDbLine
 62
7
  6
BYLAYER
 10
42.3109439082
 20
43.2407374597
 11
43.9287058207
 21
44.1747512217
  0
LINE
  5
30A
100
AcDbEntity
  8
0
100
AcDbLine
 62
7
  6
BYLAYER
 10
42.3109439082
 20
43.0675311409
 11
43.7251515827
 21
43.8840194486
  0
LINE
  5
30B
100
AcDbEntity
  8
0
100
AcDbLine
 62
7
  6
BYLAYER
 10
43.9287058207
 20
43.5314551234
 11
42.5144981463
 21
42.7149668156
  0
LINE
  5
30C
100
AcDbEntity
  8
0
100
AcDbLine
 62
7
  6
BYLAYER
 10
43.7251515827
 20
43.8840194486
 11
43.9287058207
 21
43.5314551234
  0
LINE
  5
30D
100
AcDbEntity
  8
0
100
AcDbLine
 62
7
  6
BYLAYER
 10
29.9372460488
 20
67.7652952069
 11
30.1400779562
 21
67.413981988
  0
LINE
  5
30E
100
AcDbEntity
  8
0
100
AcDbLine
 62
7
  6
BYLAYER
 10
42.5144981463
 20
45.9809764842
 11
42.3109439082
 21
46.3335408094
  0
LINE
  5
30F
100
AcDbEntity
  8
0
100
AcDbLine
 62
7
  6
BYLAYER
 10
43.7251515827
 20
44.7005218658
 11
43.9287058207
 21
44.3479575405
  0
LINE
  5
310
100
AcDbEntity
  8
0
100
AcDbLine
 62
7
  6
BYLAYER
 10
42.5144981463
 20
46.7974789013
 11
42.3109439082
 21
47.1500432265
  0
LINE
  5
311
100
AcDbEntity
  8
0
100
AcDbLine
 62
7
  6
BYLAYER
 10
43.7251515827
 20
45.5170242829
 11
43.9287058207
 21
45.1644599576
  0
LINE
  5
312
100
AcDbEntity
  8
0
100
AcDbLine
 62
7
  6
BYLAYER
 10
42.5144981463
 20
47.6139813184
 11
42.3109439082
 21
47.9665456437
  0
LINE
  5
313
100
AcDbEntity
  8
0
100
AcDbLine
 62
7
  6
BYLAYER
 10
43.7251515827
 20
46.3335267
 11
43.9287058207
 21
45.9809623748
  0
LINE
  5
314
100
AcDbEntity
  8
0
100
AcDbLine
 62
7
  6
BYLAYER
 10
42.5144981463
 20
48.4304837355
 11
42.3109439082
 21
48.7830480608
  0
LINE
  5
315
100
AcDbEntity
  8
0
100
AcDbLine
 62
7
  6
BYLAYER
 10
43.7251515827
 20
47.1500291172
 11
43.9287058207
 21
46.7974647919
  0
LINE
  5
316
100
AcDbEntity
  8
0
100
AcDbLine
 62
7
  6
BYLAYER
 10
42.5144981463
 20
49.2469861527
 11
42.3109439082
 21
49.5995504779
  0
LINE
  5
317
100
AcDbEntity
  8
0
100
AcDbLine
 62
7
  6
BYLAYER
 10
43.7251515827
 20
47.9665315343
 11
43.9287058207
 21
47.613967209
  0
LINE
  5
318
100
AcDbEntity
  8
0
100
AcDbLine
 62
7
  6
BYLAYER
 10
42.5144981463
 20
50.0634885698
 11
42.3109439082
 21
50.4160528951
  0
LINE
  5
319
100
AcDbEntity
  8
0
100
AcDbLine
 62
7
  6
BYLAYER
 10
43.7251515827
 20
48.7830339514
 11
43.9287058207
 21
48.4304696262
  0
LINE
  5
31A
100
AcDbEntity
  8
0
100
AcDbLine
 62
7
  6
BYLAYER
 10
42.5144981463
 20
50.8799909869
 11
42.3109439082
 21
51.2325553122
  0
LINE
  5
31B
100
AcDbEntity
  8
0
100
AcDbLine
 62
7
  6
BYLAYER
 10
43.6501512704
 20
16.2511727404
 11
43.6501512704
 21
15.0484257604
  0
LINE
  5
31C
100
AcDbEntity
  8
0
100
AcDbLine
 62
7
  6
BYLAYER
 10
30.1400779562
 20
35.3971814012
 11
29.9365237182
 21
35.2796559469
  0
LINE
  5
31D
100
AcDbEntity
  8
0
100
AcDbLine
 62
7
  6
BYLAYER
 10
42.3109439082
 20
42.4242350426
 11
43.9287058207
 21
43.3582488046
  0
LINE
  5
31E
100
AcDbEntity
  8
0
100
AcDbLine
 62
7
  6
BYLAYER
 10
42.3109439082
 20
42.2510287238
 11
43.7251515827
 21
43.0675170315
  0
LINE
  5
31F
100
AcDbEntity
  8
0
100
AcDbLine
 62
7
  6
BYLAYER
 10
43.9287058207
 20
42.7149527062
 11
42.5144981463
 21
41.8984643985
  0
LINE
  5
320
100
AcDbEntity
  8
0
100
AcDbLine
 62
7
  6
BYLAYER
 10
30.1400779562
 20
34.580678984
 11
29.9365237182
 21
34.4631535298
  0
LINE
  5
321
100
AcDbEntity
  8
0
100
AcDbLine
 62
7
  6
BYLAYER
 10
42.3109439082
 20
41.6077326254
 11
43.9287058207
 21
42.5417463874
  0
LINE
  5
322
100
AcDbEntity
  8
0
100
AcDbLine
 62
7
  6
BYLAYER
 10
42.3109439082
 20
41.4345263066
 11
43.7251515827
 21
42.2510146144
  0
LINE
  5
323
100
AcDbEntity
  8
0
100
AcDbLine
 62
7
  6
BYLAYER
 10
43.9287058207
 20
41.8984502891
 11
42.5144981463
 21
41.0819619814
  0
LINE
  5
324
100
AcDbEntity
  8
0
100
AcDbLine
 62
7
  6
BYLAYER
 10
30.1400779562
 20
33.7641765669
 11
29.9365237182
 21
33.6466511126
  0
LINE
  5
325
100
AcDbEntity
  8
0
100
AcDbLine
 62
7
  6
BYLAYER
 10
42.3109439082
 20
40.7912302083
 11
43.9287058207
 21
41.7252439703
  0
LINE
  5
326
100
AcDbEntity
  8
0
100
AcDbLine
 62
7
  6
BYLAYER
 10
42.3109439082
 20
40.6180238895
 11
43.7251515827
 21
41.4345121972
  0
LINE
  5
327
100
AcDbEntity
  8
0
100
AcDbLine
 62
7
  6
BYLAYER
 10
43.9287058207
 20
41.081947872
 11
42.5144981463
 21
40.2654595642
  0
LINE
  5
328
100
AcDbEntity
  8
0
100
AcDbLine
 62
7
  6
BYLAYER
 10
30.1400779562
 20
32.9476741498
 11
29.9365237182
 21
32.8301486955
  0
LINE
  5
329
100
AcDbEntity
  8
0
100
AcDbLine
 62
7
  6
BYLAYER
 10
42.3109439082
 20
39.9747277912
 11
43.9287058207
 21
40.9087415532
  0
LINE
  5
32A
100
AcDbEntity
  8
0
100
AcDbLine
 62
7
  6
BYLAYER
 10
42.3109439082
 20
39.8015214724
 11
43.7251515827
 21
40.6180097801
  0
LINE
  5
32B
100
AcDbEntity
  8
0
100
AcDbLine
 62
7
  6
BYLAYER
 10
43.9287058207
 20
40.2654454549
 11
42.5144981463
 21
39.4489571471
  0
LINE
  5
32C
100
AcDbEntity
  8
0
100
AcDbLine
 62
7
  6
BYLAYER
 10
43.7251515827
 20
49.5995363685
 11
43.9287058207
 21
49.2469720433
  0
LINE
  5
32D
100
AcDbEntity
  8
0
100
AcDbLine
 62
7
  6
BYLAYER
 10
42.5144981463
 20
51.6964934041
 11
42.3109439082
 21
52.0490577293
  0
LINE
  5
32E
100
AcDbEntity
  8
0
100
AcDbLine
 62
7
  6
BYLAYER
 10
43.7251515827
 20
50.4160387857
 11
43.9287058207
 21
50.0634744604
  0
LINE
  5
32F
100
AcDbEntity
  8
0
100
AcDbLine
 62
7
  6
BYLAYER
 10
42.5144981463
 20
52.5129958212
 11
42.3109439082
 21
52.8655601464
  0
LINE
  5
330
100
AcDbEntity
  8
0
100
AcDbLine
 62
7
  6
BYLAYER
 10
43.7251515827
 20
51.2325412028
 11
43.9287058207
 21
50.8799768775
  0
LINE
  5
331
100
AcDbEntity
  8
0
100
AcDbLine
 62
7
  6
BYLAYER
 10
42.5144981463
 20
53.3294982383
 11
42.3109439082
 21
53.6820625636
  0
LINE
  5
332
100
AcDbEntity
  8
0
100
AcDbLine
 62
7
  6
BYLAYER
 10
43.7251515827
 20
52.0490436199
 11
43.9287058207
 21
51.6964792947
  0
LINE
  5
333
100
AcDbEntity
  8
0
100
AcDbLine
 62
7
  6
BYLAYER
 10
42.5144981463
 20
54.1460006554
 11
42.3109439082
 21
54.4985649807
  0
LINE
  5
334
100
AcDbEntity
  8
0
100
AcDbLine
 62
7
  6
BYLAYER
 10
43.7251515827
 20
52.8655460371
 11
43.9287058207
 21
52.5129817118
  0
LINE
  5
335
100
AcDbEntity
  8
0
100
AcDbLine
 62
7
  6
BYLAYER
 10
42.5144981463
 20
54.9625030726
 11
42.3109439082
 21
55.3150673978
  0
LINE
  5
336
100
AcDbEntity
  8
0
100
AcDbLine
 62
7
  6
BYLAYER
 10
43.7251515827
 20
53.6820484542
 11
43.9287058207
 21
53.3294841289
  0
LINE
  5
337
100
AcDbEntity
  8
0
100
AcDbLine
 62
7
  6
BYLAYER
 10
42.5144981463
 20
55.7790054897
 11
42.3109439082
 21
56.131569815
  0
LINE
  5
338
100
AcDbEntity
  8
0
100
AcDbLine
 62
7
  6
BYLAYER
 10
43.7251515827
 20
54.4985508713
 11
43.9287058207
 21
54.1459865461
  0
LINE
  5
339
100
AcDbEntity
  8
0
100
AcDbLine
 62
7
  6
BYLAYER
 10
42.5144981463
 20
56.5955079068
 11
42.3109439082
 21
56.9480722321
  0
LINE
  5
33A
100
AcDbEntity
  8
0
100
AcDbLine
 62
7
  6
BYLAYER
 10
42.235943596
 20
61.1588197919
 11
40.6945663051
 21
72.1426572923
  0
LINE
  5
33B
100
AcDbEntity
  8
0
100
AcDbLine
 62
7
  6
BYLAYER
 10
41.9227923733
 20
74.2844484657
 11
43.6501512704
 21
61.9753080997
  0
LINE
  5
33C
100
AcDbEntity
  8
0
100
AcDbLine
 62
7
  6
BYLAYER
 10
30.1400779562
 20
32.1311717326
 11
29.9365237182
 21
32.0136462784
  0
LINE
  5
33D
100
AcDbEntity
  8
0
100
AcDbLine
 62
7
  6
BYLAYER
 10
42.3109439082
 20
39.158225374
 11
43.9287058207
 21
40.0922391361
  0
LINE
  5
33E
100
AcDbEntity
  8
0
100
AcDbLine
 62
7
  6
BYLAYER
 10
42.3109439082
 20
38.9850190552
 11
43.7251515827
 21
39.801507363
  0
LINE
  5
33F
100
AcDbEntity
  8
0
100
AcDbLine
 62
7
  6
BYLAYER
 10
43.9287058207
 20
39.4489430377
 11
42.5144981463
 21
38.63245473
  0
LINE
  5
340
100
AcDbEntity
  8
0
100
AcDbLine
 62
7
  6
BYLAYER
 10
30.1400779562
 20
31.3146693155
 11
29.9365237182
 21
31.1971438613
  0
LINE
  5
341
100
AcDbEntity
  8
0
100
AcDbLine
 62
7
  6
BYLAYER
 10
42.3109439082
 20
38.3417229569
 11
43.9287058207
 21
39.2757367189
  0
LINE
  5
342
100
AcDbEntity
  8
0
100
AcDbLine
 62
7
  6
BYLAYER
 10
42.3109439082
 20
38.1685166381
 11
43.7251515827
 21
38.9850049459
  0
LINE
  5
343
100
AcDbEntity
  8
0
100
AcDbLine
 62
7
  6
BYLAYER
 10
43.9287058207
 20
38.6324406206
 11
42.5144981463
 21
37.8159523129
  0
LINE
  5
344
100
AcDbEntity
  8
0
100
AcDbLine
 62
7
  6
BYLAYER
 10
30.1400779562
 20
30.4981668984
 11
29.9365237182
 21
30.3806414441
  0
LINE
  5
345
100
AcDbEntity
  8
0
100
AcDbLine
 62
7
  6
BYLAYER
 10
42.3109439082
 20
37.5252205398
 11
43.9287058207
 21
38.4592343018
  0
LINE
  5
346
100
AcDbEntity
  8
0
100
AcDbLine
 62
7
  6
BYLAYER
 10
42.3109439082
 20
37.352014221
 11
43.7251515827
 21
38.1685025287
  0
LINE
  5
347
100
AcDbEntity
  8
0
100
AcDbLine
 62
7
  6
BYLAYER
 10
43.9287058207
 20
37.8159382035
 11
42.5144981463
 21
36.9994498957
  0
LINE
  5
348
100
AcDbEntity
  8
0
100
AcDbLine
 62
7
  6
BYLAYER
 10
30.1400779562
 20
29.6816644813
 11
29.9365237182
 21
29.564139027
  0
LINE
  5
349
100
AcDbEntity
  8
0
100
AcDbLine
 62
7
  6
BYLAYER
 10
42.3109439082
 20
36.7087181227
 11
43.9287058207
 21
37.6427318847
  0
LINE
  5
34A
100
AcDbEntity
  8
0
100
AcDbLine
 62
7
  6
BYLAYER
 10
42.3109439082
 20
36.5355118039
 11
43.7251515827
 21
37.3520001116
  0
LINE
  5
34B
100
AcDbEntity
  8
0
100
AcDbLine
 62
7
  6
BYLAYER
 10
43.7251515827
 20
55.3150532885
 11
43.9287058207
 21
54.9624889632
  0
LINE
  5
34C
100
AcDbEntity
  8
0
100
AcDbLine
 62
7
  6
BYLAYER
 10
42.5144981463
 20
57.412010324
 11
42.3109439082
 21
57.7645746492
  0
LINE
  5
34D
100
AcDbEntity
  8
0
100
AcDbLine
 62
7
  6
BYLAYER
 10
43.7251515827
 20
56.1315557056
 11
43.9287058207
 21
55.7789913803
  0
LINE
  5
34E
100
AcDbEntity
  8
0
100
AcDbLine
 62
7
  6
BYLAYER
 10
42.5144981463
 20
58.2285127411
 11
42.3109439082
 21
58.5810770664
  0
LINE
  5
34F
100
AcDbEntity
  8
0
100
AcDbLine
 62
7
  6
BYLAYER
 10
43.7251515827
 20
56.9480581227
 11
43.9287058207
 21
56.5954937975
  0
LINE
  5
350
100
AcDbEntity
  8
0
100
AcDbLine
 62
7
  6
BYLAYER
 10
42.5144981463
 20
59.0450151582
 11
42.3109439082
 21
59.3975794835
  0
LINE
  5
351
100
AcDbEntity
  8
0
100
AcDbLine
 62
7
  6
BYLAYER
 10
43.7251515827
 20
57.7645605398
 11
43.9287058207
 21
57.4119962146
  0
LINE
  5
352
100
AcDbEntity
  8
0
100
AcDbLine
 62
7
  6
BYLAYER
 10
42.5144981463
 20
59.8615175754
 11
42.3109439082
 21
60.2140819006
  0
LINE
  5
353
100
AcDbEntity
  8
0
100
AcDbLine
 62
7
  6
BYLAYER
 10
42.5137758157
 20
60.6776029428
 11
42.235943596
 21
61.1588197919
  0
LINE
  5
354
100
AcDbEntity
  8
0
100
AcDbLine
 62
7
  6
BYLAYER
 10
43.7251515827
 20
58.581062957
 11
43.9287058207
 21
58.2284986317
  0
LINE
  5
355
100
AcDbEntity
  8
0
100
AcDbLine
 62
7
  6
BYLAYER
 10
43.7251515827
 20
59.3975653741
 11
43.9287058207
 21
59.0450010488
  0
LINE
  5
356
100
AcDbEntity
  8
0
100
AcDbLine
 62
7
  6
BYLAYER
 10
43.7251515827
 20
60.2140677912
 11
43.9287058207
 21
59.861503466
  0
LINE
  5
357
100
AcDbEntity
  8
0
100
AcDbLine
 62
7
  6
BYLAYER
 10
40.6686456027
 20
7.8782249903
 11
42.235943596
 21
14.2319374527
  0
LINE
  5
358
100
AcDbEntity
  8
0
100
AcDbLine
 62
7
  6
BYLAYER
 10
43.6501512704
 20
15.0484257604
 11
42.0828532771
 21
8.694713298
  0
LINE
  5
359
100
AcDbEntity
  8
0
100
AcDbLine
 62
7
  6
BYLAYER
 10
43.9287058207
 20
36.9994357863
 11
42.5144981463
 21
36.1829474786
  0
LINE
  5
35A
100
AcDbEntity
  8
0
100
AcDbLine
 62
7
  6
BYLAYER
 10
30.1400779562
 20
28.8651620641
 11
29.9365237182
 21
28.7476366099
  0
LINE
  5
35B
100
AcDbEntity
  8
0
100
AcDbLine
 62
7
  6
BYLAYER
 10
42.3109439082
 20
35.8922157055
 11
43.9287058207
 21
36.8262294675
  0
LINE
  5
35C
100
AcDbEntity
  8
0
100
AcDbLine
 62
7
  6
BYLAYER
 10
42.3109439082
 20
35.7190093867
 11
43.7251515827
 21
36.5354976945
  0
LINE
  5
35D
100
AcDbEntity
  8
0
100
AcDbLine
 62
7
  6
BYLAYER
 10
43.9287058207
 20
36.1829333692
 11
42.5144981463
 21
35.3664450615
  0
LINE
  5
35E
100
AcDbEntity
  8
0
100
AcDbLine
 62
7
  6
BYLAYER
 10
30.1400779562
 20
28.048659647
 11
29.9365237182
 21
27.9311341927
  0
LINE
  5
35F
100
AcDbEntity
  8
0
100
AcDbLine
 62
7
  6
BYLAYER
 10
42.3109439082
 20
35.0757132884
 11
43.9287058207
 21
36.0097270504
  0
LINE
  5
360
100
AcDbEntity
  8
0
100
AcDbLine
 62
7
  6
BYLAYER
 10
42.3109439082
 20
34.9025069696
 11
43.7251515827
 21
35.7189952773
  0
LINE
  5
361
100
AcDbEntity
  8
0
100
AcDbLine
 62
7
  6
BYLAYER
 10
43.9287058207
 20
35.3664309521
 11
42.5144981463
 21
34.5499426443
  0
LINE
  5
362
100
AcDbEntity
  8
0
100
AcDbLine
 62
7
  6
BYLAYER
 10
30.1400779562
 20
27.2321572299
 11
29.9365237182
 21
27.1146317756
  0
LINE
  5
363
100
AcDbEntity
  8
0
100
AcDbLine
 62
7
  6
BYLAYER
 10
42.3109439082
 20
34.2592108713
 11
43.9287058207
 21
35.1932246333
  0
LINE
  5
364
100
AcDbEntity
  8
0
100
AcDbLine
 62
7
  6
BYLAYER
 10
42.3109439082
 20
34.0860045525
 11
43.7251515827
 21
34.9024928602
  0
LINE
  5
365
100
AcDbEntity
  8
0
100
AcDbLine
 62
7
  6
BYLAYER
 10
43.9287058207
 20
34.549928535
 11
42.5144981463
 21
33.7334402272
  0
LINE
  5
366
100
AcDbEntity
  8
0
100
AcDbLine
 62
7
  6
BYLAYER
 10
30.1400779562
 20
26.4156548127
 11
29.9365237182
 21
26.2981293585
  0
LINE
  5
367
100
AcDbEntity
  8
0
100
AcDbLine
 62
7
  6
BYLAYER
 10
42.3109439082
 20
33.4427084541
 11
43.9287058207
 21
34.3767222161
  0
LINE
  5
368
100
AcDbEntity
  8
0
100
AcDbLine
 62
7
  6
BYLAYER
 10
42.3109439082
 20
33.2695021353
 11
43.7251515827
 21
34.0859904431
  0
LINE
  5
369
100
AcDbEntity
  8
0
100
AcDbLine
 62
7
  6
BYLAYER
 10
43.7251515827
 20
61.0305702084
 11
43.9287058207
 21
60.6780058831
  0
LINE
  5
36A
100
AcDbEntity
  8
0
100
AcDbLine
 62
7
  6
BYLAYER
 10
43.6501512704
 20
61.9753080997
 11
43.9279834901
 21
61.4940912505
  0
LINE
  5
36B
100
AcDbEntity
  8
0
100
AcDbLine
 62
7
  6
BYLAYER
 10
43.9287058207
 20
33.7334261178
 11
42.5144981463
 21
32.9169378101
  0
LINE
  5
36C
100
AcDbEntity
  8
0
100
AcDbLine
 62
7
  6
BYLAYER
 10
30.1400779562
 20
25.5991523956
 11
29.9365237182
 21
25.4816269413
  0
LINE
  5
36D
100
AcDbEntity
  8
0
100
AcDbLine
 62
7
  6
BYLAYER
 10
42.3109439082
 20
32.626206037
 11
43.9287058207
 21
33.560219799
  0
LINE
  5
36E
100
AcDbEntity
  8
0
100
AcDbLine
 62
7
  6
BYLAYER
 10
42.3109439082
 20
32.4529997182
 11
43.7251515827
 21
33.2694880259
  0
LINE
  5
36F
100
AcDbEntity
  8
0
100
AcDbLine
 62
7
  6
BYLAYER
 10
43.9287058207
 20
32.9169237007
 11
42.5144981463
 21
32.1004353929
  0
LINE
  5
370
100
AcDbEntity
  8
0
100
AcDbLine
 62
7
  6
BYLAYER
 10
30.1400779562
 20
24.7826499785
 11
29.9365237182
 21
24.6651245242
  0
LINE
  5
371
100
AcDbEntity
  8
0
100
AcDbLine
 62
7
  6
BYLAYER
 10
42.3109439082
 20
31.8097036199
 11
43.9287058207
 21
32.7437173819
  0
LINE
  5
372
100
AcDbEntity
  8
0
100
AcDbLine
 62
7
  6
BYLAYER
 10
42.3109439082
 20
31.6364973011
 11
43.7251515827
 21
32.4529856088
  0
LINE
  5
373
100
AcDbEntity
  8
0
100
AcDbLine
 62
7
  6
BYLAYER
 10
43.9287058207
 20
32.1004212836
 11
42.5144981463
 21
31.2839329758
  0
LINE
  5
374
100
AcDbEntity
  8
0
100
AcDbLine
 62
7
  6
BYLAYER
 10
30.1400779562
 20
23.9661475614
 11
29.9365237182
 21
23.8486221071
  0
LINE
  5
375
100
AcDbEntity
  8
0
100
AcDbLine
 62
7
  6
BYLAYER
 10
42.3109439082
 20
30.9932012028
 11
43.9287058207
 21
31.9272149648
  0
LINE
  5
376
100
AcDbEntity
  8
0
100
AcDbLine
 62
7
  6
BYLAYER
 10
42.3109439082
 20
30.8199948839
 11
43.7251515827
 21
31.6364831917
  0
LINE
  5
377
100
AcDbEntity
  8
0
100
AcDbLine
 62
7
  6
BYLAYER
 10
43.9287058207
 20
31.2839188664
 11
42.5144981463
 21
30.4674305587
  0
LINE
  5
378
100
AcDbEntity
  8
0
100
AcDbLine
 62
7
  6
BYLAYER
 10
30.1400779562
 20
23.1496451442
 11
29.9358013875
 21
23.0317026402
  0
LINE
  5
379
100
AcDbEntity
  8
0
100
AcDbLine
 62
7
  6
BYLAYER
 10
42.3109439082
 20
30.1766987856
 11
43.9287058207
 21
31.1107125476
  0
LINE
  5
37A
100
AcDbEntity
  8
0
100
AcDbLine
 62
7
  6
BYLAYER
 10
42.3109439082
 20
30.0034924668
 11
43.7251515827
 21
30.8199807746
  0
LINE
  5
37B
100
AcDbEntity
  8
0
100
AcDbLine
 62
7
  6
BYLAYER
 10
43.9287058207
 20
30.4674164493
 11
42.5144981463
 21
29.6509281416
  0
LINE
  5
37C
100
AcDbEntity
  8
0
100
AcDbLine
 62
7
  6
BYLAYER
 10
42.3109439082
 20
29.3601963685
 11
43.9287058207
 21
30.2942101305
  0
LINE
  5
37D
100
AcDbEntity
  8
0
100
AcDbLine
 62
7
  6
BYLAYER
 10
42.3109439082
 20
29.1869900497
 11
43.7251515827
 21
30.0034783574
  0
LINE
  5
37E
100
AcDbEntity
  8
0
100
AcDbLine
 62
7
  6
BYLAYER
 10
43.9287058207
 20
29.6509140322
 11
42.5144981463
 21
28.8344257244
  0
LINE
  5
37F
100
AcDbEntity
  8
0
100
AcDbLine
 62
7
  6
BYLAYER
 10
42.3109439082
 20
28.5436939514
 11
43.9287058207
 21
29.4777077134
  0
LINE
  5
380
100
AcDbEntity
  8
0
100
AcDbLine
 62
7
  6
BYLAYER
 10
42.3109439082
 20
28.3704876326
 11
43.7251515827
 21
29.1869759403
  0
LINE
  5
381
100
AcDbEntity
  8
0
100
AcDbLine
 62
7
  6
BYLAYER
 10
43.9287058207
 20
28.834411615
 11
42.5144981463
 21
28.0179233073
  0
LINE
  5
382
100
AcDbEntity
  8
0
100
AcDbLine
 62
7
  6
BYLAYER
 10
42.3109439082
 20
27.7271915342
 11
43.9287058207
 21
28.6612052962
  0
LINE
  5
383
100
AcDbEntity
  8
0
100
AcDbLine
 62
7
  6
BYLAYER
 10
42.3109439082
 20
27.5539852154
 11
43.7251515827
 21
28.3704735232
  0
LINE
  5
384
100
AcDbEntity
  8
0
100
AcDbLine
 62
7
  6
BYLAYER
 10
43.9287058207
 20
28.0179091979
 11
42.5144981463
 21
27.2014208902
  0
LINE
  5
385
100
AcDbEntity
  8
0
100
AcDbLine
 62
7
  6
BYLAYER
 10
34.0157812653
 20
22.2217042293
 11
32.6015735908
 21
21.4052159216
  0
LINE
  5
386
100
AcDbEntity
  8
0
100
AcDbLine
 62
7
  6
BYLAYER
 10
42.3109439082
 20
26.9106891171
 11
43.9287058207
 21
27.8447028791
  0
LINE
  5
387
100
AcDbEntity
  8
0
100
AcDbLine
 62
7
  6
BYLAYER
 10
42.3109439082
 20
26.7374827983
 11
43.7251515827
 21
27.553971106
  0
LINE
  5
388
100
AcDbEntity
  8
0
100
AcDbLine
 62
7
  6
BYLAYER
 10
43.9287058207
 20
27.2014067808
 11
42.5144981463
 21
26.384918473
  0
LINE
  5
389
100
AcDbEntity
  8
0
100
AcDbLine
 62
7
  6
BYLAYER
 10
42.3109439082
 20
26.0941867
 11
43.9287058207
 21
27.028200462
  0
LINE
  5
38A
100
AcDbEntity
  8
0
100
AcDbLine
 62
7
  6
BYLAYER
 10
42.3109439082
 20
25.9209803812
 11
43.7251515827
 21
26.7374686889
  0
LINE
  5
38B
100
AcDbEntity
  8
0
100
AcDbLine
 62
7
  6
BYLAYER
 10
43.9287058207
 20
26.3849043637
 11
42.5144981463
 21
25.5684160559
  0
LINE
  5
38C
100
AcDbEntity
  8
0
100
AcDbLine
 62
7
  6
BYLAYER
 10
42.3109439082
 20
25.2776842828
 11
43.9287058207
 21
26.2116980449
  0
LINE
  5
38D
100
AcDbEntity
  8
0
100
AcDbLine
 62
7
  6
BYLAYER
 10
42.3109439082
 20
25.104477964
 11
43.7251515827
 21
25.9209662718
  0
LINE
  5
38E
100
AcDbEntity
  8
0
100
AcDbLine
 62
7
  6
BYLAYER
 10
43.9287058207
 20
25.5684019465
 11
42.5144981463
 21
24.7519136388
  0
LINE
  5
38F
100
AcDbEntity
  8
0
100
AcDbLine
 62
7
  6
BYLAYER
 10
42.3109439082
 20
24.4611818657
 11
43.9287058207
 21
25.3951956277
  0
LINE
  5
390
100
AcDbEntity
  8
0
100
AcDbLine
 62
7
  6
BYLAYER
 10
42.3109439082
 20
24.2879755469
 11
43.7251515827
 21
25.1044638547
  0
LINE
  5
391
100
AcDbEntity
  8
0
100
AcDbLine
 62
7
  6
BYLAYER
 10
43.9287058207
 20
24.7518995294
 11
42.5144981463
 21
23.9354112217
  0
LINE
  5
392
100
AcDbEntity
  8
0
100
AcDbLine
 62
7
  6
BYLAYER
 10
42.3109439082
 20
23.6446794486
 11
43.9287058207
 21
24.5786932106
  0
LINE
  5
393
100
AcDbEntity
  8
0
100
AcDbLine
 62
7
  6
BYLAYER
 10
42.3109439082
 20
23.4714731298
 11
43.7251515827
 21
24.2879614375
  0
LINE
  5
394
100
AcDbEntity
  8
0
100
AcDbLine
 62
7
  6
BYLAYER
 10
43.9287058207
 20
23.9353971123
 11
42.5144981463
 21
23.1189088045
  0
LINE
  5
395
100
AcDbEntity
  8
0
100
AcDbLine
 62
7
  6
BYLAYER
 10
42.3109439082
 20
22.8281770315
 11
43.9287058207
 21
23.7621907935
  0
LINE
  5
396
100
AcDbEntity
  8
0
100
AcDbLine
 62
7
  6
BYLAYER
 10
42.3109439082
 20
22.6549707127
 11
43.7251515827
 21
23.4714590204
  0
LINE
  5
397
100
AcDbEntity
  8
0
100
AcDbLine
 62
7
  6
BYLAYER
 10
43.9287058207
 20
23.1188946951
 11
42.5144981463
 21
22.3024063874
  0
LINE
  5
398
100
AcDbEntity
  8
0
100
AcDbLine
 62
7
  6
BYLAYER
 10
42.3109439082
 20
22.0116746143
 11
43.9287058207
 21
22.9456883763
  0
LINE
  5
399
100
AcDbEntity
  8
0
100
AcDbLine
 62
7
  6
BYLAYER
 10
42.3109439082
 20
21.8384682955
 11
43.7251515827
 21
22.6549566033
  0
LINE
  5
39A
100
AcDbEntity
  8
0
100
AcDbLine
 62
7
  6
BYLAYER
 10
43.9287058207
 20
22.302392278
 11
42.5144981463
 21
21.4859039703
  0
LINE
  5
39B
100
AcDbEntity
  8
0
100
AcDbLine
 62
7
  6
BYLAYER
 10
42.3109439082
 20
21.1951721972
 11
43.9287058207
 21
22.1291859592
  0
LINE
  5
39C
100
AcDbEntity
  8
0
100
AcDbLine
 62
7
  6
BYLAYER
 10
42.3109439082
 20
21.0219658784
 11
43.7251515827
 21
21.8384541861
  0
LINE
  5
39D
100
AcDbEntity
  8
0
100
AcDbLine
 62
7
  6
BYLAYER
 10
43.9287058207
 20
21.4858898609
 11
42.5144981463
 21
20.6694015531
  0
LINE
  5
39E
100
AcDbEntity
  8
0
100
AcDbLine
 62
7
  6
BYLAYER
 10
42.3109439082
 20
20.3786697801
 11
43.9287058207
 21
21.3126835421
  0
LINE
  5
39F
100
AcDbEntity
  8
0
100
AcDbLine
 62
7
  6
BYLAYER
 10
42.3109439082
 20
20.2054634613
 11
43.7251515827
 21
21.021951769
  0
LINE
  5
3A0
100
AcDbEntity
  8
0
100
AcDbLine
 62
7
  6
BYLAYER
 10
43.9287058207
 20
20.6693874437
 11
42.5144981463
 21
19.852899136
  0
LINE
  5
3A1
100
AcDbEntity
  8
0
100
AcDbLine
 62
7
  6
BYLAYER
 10
42.3109439082
 20
19.5621673629
 11
43.9287058207
 21
20.4961811249
  0
LINE
  5
3A2
100
AcDbEntity
  8
0
100
AcDbLine
 62
7
  6
BYLAYER
 10
42.3109439082
 20
19.3889610441
 11
43.7251515827
 21
20.2054493519
  0
LINE
  5
3A3
100
AcDbEntity
  8
0
100
AcDbLine
 62
7
  6
BYLAYER
 10
43.9287058207
 20
19.8528850266
 11
42.5144981463
 21
19.0363967189
  0
LINE
  5
3A4
100
AcDbEntity
  8
0
100
AcDbLine
 62
7
  6
BYLAYER
 10
42.3109439082
 20
18.7456649458
 11
43.9287058207
 21
19.6796787078
  0
LINE
  5
3A5
100
AcDbEntity
  8
0
100
AcDbLine
 62
7
  6
BYLAYER
 10
42.3109439082
 20
18.572458627
 11
43.7251515827
 21
19.3889469347
  0
LINE
  5
3A6
100
AcDbEntity
  8
0
100
AcDbLine
 62
7
  6
BYLAYER
 10
43.9287058207
 20
19.0363826095
 11
42.5144981463
 21
18.2198943017
  0
LINE
  5
3A7
100
AcDbEntity
  8
0
100
AcDbLine
 62
7
  6
BYLAYER
 10
42.3109439082
 20
17.9291625287
 11
43.9287058207
 21
18.8631762907
  0
LINE
  5
3A8
100
AcDbEntity
  8
0
100
AcDbLine
 62
7
  6
BYLAYER
 10
42.3109439082
 20
17.7559562099
 11
43.7251515827
 21
18.5724445176
  0
LINE
  5
3A9
100
AcDbEntity
  8
0
100
AcDbLine
 62
7
  6
BYLAYER
 10
43.9287058207
 20
18.2198801924
 11
42.5144981463
 21
17.4033918846
  0
LINE
  5
3AA
100
AcDbEntity
  8
0
100
AcDbLine
 62
7
  6
BYLAYER
 10
42.3109439082
 20
17.1126601115
 11
43.9287058207
 21
18.0466738736
  0
LINE
  5
3AB
100
AcDbEntity
  8
0
100
AcDbLine
 62
7
  6
BYLAYER
 10
42.3109439082
 20
16.9394537927
 11
43.7251515827
 21
17.7559421005
  0
LINE
  5
3AC
100
AcDbEntity
  8
0
100
AcDbLine
 62
7
  6
BYLAYER
 10
33.658809631
 20
11.3555887089
 11
33.7256172783
 21
11.3954141663
  0
LINE
  5
3AD
100
AcDbEntity
  8
0
100
AcDbLine
 62
7
  6
BYLAYER
 10
43.9287058207
 20
17.4033777752
 11
42.5144981463
 21
16.5868894675
  0
LINE
  5
3AE
100
AcDbEntity
  8
0
100
AcDbLine
 62
7
  6
BYLAYER
 10
42.3109439082
 20
16.2961576944
 11
43.9287058207
 21
17.2301714564
  0
LINE
  5
3AF
100
AcDbEntity
  8
0
100
AcDbLine
 62
7
  6
BYLAYER
 10
42.3109439082
 20
16.1229513756
 11
43.7251515827
 21
16.9394396834
  0
LINE
  5
3B0
100
AcDbEntity
  8
0
100
AcDbLine
 62
7
  6
BYLAYER
 10
43.9294281513
 20
16.5856242517
 11
42.5152204769
 21
15.769135944
  0
LINE
  5
3B1
100
AcDbEntity
  8
0
100
AcDbLine
 62
7
  6
BYLAYER
 10
42.235943596
 20
15.4346844327
 11
43.9294281513
 21
16.4124179329
  0
LINE
  5
3B2
100
AcDbEntity
  8
0
100
AcDbLine
 62
7
  6
BYLAYER
 10
43.6501512704
 20
15.0484257604
 11
42.235943596
 21
14.2319374527
  0
LINE
  5
3B3
100
AcDbEntity
  8
0
100
AcDbLine
 62
7
  6
BYLAYER
 10
42.0828532771
 20
8.694713298
 11
40.6686456027
 21
7.8782249903
  0
LINE
  5
3B4
100
AcDbEntity
  8
0
100
AcDbLine
 62
7
  6
BYLAYER
 10
40.3894839285
 20
7.4696510539
 11
41.8036916029
 21
8.2861393617
  0
SPLINE
  5
3B5
100
AcDbEntity
  8
0
100
AcDbSpline
 62
7
  6
BYLAYER
 70
0
 71
3
 72
13
 73
9
 74
0
 42
0.0000001
 43
0.0000001
 44
0.0000000001
 40
0.0
 40
0.0
 40
0.0
 40
0.0
 40
0.2759612666
 40
0.5308383235
 40
0.6519609491
 40
0.7698519149
 40
0.8854995672
 40
1.0
 40
1.0
 40
1.0
 40
1.0
 10
34.4520411598
 20
76.4782625254
 30
0.0
 10
34.4309734657
 20
76.3791082049
 30
0.0
 10
34.3761549738
 20
76.1909211123
 30
0.0
 10
34.2675446191
 20
75.9755516668
 30
0.0
 10
34.1604612516
 20
75.8286879746
 30
0.0
 10
34.0720921745
 20
75.7325525462
 30
0.0
 10
33.974769423
 20
75.6491961071
 30
0.0
 10
33.9041030596
 20
75.6023331859
 30
0.0
 10
33.8676802104
 20
75.5813014123
 30
0.0
  0
SPLINE
  5
3B6
100
AcDbEntity
  8
0
100
AcDbSpline
 62
7
  6
BYLAYER
 70
0
 71
3
 72
13
 73
9
 74
0
 42
0.0000001
 43
0.0000001
 44
0.0000000001
 40
0.0
 40
0.0
 40
0.0
 40
0.0
 40
0.1139284423
 40
0.2290792827
 40
0.3466081332
 40
0.4675590724
 40
0.7227501303
 40
1.0
 40
1.0
 40
1.0
 40
1.0
 10
30.8051994447
 20
80.885705451
 30
0.0
 10
30.8428548785
 20
80.9074489602
 30
0.0
 10
30.9214692683
 20
80.9463502013
 30
0.0
 10
31.0468152672
 20
80.9896494268
 30
0.0
 10
31.179145085
 20
81.0178496519
 30
0.0
 10
31.3671152762
 20
81.0354090733
 30
0.0
 10
31.6176793174
 20
81.0169267893
 30
0.0
 10
31.8150960358
 20
80.9643340156
 30
0.0
 10
31.915024719
 20
80.9295301167
 30
0.0
  0
SPLINE
  5
3B7
100
AcDbEntity
  8
0
100
AcDbSpline
 62
7
  6
BYLAYER
 70
0
 71
3
 72
25
 73
21
 74
0
 42
0.0000001
 43
0.0000001
 44
0.0000000001
 40
0.0
 40
0.0
 40
0.0
 40
0.0
 40
0.0213325186
 40
0.0428935529
 40
0.06489915
 40
0.0875445441
 40
0.1353201787
 40
0.1872212251
 40
0.2436586519
 40
0.304606075
 40
0.3696932861
 40
0.4382900401
 40
0.509576027
 40
0.5825998882
 40
0.6563314174
 40
0.7297074009
 40
0.8016837477
 40
0.8712746751
 40
0.9376182685
 40
1.0
 40
1.0
 40
1.0
 40
1.0
 10
33.8676802104
 20
75.5813014123
 30
0.0
 10
33.8300559052
 20
75.5595758777
 30
0.0
 10
33.7515096152
 20
75.5207031545
 30
0.0
 10
33.6262775825
 20
75.4774211906
 30
0.0
 10
33.4940705697
 20
75.4492131435
 30
0.0
 10
33.3062896993
 20
75.4316063856
 30
0.0
 10
33.055923104
 20
75.4499790656
 30
0.0
 10
32.7472326393
 20
75.5320299718
 30
0.0
 10
32.4307789559
 20
75.6718741282
 30
0.0
 10
32.112977775
 20
75.8663080054
 30
0.0
 10
31.800248996
 20
76.1111364047
 30
0.0
 10
31.499096552
 20
76.4011740777
 30
0.0
 10
31.2158547767
 20
76.7302720045
 30
0.0
 10
30.9565320118
 20
77.0914341275
 30
0.0
 10
30.7266562387
 20
77.4769628766
 30
0.0
 10
30.5311226185
 20
77.8786339635
 30
0.0
 10
30.3741172815
 20
78.2878788579
 30
0.0
 10
30.258953846
 20
78.6960297162
 30
0.0
 10
30.1881336302
 20
79.0943525557
 30
0.0
 10
30.1709162943
 20
79.3566924587
 30
0.0
 10
30.1709162943
 20
79.4837407424
 30
0.0
  0
SPLINE
  5
3B8
100
AcDbEntity
  8
0
100
AcDbSpline
 62
7
  6
BYLAYER
 70
0
 71
3
 72
15
 73
11
 74
0
 42
0.0000001
 43
0.0000001
 44
0.0000000001
 40
0.0
 40
0.0
 40
0.0
 40
0.0
 40
0.1485639792
 40
0.2895079207
 40
0.422726887
 40
0.5486379304
 40
0.6680004068
 40
0.7819371787
 40
0.8919854915
 40
1.0
 40
1.0
 40
1.0
 40
1.0
 10
30.1709162943
 20
79.4837407424
 30
0.0
 10
30.1709162943
 20
79.5634868716
 30
0.0
 10
30.1773567603
 20
79.7189952921
 30
0.0
 10
30.2079516301
 20
79.9441945086
 30
0.0
 10
30.2590912118
 20
80.1532251509
 30
0.0
 10
30.3303605053
 20
80.3440379637
 30
0.0
 10
30.4211785099
 20
80.5148239945
 30
0.0
 10
30.5308944406
 20
80.6638122683
 30
0.0
 10
30.6584448
 20
80.7893565162
 30
0.0
 10
30.7549891049
 20
80.8567123183
 30
0.0
 10
30.8051994447
 20
80.885705451
 30
0.0
  0
SPLINE
  5
3B9
100
AcDbEntity
  8
0
100
AcDbSpline
 62
7
  6
BYLAYER
 70
0
 71
3
 72
15
 73
11
 74
0
 42
0.0000001
 43
0.0000001
 44
0.0000000001
 40
0.0
 40
0.0
 40
0.0
 40
0.0
 40
0.1485891519
 40
0.2895060481
 40
0.422721046
 40
0.5486419971
 40
0.668000167
 40
0.7819373447
 40
0.8919870172
 40
1.0
 40
1.0
 40
1.0
 40
1.0
 10
42.2359494839
 20
76.1923149561
 30
0.0
 10
42.2359494839
 20
75.9448969708
 30
0.0
 10
42.2160033664
 20
75.4625037514
 30
0.0
 10
42.1210467028
 20
74.7639405784
 30
0.0
 10
41.96241451
 20
74.1155575755
 30
0.0
 10
41.7413842424
 20
73.5236224245
 30
0.0
 10
41.4596047983
 20
72.9938562289
 30
0.0
 10
41.119292839
 20
72.5316718072
 30
0.0
 10
40.7236155747
 20
72.1422363831
 30
0.0
 10
40.4241375805
 20
71.9332865702
 30
0.0
 10
40.2683822065
 20
71.8433547749
 30
0.0
  0
SPLINE
  5
3BA
100
AcDbEntity
  8
0
100
AcDbSpline
 62
7
  6
BYLAYER
 70
0
 71
3
 72
32
 73
28
 74
0
 42
0.0000001
 43
0.0000001
 44
0.0000000001
 40
0.0
 40
0.0
 40
0.0
 40
0.0
 40
0.0306624682
 40
0.0623963869
 40
0.0951150465
 40
0.1287402155
 40
0.1983158339
 40
0.2702739336
 40
0.3436326933
 40
0.4173456559
 40
0.4903514755
 40
0.5616199926
 40
0.6302001744
 40
0.6632306774
 40
0.6952959277
 40
0.7263236002
 40
0.7562580584
 40
0.785061522
 40
0.8127187381
 40
0.8392375227
 40
0.8646545069
 40
0.8890351866
 40
0.9124789988
 40
0.9351180482
 40
0.9571180103
 40
0.9786731905
 40
1.0
 40
1.0
 40
1.0
 40
1.0
 10
24.9117936014
 20
81.7035464457
 30
0.0
 10
24.9117936014
 20
81.5097815291
 30
0.0
 10
24.9245969704
 20
81.1153921077
 30
0.0
 10
24.9796143718
 20
80.5165487871
 30
0.0
 10
25.070595219
 20
79.9031621889
 30
0.0
 10
25.2410375391
 20
79.0609996971
 30
0.0
 10
25.5421170205
 20
77.9939212442
 30
0.0
 10
26.0291576091
 20
76.7244645261
 30
0.0
 10
26.6357081677
 20
75.4784381531
 30
0.0
 10
27.3487988038
 20
74.2825157852
 30
0.0
 10
28.1532454579
 20
73.1621565178
 30
0.0
 10
29.0318335065
 20
72.1413328699
 30
0.0
 10
29.8201054743
 20
71.3821322227
 30
0.0
 10
30.472595964
 20
70.8450843384
 30
0.0
 10
30.962185105
 20
70.4849808563
 30
0.0
 10
31.4554295615
 20
70.1645001696
 30
0.0
 10
31.9496953051
 20
69.8853499218
 30
0.0
 10
32.4423645472
 20
69.6490776906
 30
0.0
 10
32.9307969835
 20
69.4569297637
 30
0.0
 10
33.4124299167
 20
69.3100378665
 30
0.0
 10
33.8846881322
 20
69.2091798895
 30
0.0
 10
34.3450812046
 20
69.1550647237
 30
0.0
 10
34.791128262
 20
69.1480197644
 30
0.0
 10
35.2203904187
 20
69.1882944206
 30
0.0
 10
35.6304830623
 20
69.2757563849
 30
0.0
 10
36.0189484099
 20
69.4100484912
 30
0.0
 10
36.2625985977
 20
69.5306234859
 30
0.0
 10
36.3793109815
 20
69.5980121397
 30
0.0
  0
SPLINE
  5
3BB
100
AcDbEntity
  8
0
100
AcDbSpline
 62
7
  6
BYLAYER
 70
0
 71
3
 72
15
 73
11
 74
0
 42
0.0000001
 43
0.0000001
 44
0.0000000001
 40
0.0
 40
0.0
 40
0.0
 40
0.0
 40
0.1485640026
 40
0.2895079761
 40
0.4227269514
 40
0.5486380098
 40
0.6680005149
 40
0.7819373005
 40
0.8919855773
 40
1.0
 40
1.0
 40
1.0
 40
1.0
 10
34.4577748909
 20
76.1922962597
 30
0.0
 10
34.4577748909
 20
76.0881380337
 30
0.0
 10
34.4493628397
 20
75.8850249567
 30
0.0
 10
34.4094021951
 20
75.5908871592
 30
0.0
 10
34.3426076146
 20
75.3178675093
 30
0.0
 10
34.249521151
 20
75.0686425869
 30
0.0
 10
34.130901679
 20
74.8455750909
 30
0.0
 10
33.9875991886
 20
74.6509781935
 30
0.0
 10
33.8210028551
 20
74.4870020923
 30
0.0
 10
33.6949042497
 20
74.3990272018
 30
0.0
 10
33.6293234449
 20
74.3611586591
 30
0.0
  0
SPLINE
  5
3BC
100
AcDbEntity
  8
0
100
AcDbSpline
 62
7
  6
BYLAYER
 70
0
 71
3
 72
25
 73
21
 74
0
 42
0.0000001
 43
0.0000001
 44
0.0000000001
 40
0.0
 40
0.0
 40
0.0
 40
0.0
 40
0.0213325065
 40
0.0428935382
 40
0.064899136
 40
0.087544529
 40
0.1353201601
 40
0.1872212011
 40
0.2436586188
 40
0.3046060314
 40
0.3696932338
 40
0.4382899857
 40
0.5095759751
 40
0.5825998497
 40
0.6563313531
 40
0.7297073204
 40
0.801683703
 40
0.8712746583
 40
0.9376182644
 40
1.0
 40
1.0
 40
1.0
 40
1.0
 10
29.6293485358
 20
81.2893598964
 30
0.0
 10
29.6784904611
 20
81.3177360821
 30
0.0
 10
29.7810815148
 20
81.3685085652
 30
0.0
 10
29.9446498325
 20
81.4250401395
 30
0.0
 10
30.1173283718
 20
81.4618833086
 30
0.0
 10
30.3625931678
 20
81.4848799253
 30
0.0
 10
30.6896025736
 20
81.4608829566
 30
0.0
 10
31.0927900811
 20
81.3537144768
 30
0.0
 10
31.5061172917
 20
81.1710609353
 30
0.0
 10
31.921204504
 20
80.9171065574
 30
0.0
 10
32.3296665676
 20
80.597330761
 30
0.0
 10
32.723008547
 20
80.21850609
 30
0.0
 10
33.0929570505
 20
79.7886639037
 30
0.0
 10
33.4316643196
 20
79.3169419691
 30
0.0
 10
33.7319102592
 20
78.8133943227
 30
0.0
 10
33.9873010998
 20
78.2887627119
 30
0.0
 10
34.1923693943
 20
77.7542386719
 30
0.0
 10
34.3427870378
 20
77.2211434869
 30
0.0
 10
34.4352869319
 20
76.7008849665
 30
0.0
 10
34.4577748909
 20
76.358236886
 30
0.0
 10
34.4577748909
 20
76.1922962597
 30
0.0
  0
SPLINE
  5
3BD
100
AcDbEntity
  8
0
100
AcDbSpline
 62
7
  6
BYLAYER
 70
0
 71
3
 72
15
 73
11
 74
0
 42
0.0000001
 43
0.0000001
 44
0.0000000001
 40
0.0
 40
0.0
 40
0.0
 40
0.0
 40
0.1080125728
 40
0.2180619255
 40
0.3319989476
 40
0.4513571527
 40
0.5772781795
 40
0.7104933964
 40
0.8514107934
 40
1.0
 40
1.0
 40
1.0
 40
1.0
 10
26.8793609991
 20
86.0525064158
 30
0.0
 10
26.7236061862
 20
85.9625750237
 30
0.0
 10
26.4241291558
 20
85.753626019
 30
0.0
 10
26.0284524157
 20
85.3641921945
 30
0.0
 10
25.6881407332
 20
84.9020084735
 30
0.0
 10
25.406360933
 20
84.3722426118
 30
0.0
 10
25.1853294203
 20
83.7803073451
 30
0.0
 10
25.0266967796
 20
83.131923067
 30
0.0
 10
24.9317400013
 20
82.4333586373
 30
0.0
 10
24.9117936014
 20
81.9509645154
 30
0.0
 10
24.9117936014
 20
81.7035464457
 30
0.0
  0
SPLINE
  5
3BE
100
AcDbEntity
  8
0
100
AcDbSpline
 62
7
  6
BYLAYER
 70
0
 71
3
 72
32
 73
28
 74
0
 42
0.0000001
 43
0.0000001
 44
0.0000000001
 40
0.0
 40
0.0
 40
0.0
 40
0.0
 40
0.0213268537
 40
0.0428820759
 40
0.0648820851
 40
0.0875211845
 40
0.1109650634
 40
0.1353458204
 40
0.1607628961
 40
0.18728177
 40
0.2149390697
 40
0.2437425843
 40
0.2736770622
 40
0.3047047022
 40
0.3367698845
 40
0.3698002822
 40
0.4383802177
 40
0.5096485016
 40
0.582654106
 40
0.6563668481
 40
0.7297254633
 40
0.8016835966
 40
0.8712593839
 40
0.9048846445
 40
0.937603452
 40
0.9693374991
 40
1.0
 40
1.0
 40
1.0
 40
1.0
 10
30.7684319835
 20
88.2978494733
 30
0.0
 10
30.8851445834
 20
88.3652383111
 30
0.0
 10
31.1287955235
 20
88.4858130037
 30
0.0
 10
31.5172615072
 20
88.6201058295
 30
0.0
 10
31.9273551948
 20
88.7075672243
 30
0.0
 10
32.3566183723
 20
88.7478419869
 30
0.0
 10
32.80266666
 20
88.7407962493
 30
0.0
 10
33.2630611725
 20
88.6866805964
 30
0.0
 10
33.7353208054
 20
88.5858214139
 30
0.0
 10
34.2169552111
 20
88.4389286041
 30
0.0
 10
34.7053885589
 20
88.2467791233
 30
0.0
 10
35.1980585066
 20
88.0105061103
 30
0.0
 10
35.6923238753
 20
87.731354704
 30
0.0
 10
36.1855677269
 20
87.4108740362
 30
0.0
 10
36.6751552543
 20
87.0507705485
 30
0.0
 10
37.3276434415
 20
86.5137240577
 30
0.0
 10
38.1159122494
 20
85.7545254624
 30
0.0
 10
38.99449731
 20
84.7337050716
 30
0.0
 10
39.7989416597
 20
83.6133493644
 30
0.0
 10
40.5120308997
 20
82.4174304518
 30
0.0
 10
41.1185813332
 20
81.1714063512
 30
0.0
 10
41.605622893
 20
79.9019496218
 30
0.0
 10
41.9067037695
 20
78.8348696102
 30
0.0
 10
42.0771468456
 20
77.992704638
 30
0.0
 10
42.1681284064
 20
77.3793157886
 30
0.0
 10
42.2231458716
 20
76.7804705114
 30
0.0
 10
42.2359494839
 20
76.3860800796
 30
0.0
 10
42.2359494839
 20
76.1923149561
 30
0.0
  0
SPLINE
  5
3BF
100
AcDbEntity
  8
0
100
AcDbSpline
 62
7
  6
BYLAYER
 70
0
 71
3
 72
15
 73
11
 74
0
 42
0.0000001
 43
0.0000001
 44
0.0000000001
 40
0.0
 40
0.0
 40
0.0
 40
0.0
 40
0.1080125728
 40
0.2180619255
 40
0.3319989476
 40
0.4513571527
 40
0.5772781795
 40
0.7104933964
 40
0.8514107934
 40
1.0
 40
1.0
 40
1.0
 40
1.0
 10
36.3793109815
 20
69.5980121397
 30
0.0
 10
36.5350657945
 20
69.6879435319
 30
0.0
 10
36.8345428248
 20
69.8968925365
 30
0.0
 10
37.2302195649
 20
70.286326361
 30
0.0
 10
37.5705312475
 20
70.748510082
 30
0.0
 10
37.8523110477
 20
71.2782759437
 30
0.0
 10
38.0733425604
 20
71.8702112104
 30
0.0
 10
38.231975201
 20
72.5185954885
 30
0.0
 10
38.3269319794
 20
73.2171599183
 30
0.0
 10
38.3468783792
 20
73.6995540402
 30
0.0
 10
38.3468783792
 20
73.9469721098
 30
0.0
  0
SPLINE
  5
3C0
100
AcDbEntity
  8
0
100
AcDbSpline
 62
7
  6
BYLAYER
 70
0
 71
3
 72
25
 73
21
 74
0
 42
0.0000001
 43
0.0000001
 44
0.0000000001
 40
0.0
 40
0.0
 40
0.0
 40
0.0
 40
0.0213325065
 40
0.0428935382
 40
0.064899136
 40
0.087544529
 40
0.1353201601
 40
0.1872212011
 40
0.2436586188
 40
0.3046060314
 40
0.3696932338
 40
0.4382899857
 40
0.5095759751
 40
0.5825998497
 40
0.6563313531
 40
0.7297073204
 40
0.801683703
 40
0.8712746583
 40
0.9376182644
 40
1.0
 40
1.0
 40
1.0
 40
1.0
 10
33.6293234449
 20
74.3611586591
 30
0.0
 10
33.5801815195
 20
74.3327824734
 30
0.0
 10
33.4775904658
 20
74.2820099903
 30
0.0
 10
33.3140221481
 20
74.225478416
 30
0.0
 10
33.1413436089
 20
74.1886352469
 30
0.0
 10
32.8960788129
 20
74.1656386302
 30
0.0
 10
32.5690694071
 20
74.189635599
 30
0.0
 10
32.1658818996
 20
74.2968040787
 30
0.0
 10
31.752554689
 20
74.4794576202
 30
0.0
 10
31.3374674767
 20
74.7334119982
 30
0.0
 10
30.9290054131
 20
75.0531877946
 30
0.0
 10
30.5356634336
 20
75.4320124655
 30
0.0
 10
30.1657149302
 20
75.8618546518
 30
0.0
 10
29.8270076611
 20
76.3335765864
 30
0.0
 10
29.5267617215
 20
76.8371242328
 30
0.0
 10
29.2713708808
 20
77.3617558437
 30
0.0
 10
29.0663025863
 20
77.8962798836
 30
0.0
 10
28.9158849428
 20
78.4293750687
 30
0.0
 10
28.8233850488
 20
78.949633589
 30
0.0
 10
28.8008970897
 20
79.2922816695
 30
0.0
 10
28.8008970897
 20
79.4582222958
 30
0.0
  0
SPLINE
  5
3C1
100
AcDbEntity
  8
0
100
AcDbSpline
 62
7
  6
BYLAYER
 70
0
 71
3
 72
32
 73
28
 74
0
 42
0.0000001
 43
0.0000001
 44
0.0000000001
 40
0.0
 40
0.0
 40
0.0
 40
0.0
 40
0.0306624682
 40
0.0623963869
 40
0.0951150465
 40
0.1287402155
 40
0.1983158339
 40
0.2702739336
 40
0.3436326933
 40
0.4173456559
 40
0.4903514755
 40
0.5616199926
 40
0.6302001744
 40
0.6632306774
 40
0.6952959277
 40
0.7263236002
 40
0.7562580584
 40
0.785061522
 40
0.8127187381
 40
0.8392375227
 40
0.8646545069
 40
0.8890351866
 40
0.9124789988
 40
0.9351180482
 40
0.9571180103
 40
0.9786731905
 40
1.0
 40
1.0
 40
1.0
 40
1.0
 10
38.3468783792
 20
73.9469721098
 30
0.0
 10
38.3468783792
 20
74.1407370264
 30
0.0
 10
38.3340750103
 20
74.5351264478
 30
0.0
 10
38.2790576088
 20
75.1339697685
 30
0.0
 10
38.1880767617
 20
75.7473563667
 30
0.0
 10
38.0176344415
 20
76.5895188584
 30
0.0
 10
37.7165549601
 20
77.6565973114
 30
0.0
 10
37.2295143715
 20
78.9260540294
 30
0.0
 10
36.6229638129
 20
80.1720804024
 30
0.0
 10
35.9098731768
 20
81.3680027704
 30
0.0
 10
35.1054265227
 20
82.4883620378
 30
0.0
 10
34.2268384742
 20
83.5091856857
 30
0.0
 10
33.4385665064
 20
84.2683863328
 30
0.0
 10
32.7860760167
 20
84.8054342171
 30
0.0
 10
32.2964868757
 20
85.1655376993
 30
0.0
 10
31.8032424191
 20
85.486018386
 30
0.0
 10
31.3089766755
 20
85.7651686337
 30
0.0
 10
30.8163074335
 20
86.0014408649
 30
0.0
 10
30.3278749972
 20
86.1935887918
 30
0.0
 10
29.8462420639
 20
86.340480689
 30
0.0
 10
29.3739838485
 20
86.4413386661
 30
0.0
 10
28.9135907761
 20
86.4954538318
 30
0.0
 10
28.4675437187
 20
86.5024987911
 30
0.0
 10
28.038281562
 20
86.4622241349
 30
0.0
 10
27.6281889183
 20
86.3747621706
 30
0.0
 10
27.2397235707
 20
86.2404700643
 30
0.0
 10
26.996073383
 20
86.1198950696
 30
0.0
 10
26.8793609991
 20
86.0525064158
 30
0.0
  0
SPLINE
  5
3C2
100
AcDbEntity
  8
0
100
AcDbSpline
 62
7
  6
BYLAYER
 70
0
 71
3
 72
15
 73
11
 74
0
 42
0.0000001
 43
0.0000001
 44
0.0000000001
 40
0.0
 40
0.0
 40
0.0
 40
0.0
 40
0.1485640026
 40
0.2895079761
 40
0.4227269514
 40
0.5486380098
 40
0.6680005149
 40
0.7819373005
 40
0.8919855773
 40
1.0
 40
1.0
 40
1.0
 40
1.0
 10
28.8008970897
 20
79.4582222958
 30
0.0
 10
28.8008970897
 20
79.5623805218
 30
0.0
 10
28.809309141
 20
79.7654935988
 30
0.0
 10
28.8492697856
 20
80.0596313963
 30
0.0
 10
28.9160643661
 20
80.3326510463
 30
0.0
 10
29.0091508297
 20
80.5818759686
 30
0.0
 10
29.1277703017
 20
80.8049434646
 30
0.0
 10
29.2710727921
 20
80.999540362
 30
0.0
 10
29.4376691256
 20
81.1635164632
 30
0.0
 10
29.5637677309
 20
81.2514913537
 30
0.0
 10
29.6293485358
 20
81.2893598964
 30
0.0
  0
SPLINE
  5
3C3
100
AcDbEntity
  8
0
100
AcDbSpline
 62
7
  6
BYLAYER
 70
0
 71
3
 72
11
 73
7
 74
0
 42
0.0000001
 43
0.0000001
 44
0.0000000001
 40
0.0
 40
0.0
 40
0.0
 40
0.0
 40
0.1863673369
 40
0.4150179814
 40
0.6929276535
 40
1.0
 40
1.0
 40
1.0
 40
1.0
 10
29.9365237182
 20
58.9582260437
 30
0.0
 10
29.9264130881
 20
58.9523885018
 30
0.0
 10
29.9090525674
 20
58.9304200171
 30
0.0
 10
29.902956262
 20
58.8862852557
 30
0.0
 10
29.9120232263
 20
58.8355802837
 30
0.0
 10
29.9269055268
 20
58.8016788285
 30
0.0
 10
29.9365237182
 20
58.7850197249
 30
0.0
  0
SPLINE
  5
3C4
100
AcDbEntity
  8
0
100
AcDbSpline
 62
7
  6
BYLAYER
 70
0
 71
3
 72
11
 73
7
 74
0
 42
0.0000001
 43
0.0000001
 44
0.0000000001
 40
0.0
 40
0.0
 40
0.0
 40
0.0
 40
0.3070706355
 40
0.5849787224
 40
0.81363115
 40
1.0
 40
1.0
 40
1.0
 40
1.0
 10
30.1400779562
 20
59.2489578167
 30
0.0
 10
30.1496960911
 20
59.2322988109
 30
0.0
 10
30.1645784604
 20
59.1983976386
 30
0.0
 10
30.1736454233
 20
59.1476927308
 30
0.0
 10
30.1675490694
 20
59.1035579649
 30
0.0
 10
30.1501886653
 20
59.0815890854
 30
0.0
 10
30.1400779562
 20
59.0757514979
 30
0.0
  0
SPLINE
  5
3C5
100
AcDbEntity
  8
0
100
AcDbSpline
 62
7
  6
BYLAYER
 70
0
 71
3
 72
11
 73
7
 74
0
 42
0.0000001
 43
0.0000001
 44
0.0000000001
 40
0.0
 40
0.0
 40
0.0
 40
0.0
 40
0.1863673369
 40
0.4150179814
 40
0.6929276535
 40
1.0
 40
1.0
 40
1.0
 40
1.0
 10
29.9365237182
 20
59.7747284608
 30
0.0
 10
29.9264130881
 20
59.7688909189
 30
0.0
 10
29.9090525674
 20
59.7469224343
 30
0.0
 10
29.902956262
 20
59.7027876728
 30
0.0
 10
29.9120232263
 20
59.6520827008
 30
0.0
 10
29.9269055268
 20
59.6181812456
 30
0.0
 10
29.9365237182
 20
59.601522142
 30
0.0
  0
SPLINE
  5
3C6
100
AcDbEntity
  8
0
100
AcDbSpline
 62
7
  6
BYLAYER
 70
0
 71
3
 72
11
 73
7
 74
0
 42
0.0000001
 43
0.0000001
 44
0.0000000001
 40
0.0
 40
0.0
 40
0.0
 40
0.0
 40
0.3070706355
 40
0.5849787224
 40
0.81363115
 40
1.0
 40
1.0
 40
1.0
 40
1.0
 10
30.1400779562
 20
60.0654602339
 30
0.0
 10
30.1496960911
 20
60.048801228
 30
0.0
 10
30.1645784604
 20
60.0149000557
 30
0.0
 10
30.1736454233
 20
59.9641951479
 30
0.0
 10
30.1675490694
 20
59.920060382
 30
0.0
 10
30.1501886653
 20
59.8980915026
 30
0.0
 10
30.1400779562
 20
59.8922539151
 30
0.0
  0
SPLINE
  5
3C7
100
AcDbEntity
  8
0
100
AcDbSpline
 62
7
  6
BYLAYER
 70
0
 71
3
 72
11
 73
7
 74
0
 42
0.0000001
 43
0.0000001
 44
0.0000000001
 40
0.0
 40
0.0
 40
0.0
 40
0.0
 40
0.1863673369
 40
0.4150179814
 40
0.6929276535
 40
1.0
 40
1.0
 40
1.0
 40
1.0
 10
29.9365237182
 20
60.5912308779
 30
0.0
 10
29.9264130881
 20
60.585393336
 30
0.0
 10
29.9090525674
 20
60.5634248514
 30
0.0
 10
29.902956262
 20
60.51929009
 30
0.0
 10
29.9120232263
 20
60.4685851179
 30
0.0
 10
29.9269055268
 20
60.4346836627
 30
0.0
 10
29.9365237182
 20
60.4180245591
 30
0.0
  0
SPLINE
  5
3C8
100
AcDbEntity
  8
0
100
AcDbSpline
 62
7
  6
BYLAYER
 70
0
 71
3
 72
11
 73
7
 74
0
 42
0.0000001
 43
0.0000001
 44
0.0000000001
 40
0.0
 40
0.0
 40
0.0
 40
0.0
 40
0.3070706355
 40
0.5849787224
 40
0.81363115
 40
1.0
 40
1.0
 40
1.0
 40
1.0
 10
30.1400779562
 20
60.881962651
 30
0.0
 10
30.1496960911
 20
60.8653036452
 30
0.0
 10
30.1645784604
 20
60.8314024728
 30
0.0
 10
30.1736454233
 20
60.7806975651
 30
0.0
 10
30.1675490694
 20
60.7365627992
 30
0.0
 10
30.1501886653
 20
60.7145939197
 30
0.0
 10
30.1400779562
 20
60.7087563322
 30
0.0
  0
SPLINE
  5
3C9
100
AcDbEntity
  8
0
100
AcDbSpline
 62
7
  6
BYLAYER
 70
0
 71
3
 72
11
 73
7
 74
0
 42
0.0000001
 43
0.0000001
 44
0.0000000001
 40
0.0
 40
0.0
 40
0.0
 40
0.0
 40
0.1863673369
 40
0.4150179814
 40
0.6929276535
 40
1.0
 40
1.0
 40
1.0
 40
1.0
 10
29.9365237182
 20
61.4077332951
 30
0.0
 10
29.9264130881
 20
61.4018957532
 30
0.0
 10
29.9090525674
 20
61.3799272685
 30
0.0
 10
29.902956262
 20
61.3357925071
 30
0.0
 10
29.9120232263
 20
61.2850875351
 30
0.0
 10
29.9269055268
 20
61.2511860799
 30
0.0
 10
29.9365237182
 20
61.2345269762
 30
0.0
  0
SPLINE
  5
3CA
100
AcDbEntity
  8
0
100
AcDbSpline
 62
7
  6
BYLAYER
 70
0
 71
3
 72
11
 73
7
 74
0
 42
0.0000001
 43
0.0000001
 44
0.0000000001
 40
0.0
 40
0.0
 40
0.0
 40
0.0
 40
0.3070706355
 40
0.5849787224
 40
0.81363115
 40
1.0
 40
1.0
 40
1.0
 40
1.0
 10
30.1400779562
 20
61.6984650681
 30
0.0
 10
30.1496960911
 20
61.6818060623
 30
0.0
 10
30.1645784604
 20
61.64790489
 30
0.0
 10
30.1736454233
 20
61.5971999822
 30
0.0
 10
30.1675490694
 20
61.5530652163
 30
0.0
 10
30.1501886653
 20
61.5310963368
 30
0.0
 10
30.1400779562
 20
61.5252587493
 30
0.0
  0
SPLINE
  5
3CB
100
AcDbEntity
  8
0
100
AcDbSpline
 62
7
  6
BYLAYER
 70
0
 71
3
 72
11
 73
7
 74
0
 42
0.0000001
 43
0.0000001
 44
0.0000000001
 40
0.0
 40
0.0
 40
0.0
 40
0.0
 40
0.1863673369
 40
0.4150179814
 40
0.6929276535
 40
1.0
 40
1.0
 40
1.0
 40
1.0
 10
29.9365237182
 20
62.2242357122
 30
0.0
 10
29.9264130881
 20
62.2183981703
 30
0.0
 10
29.9090525674
 20
62.1964296857
 30
0.0
 10
29.902956262
 20
62.1522949242
 30
0.0
 10
29.9120232263
 20
62.1015899522
 30
0.0
 10
29.9269055268
 20
62.067688497
 30
0.0
 10
29.9365237182
 20
62.0510293934
 30
0.0
  0
SPLINE
  5
3CC
100
AcDbEntity
  8
0
100
AcDbSpline
 62
7
  6
BYLAYER
 70
0
 71
3
 72
11
 73
7
 74
0
 42
0.0000001
 43
0.0000001
 44
0.0000000001
 40
0.0
 40
0.0
 40
0.0
 40
0.0
 40
0.3070706355
 40
0.5849787224
 40
0.81363115
 40
1.0
 40
1.0
 40
1.0
 40
1.0
 10
30.1400779562
 20
62.5149674852
 30
0.0
 10
30.1496960911
 20
62.4983084794
 30
0.0
 10
30.1645784604
 20
62.4644073071
 30
0.0
 10
30.1736454233
 20
62.4137023993
 30
0.0
 10
30.1675490694
 20
62.3695676334
 30
0.0
 10
30.1501886653
 20
62.347598754
 30
0.0
 10
30.1400779562
 20
62.3417611664
 30
0.0
  0
SPLINE
  5
3CD
100
AcDbEntity
  8
0
100
AcDbSpline
 62
7
  6
BYLAYER
 70
0
 71
3
 72
11
 73
7
 74
0
 42
0.0000001
 43
0.0000001
 44
0.0000000001
 40
0.0
 40
0.0
 40
0.0
 40
0.0
 40
0.1863673369
 40
0.4150179814
 40
0.6929276535
 40
1.0
 40
1.0
 40
1.0
 40
1.0
 10
29.9365237182
 20
63.0407381293
 30
0.0
 10
29.9264130881
 20
63.0349005874
 30
0.0
 10
29.9090525674
 20
63.0129321028
 30
0.0
 10
29.902956262
 20
62.9687973414
 30
0.0
 10
29.9120232263
 20
62.9180923693
 30
0.0
 10
29.9269055268
 20
62.8841909141
 30
0.0
 10
29.9365237182
 20
62.8675318105
 30
0.0
  0
SPLINE
  5
3CE
100
AcDbEntity
  8
0
100
AcDbSpline
 62
7
  6
BYLAYER
 70
0
 71
3
 72
11
 73
7
 74
0
 42
0.0000001
 43
0.0000001
 44
0.0000000001
 40
0.0
 40
0.0
 40
0.0
 40
0.0
 40
0.3070706355
 40
0.5849787224
 40
0.81363115
 40
1.0
 40
1.0
 40
1.0
 40
1.0
 10
30.1400779562
 20
63.3314699024
 30
0.0
 10
30.1496960911
 20
63.3148108966
 30
0.0
 10
30.1645784604
 20
63.2809097242
 30
0.0
 10
30.1736454233
 20
63.2302048164
 30
0.0
 10
30.1675490694
 20
63.1860700506
 30
0.0
 10
30.1501886653
 20
63.1641011711
 30
0.0
 10
30.1400779562
 20
63.1582635836
 30
0.0
  0
SPLINE
  5
3CF
100
AcDbEntity
  8
0
100
AcDbSpline
 62
7
  6
BYLAYER
 70
0
 71
3
 72
11
 73
7
 74
0
 42
0.0000001
 43
0.0000001
 44
0.0000000001
 40
0.0
 40
0.0
 40
0.0
 40
0.0
 40
0.1863673369
 40
0.4150179814
 40
0.6929276535
 40
1.0
 40
1.0
 40
1.0
 40
1.0
 10
29.9365237182
 20
63.8572405464
 30
0.0
 10
29.9264130881
 20
63.8514030046
 30
0.0
 10
29.9090525674
 20
63.8294345199
 30
0.0
 10
29.902956262
 20
63.7852997585
 30
0.0
 10
29.9120232263
 20
63.7345947864
 30
0.0
 10
29.9269055268
 20
63.7006933313
 30
0.0
 10
29.9365237182
 20
63.6840342276
 30
0.0
  0
SPLINE
  5
3D0
100
AcDbEntity
  8
0
100
AcDbSpline
 62
7
  6
BYLAYER
 70
0
 71
3
 72
11
 73
7
 74
0
 42
0.0000001
 43
0.0000001
 44
0.0000000001
 40
0.0
 40
0.0
 40
0.0
 40
0.0
 40
0.3070706355
 40
0.5849787224
 40
0.81363115
 40
1.0
 40
1.0
 40
1.0
 40
1.0
 10
30.1400779562
 20
64.1479723195
 30
0.0
 10
30.1496960911
 20
64.1313133137
 30
0.0
 10
30.1645784604
 20
64.0974121414
 30
0.0
 10
30.1736454233
 20
64.0467072336
 30
0.0
 10
30.1675490694
 20
64.0025724677
 30
0.0
 10
30.1501886653
 20
63.9806035882
 30
0.0
 10
30.1400779562
 20
63.9747660007
 30
0.0
  0
SPLINE
  5
3D1
100
AcDbEntity
  8
0
100
AcDbSpline
 62
7
  6
BYLAYER
 70
0
 71
3
 72
11
 73
7
 74
0
 42
0.0000001
 43
0.0000001
 44
0.0000000001
 40
0.0
 40
0.0
 40
0.0
 40
0.0
 40
0.1863673369
 40
0.4150179814
 40
0.6929276535
 40
1.0
 40
1.0
 40
1.0
 40
1.0
 10
29.9365237182
 20
64.6737429636
 30
0.0
 10
29.9264130881
 20
64.6679054217
 30
0.0
 10
29.9090525674
 20
64.645936937
 30
0.0
 10
29.902956262
 20
64.6018021756
 30
0.0
 10
29.9120232263
 20
64.5510972036
 30
0.0
 10
29.9269055268
 20
64.5171957484
 30
0.0
 10
29.9365237182
 20
64.5005366448
 30
0.0
  0
SPLINE
  5
3D2
100
AcDbEntity
  8
0
100
AcDbSpline
 62
7
  6
BYLAYER
 70
0
 71
3
 72
11
 73
7
 74
0
 42
0.0000001
 43
0.0000001
 44
0.0000000001
 40
0.0
 40
0.0
 40
0.0
 40
0.0
 40
0.3070706355
 40
0.5849787224
 40
0.81363115
 40
1.0
 40
1.0
 40
1.0
 40
1.0
 10
30.1400779562
 20
64.9644747366
 30
0.0
 10
30.1496960911
 20
64.9478157308
 30
0.0
 10
30.1645784604
 20
64.9139145585
 30
0.0
 10
30.1736454233
 20
64.8632096507
 30
0.0
 10
30.1675490694
 20
64.8190748848
 30
0.0
 10
30.1501886653
 20
64.7971060054
 30
0.0
 10
30.1400779562
 20
64.7912684178
 30
0.0
  0
SPLINE
  5
3D3
100
AcDbEntity
  8
0
100
AcDbSpline
 62
7
  6
BYLAYER
 70
0
 71
3
 72
11
 73
7
 74
0
 42
0.0000001
 43
0.0000001
 44
0.0000000001
 40
0.0
 40
0.0
 40
0.0
 40
0.0
 40
0.1863673369
 40
0.4150179814
 40
0.6929276535
 40
1.0
 40
1.0
 40
1.0
 40
1.0
 10
29.9365237182
 20
65.4902453807
 30
0.0
 10
29.9264130881
 20
65.4844078388
 30
0.0
 10
29.9090525674
 20
65.4624393542
 30
0.0
 10
29.902956262
 20
65.4183045928
 30
0.0
 10
29.9120232263
 20
65.3675996207
 30
0.0
 10
29.9269055268
 20
65.3336981655
 30
0.0
 10
29.9365237182
 20
65.3170390619
 30
0.0
  0
SPLINE
  5
3D4
100
AcDbEntity
  8
0
100
AcDbSpline
 62
7
  6
BYLAYER
 70
0
 71
3
 72
11
 73
7
 74
0
 42
0.0000001
 43
0.0000001
 44
0.0000000001
 40
0.0
 40
0.0
 40
0.0
 40
0.0
 40
0.3070706355
 40
0.5849787224
 40
0.81363115
 40
1.0
 40
1.0
 40
1.0
 40
1.0
 10
30.1400779562
 20
65.7809771538
 30
0.0
 10
30.1496960911
 20
65.764318148
 30
0.0
 10
30.1645784604
 20
65.7304169756
 30
0.0
 10
30.1736454233
 20
65.6797120678
 30
0.0
 10
30.1675490694
 20
65.6355773019
 30
0.0
 10
30.1501886653
 20
65.6136084225
 30
0.0
 10
30.1400779562
 20
65.607770835
 30
0.0
  0
SPLINE
  5
3D5
100
AcDbEntity
  8
0
100
AcDbSpline
 62
7
  6
BYLAYER
 70
0
 71
3
 72
11
 73
7
 74
0
 42
0.0000001
 43
0.0000001
 44
0.0000000001
 40
0.0
 40
0.0
 40
0.0
 40
0.0
 40
0.1863673369
 40
0.4150179814
 40
0.6929276535
 40
1.0
 40
1.0
 40
1.0
 40
1.0
 10
29.9365237182
 20
66.3067477978
 30
0.0
 10
29.9264130881
 20
66.3009102559
 30
0.0
 10
29.9090525674
 20
66.2789417713
 30
0.0
 10
29.902956262
 20
66.2348070099
 30
0.0
 10
29.9120232263
 20
66.1841020378
 30
0.0
 10
29.9269055268
 20
66.1502005827
 30
0.0
 10
29.9365237182
 20
66.133541479
 30
0.0
  0
SPLINE
  5
3D6
100
AcDbEntity
  8
0
100
AcDbSpline
 62
7
  6
BYLAYER
 70
0
 71
3
 72
11
 73
7
 74
0
 42
0.0000001
 43
0.0000001
 44
0.0000000001
 40
0.0
 40
0.0
 40
0.0
 40
0.0
 40
0.3070706355
 40
0.5849787224
 40
0.81363115
 40
1.0
 40
1.0
 40
1.0
 40
1.0
 10
30.1400779562
 20
66.5974795709
 30
0.0
 10
30.1496960911
 20
66.5808205651
 30
0.0
 10
30.1645784604
 20
66.5469193927
 30
0.0
 10
30.1736454233
 20
66.496214485
 30
0.0
 10
30.1675490694
 20
66.4520797191
 30
0.0
 10
30.1501886653
 20
66.4301108396
 30
0.0
 10
30.1400779562
 20
66.4242732521
 30
0.0
  0
SPLINE
  5
3D7
100
AcDbEntity
  8
0
100
AcDbSpline
 62
7
  6
BYLAYER
 70
0
 71
3
 72
11
 73
7
 74
0
 42
0.0000001
 43
0.0000001
 44
0.0000000001
 40
0.0
 40
0.0
 40
0.0
 40
0.0
 40
0.1863673369
 40
0.4150179814
 40
0.6929276535
 40
1.0
 40
1.0
 40
1.0
 40
1.0
 10
29.9365237182
 20
67.123250215
 30
0.0
 10
29.9264130881
 20
67.1174126731
 30
0.0
 10
29.9090525674
 20
67.0954441884
 30
0.0
 10
29.902956262
 20
67.051309427
 30
0.0
 10
29.9120232263
 20
67.000604455
 30
0.0
 10
29.9269055268
 20
66.9667029998
 30
0.0
 10
29.9365237182
 20
66.9500438962
 30
0.0
  0
SPLINE
  5
3D8
100
AcDbEntity
  8
0
100
AcDbSpline
 62
7
  6
BYLAYER
 70
0
 71
3
 72
11
 73
7
 74
0
 42
0.0000001
 43
0.0000001
 44
0.0000000001
 40
0.0
 40
0.0
 40
0.0
 40
0.0
 40
0.3070706355
 40
0.5849787224
 40
0.81363115
 40
1.0
 40
1.0
 40
1.0
 40
1.0
 10
30.1400779562
 20
67.413981988
 30
0.0
 10
30.1496960911
 20
67.3973229822
 30
0.0
 10
30.1645784604
 20
67.3634218099
 30
0.0
 10
30.1736454233
 20
67.3127169021
 30
0.0
 10
30.1675490694
 20
67.2685821362
 30
0.0
 10
30.1501886653
 20
67.2466132568
 30
0.0
 10
30.1400779562
 20
67.2407756692
 30
0.0
  0
SPLINE
  5
3D9
100
AcDbEntity
  8
0
100
AcDbSpline
 62
7
  6
BYLAYER
 70
0
 71
3
 72
11
 73
7
 74
0
 42
0.0000001
 43
0.0000001
 44
0.0000000001
 40
0.0
 40
0.0
 40
0.0
 40
0.0
 40
0.1863673369
 40
0.4150179814
 40
0.6929276535
 40
1.0
 40
1.0
 40
1.0
 40
1.0
 10
29.9372460488
 20
67.9385015257
 30
0.0
 10
29.9271354187
 20
67.9326639838
 30
0.0
 10
29.909774898
 20
67.9106954992
 30
0.0
 10
29.9036785926
 20
67.8665607378
 30
0.0
 10
29.912745557
 20
67.8158557657
 30
0.0
 10
29.9276278574
 20
67.7819543105
 30
0.0
 10
29.9372460488
 20
67.7652952069
 30
0.0
  0
SPLINE
  5
3DA
100
AcDbEntity
  8
0
100
AcDbSpline
 62
7
  6
BYLAYER
 70
0
 71
3
 72
11
 73
7
 74
0
 42
0.0000001
 43
0.0000001
 44
0.0000000001
 40
0.0
 40
0.0
 40
0.0
 40
0.0
 40
0.289693374
 40
0.5490892587
 40
0.7822177797
 40
1.0
 40
1.0
 40
1.0
 40
1.0
 10
39.6394872862
 20
7.5439374725
 30
0.0
 10
39.7053033325
 20
7.5059394201
 30
0.0
 10
39.8362396035
 20
7.4436582852
 30
0.0
 10
40.0374826975
 20
7.3950471382
 30
0.0
 10
40.2263198144
 20
7.399834549
 30
0.0
 10
40.3399911481
 20
7.4411102503
 30
0.0
 10
40.3894791478
 20
7.4696593379
 30
0.0
  0
SPLINE
  5
3DB
100
AcDbEntity
  8
0
100
AcDbSpline
 62
7
  6
BYLAYER
 70
0
 71
3
 72
11
 73
7
 74
0
 42
0.0000001
 43
0.0000001
 44
0.0000000001
 40
0.0
 40
0.0
 40
0.0
 40
0.0
 40
0.2657718428
 40
0.5253306886
 40
0.7718993113
 40
1.0
 40
1.0
 40
1.0
 40
1.0
 10
38.7767713928
 20
8.4188627271
 30
0.0
 10
38.8259024466
 20
8.331365133
 30
0.0
 10
38.933131354
 20
8.1638806116
 30
0.0
 10
39.1183079714
 20
7.9379093353
 30
0.0
 10
39.3203442879
 20
7.7469733132
 30
0.0
 10
39.467563284
 20
7.6431955959
 30
0.0
 10
39.542149531
 20
7.6001341803
 30
0.0
  0
SPLINE
  5
3DC
100
AcDbEntity
  8
0
100
AcDbSpline
 62
7
  6
BYLAYER
 70
0
 71
3
 72
11
 73
7
 74
0
 42
0.0000001
 43
0.0000001
 44
0.0000000001
 40
0.0
 40
0.0
 40
0.0
 40
0.0
 40
0.2896669608
 40
0.5490252551
 40
0.7822233609
 40
1.0
 40
1.0
 40
1.0
 40
1.0
 10
32.9088723335
 20
11.4297719179
 30
0.0
 10
32.9746824656
 20
11.39177728
 30
0.0
 10
33.1056092826
 20
11.3295239063
 30
0.0
 10
33.3068426143
 20
11.2808539086
 30
0.0
 10
33.4956878146
 20
11.2856828095
 30
0.0
 10
33.6093793396
 20
11.3269424168
 30
0.0
 10
33.6588672831
 20
11.3554888224
 30
0.0
  0
SPLINE
  5
3DD
100
AcDbEntity
  8
0
100
AcDbSpline
 62
7
  6
BYLAYER
 70
0
 71
3
 72
12
 73
8
 74
0
 42
0.0000001
 43
0.0000001
 44
0.0000000001
 40
0.0
 40
0.0
 40
0.0
 40
0.0
 40
0.2505700906
 40
0.512953685
 40
0.7683507201
 40
0.8881420757
 40
1.0
 40
1.0
 40
1.0
 40
1.0
 10
31.7823762618
 20
13.0085989218
 30
0.0
 10
31.8120723866
 20
12.8539236288
 30
0.0
 10
31.9107975006
 20
12.5439697514
 30
0.0
 10
32.1432938855
 20
12.1179324463
 30
0.0
 10
32.3992027618
 20
11.8054976205
 30
0.0
 10
32.6298577603
 20
11.6033684768
 30
0.0
 10
32.7506437807
 20
11.5211231488
 30
0.0
 10
32.8115345783
 20
11.4859686257
 30
0.0
  0
SPLINE
  5
3DE
100
AcDbEntity
  8
0
100
AcDbSpline
 62
7
  6
BYLAYER
 70
0
 71
3
 72
11
 73
7
 74
0
 42
0.0000001
 43
0.0000001
 44
0.0000000001
 40
0.0
 40
0.0
 40
0.0
 40
0.0
 40
0.1863673369
 40
0.4150179814
 40
0.6929276536
 40
1.0
 40
1.0
 40
1.0
 40
1.0
 10
29.9358013875
 20
23.0317026402
 30
0.0
 10
29.9256907575
 20
23.0258650984
 30
0.0
 10
29.9083302368
 20
23.0038966137
 30
0.0
 10
29.9022339314
 20
22.9597618523
 30
0.0
 10
29.9113008957
 20
22.9090568803
 30
0.0
 10
29.9261831962
 20
22.8751554251
 30
0.0
 10
29.9358013875
 20
22.8584963214
 30
0.0
  0
SPLINE
  5
3DF
100
AcDbEntity
  8
0
100
AcDbSpline
 62
7
  6
BYLAYER
 70
0
 71
3
 72
11
 73
7
 74
0
 42
0.0000001
 43
0.0000001
 44
0.0000000001
 40
0.0
 40
0.0
 40
0.0
 40
0.0
 40
0.3070706355
 40
0.5849787224
 40
0.81363115
 40
1.0
 40
1.0
 40
1.0
 40
1.0
 10
30.1400779562
 20
23.322851463
 30
0.0
 10
30.1496960911
 20
23.3061924572
 30
0.0
 10
30.1645784604
 20
23.2722912849
 30
0.0
 10
30.1736454233
 20
23.2215863771
 30
0.0
 10
30.1675490694
 20
23.1774516112
 30
0.0
 10
30.1501886653
 20
23.1554827317
 30
0.0
 10
30.1400779562
 20
23.1496451442
 30
0.0
  0
SPLINE
  5
3E0
100
AcDbEntity
  8
0
100
AcDbSpline
 62
7
  6
BYLAYER
 70
0
 71
3
 72
11
 73
7
 74
0
 42
0.0000001
 43
0.0000001
 44
0.0000000001
 40
0.0
 40
0.0
 40
0.0
 40
0.0
 40
0.1863673369
 40
0.4150179814
 40
0.6929276535
 40
1.0
 40
1.0
 40
1.0
 40
1.0
 10
29.9365237182
 20
23.8486221071
 30
0.0
 10
29.9264130881
 20
23.8427845652
 30
0.0
 10
29.9090525674
 20
23.8208160806
 30
0.0
 10
29.902956262
 20
23.7766813191
 30
0.0
 10
29.9120232263
 20
23.7259763471
 30
0.0
 10
29.9269055268
 20
23.6920748919
 30
0.0
 10
29.9365237182
 20
23.6754157883
 30
0.0
  0
SPLINE
  5
3E1
100
AcDbEntity
  8
0
100
AcDbSpline
 62
7
  6
BYLAYER
 70
0
 71
3
 72
11
 73
7
 74
0
 42
0.0000001
 43
0.0000001
 44
0.0000000001
 40
0.0
 40
0.0
 40
0.0
 40
0.0
 40
0.3070706355
 40
0.5849787224
 40
0.81363115
 40
1.0
 40
1.0
 40
1.0
 40
1.0
 10
30.1400779562
 20
24.1393538802
 30
0.0
 10
30.1496960911
 20
24.1226948743
 30
0.0
 10
30.1645784604
 20
24.088793702
 30
0.0
 10
30.1736454233
 20
24.0380887942
 30
0.0
 10
30.1675490694
 20
23.9939540283
 30
0.0
 10
30.1501886653
 20
23.9719851489
 30
0.0
 10
30.1400779562
 20
23.9661475614
 30
0.0
  0
SPLINE
  5
3E2
100
AcDbEntity
  8
0
100
AcDbSpline
 62
7
  6
BYLAYER
 70
0
 71
3
 72
11
 73
7
 74
0
 42
0.0000001
 43
0.0000001
 44
0.0000000001
 40
0.0
 40
0.0
 40
0.0
 40
0.0
 40
0.1863673369
 40
0.4150179814
 40
0.6929276535
 40
1.0
 40
1.0
 40
1.0
 40
1.0
 10
29.9365237182
 20
24.6651245242
 30
0.0
 10
29.9264130881
 20
24.6592869823
 30
0.0
 10
29.9090525674
 20
24.6373184977
 30
0.0
 10
29.902956262
 20
24.5931837363
 30
0.0
 10
29.9120232263
 20
24.5424787642
 30
0.0
 10
29.9269055268
 20
24.508577309
 30
0.0
 10
29.9365237182
 20
24.4919182054
 30
0.0
  0
SPLINE
  5
3E3
100
AcDbEntity
  8
0
100
AcDbSpline
 62
7
  6
BYLAYER
 70
0
 71
3
 72
11
 73
7
 74
0
 42
0.0000001
 43
0.0000001
 44
0.0000000001
 40
0.0
 40
0.0
 40
0.0
 40
0.0
 40
0.3070706355
 40
0.5849787224
 40
0.81363115
 40
1.0
 40
1.0
 40
1.0
 40
1.0
 10
30.1400779562
 20
24.9558562973
 30
0.0
 10
30.1496960911
 20
24.9391972915
 30
0.0
 10
30.1645784604
 20
24.9052961191
 30
0.0
 10
30.1736454233
 20
24.8545912113
 30
0.0
 10
30.1675490694
 20
24.8104564455
 30
0.0
 10
30.1501886653
 20
24.788487566
 30
0.0
 10
30.1400779562
 20
24.7826499785
 30
0.0
  0
SPLINE
  5
3E4
100
AcDbEntity
  8
0
100
AcDbSpline
 62
7
  6
BYLAYER
 70
0
 71
3
 72
11
 73
7
 74
0
 42
0.0000001
 43
0.0000001
 44
0.0000000001
 40
0.0
 40
0.0
 40
0.0
 40
0.0
 40
0.1863673369
 40
0.4150179814
 40
0.6929276535
 40
1.0
 40
1.0
 40
1.0
 40
1.0
 10
29.9365237182
 20
25.4816269413
 30
0.0
 10
29.9264130881
 20
25.4757893995
 30
0.0
 10
29.9090525674
 20
25.4538209148
 30
0.0
 10
29.902956262
 20
25.4096861534
 30
0.0
 10
29.9120232263
 20
25.3589811813
 30
0.0
 10
29.9269055268
 20
25.3250797262
 30
0.0
 10
29.9365237182
 20
25.3084206225
 30
0.0
  0
SPLINE
  5
3E5
100
AcDbEntity
  8
0
100
AcDbSpline
 62
7
  6
BYLAYER
 70
0
 71
3
 72
11
 73
7
 74
0
 42
0.0000001
 43
0.0000001
 44
0.0000000001
 40
0.0
 40
0.0
 40
0.0
 40
0.0
 40
0.3070706355
 40
0.5849787224
 40
0.81363115
 40
1.0
 40
1.0
 40
1.0
 40
1.0
 10
30.1400779562
 20
25.7723587144
 30
0.0
 10
30.1496960911
 20
25.7556997086
 30
0.0
 10
30.1645784604
 20
25.7217985363
 30
0.0
 10
30.1736454233
 20
25.6710936285
 30
0.0
 10
30.1675490694
 20
25.6269588626
 30
0.0
 10
30.1501886653
 20
25.6049899831
 30
0.0
 10
30.1400779562
 20
25.5991523956
 30
0.0
  0
SPLINE
  5
3E6
100
AcDbEntity
  8
0
100
AcDbSpline
 62
7
  6
BYLAYER
 70
0
 71
3
 72
11
 73
7
 74
0
 42
0.0000001
 43
0.0000001
 44
0.0000000001
 40
0.0
 40
0.0
 40
0.0
 40
0.0
 40
0.1863673369
 40
0.4150179814
 40
0.6929276535
 40
1.0
 40
1.0
 40
1.0
 40
1.0
 10
29.9365237182
 20
26.2981293585
 30
0.0
 10
29.9264130881
 20
26.2922918166
 30
0.0
 10
29.9090525674
 20
26.2703233319
 30
0.0
 10
29.902956262
 20
26.2261885705
 30
0.0
 10
29.9120232263
 20
26.1754835985
 30
0.0
 10
29.9269055268
 20
26.1415821433
 30
0.0
 10
29.9365237182
 20
26.1249230397
 30
0.0
  0
SPLINE
  5
3E7
100
AcDbEntity
  8
0
100
AcDbSpline
 62
7
  6
BYLAYER
 70
0
 71
3
 72
11
 73
7
 74
0
 42
0.0000001
 43
0.0000001
 44
0.0000000001
 40
0.0
 40
0.0
 40
0.0
 40
0.0
 40
0.3070706355
 40
0.5849787224
 40
0.81363115
 40
1.0
 40
1.0
 40
1.0
 40
1.0
 10
30.1400779562
 20
26.5888611315
 30
0.0
 10
30.1496960911
 20
26.5722021257
 30
0.0
 10
30.1645784604
 20
26.5383009534
 30
0.0
 10
30.1736454233
 20
26.4875960456
 30
0.0
 10
30.1675490694
 20
26.4434612797
 30
0.0
 10
30.1501886653
 20
26.4214924003
 30
0.0
 10
30.1400779562
 20
26.4156548127
 30
0.0
  0
SPLINE
  5
3E8
100
AcDbEntity
  8
0
100
AcDbSpline
 62
7
  6
BYLAYER
 70
0
 71
3
 72
11
 73
7
 74
0
 42
0.0000001
 43
0.0000001
 44
0.0000000001
 40
0.0
 40
0.0
 40
0.0
 40
0.0
 40
0.1863673369
 40
0.4150179814
 40
0.6929276535
 40
1.0
 40
1.0
 40
1.0
 40
1.0
 10
29.9365237182
 20
27.1146317756
 30
0.0
 10
29.9264130881
 20
27.1087942337
 30
0.0
 10
29.9090525674
 20
27.0868257491
 30
0.0
 10
29.902956262
 20
27.0426909877
 30
0.0
 10
29.9120232263
 20
26.9919860156
 30
0.0
 10
29.9269055268
 20
26.9580845604
 30
0.0
 10
29.9365237182
 20
26.9414254568
 30
0.0
  0
SPLINE
  5
3E9
100
AcDbEntity
  8
0
100
AcDbSpline
 62
7
  6
BYLAYER
 70
0
 71
3
 72
11
 73
7
 74
0
 42
0.0000001
 43
0.0000001
 44
0.0000000001
 40
0.0
 40
0.0
 40
0.0
 40
0.0
 40
0.3070706355
 40
0.5849787224
 40
0.81363115
 40
1.0
 40
1.0
 40
1.0
 40
1.0
 10
30.1400779562
 20
27.4053635487
 30
0.0
 10
30.1496960911
 20
27.3887045429
 30
0.0
 10
30.1645784604
 20
27.3548033705
 30
0.0
 10
30.1736454233
 20
27.3040984627
 30
0.0
 10
30.1675490694
 20
27.2599636969
 30
0.0
 10
30.1501886653
 20
27.2379948174
 30
0.0
 10
30.1400779562
 20
27.2321572299
 30
0.0
  0
SPLINE
  5
3EA
100
AcDbEntity
  8
0
100
AcDbSpline
 62
7
  6
BYLAYER
 70
0
 71
3
 72
11
 73
7
 74
0
 42
0.0000001
 43
0.0000001
 44
0.0000000001
 40
0.0
 40
0.0
 40
0.0
 40
0.0
 40
0.1863673369
 40
0.4150179814
 40
0.6929276535
 40
1.0
 40
1.0
 40
1.0
 40
1.0
 10
29.9365237182
 20
27.9311341927
 30
0.0
 10
29.9264130881
 20
27.9252966509
 30
0.0
 10
29.9090525674
 20
27.9033281662
 30
0.0
 10
29.902956262
 20
27.8591934048
 30
0.0
 10
29.9120232263
 20
27.8084884327
 30
0.0
 10
29.9269055268
 20
27.7745869776
 30
0.0
 10
29.9365237182
 20
27.7579278739
 30
0.0
  0
SPLINE
  5
3EB
100
AcDbEntity
  8
0
100
AcDbSpline
 62
7
  6
BYLAYER
 70
0
 71
3
 72
11
 73
7
 74
0
 42
0.0000001
 43
0.0000001
 44
0.0000000001
 40
0.0
 40
0.0
 40
0.0
 40
0.0
 40
0.3070706355
 40
0.5849787224
 40
0.81363115
 40
1.0
 40
1.0
 40
1.0
 40
1.0
 10
30.1400779562
 20
28.2218659658
 30
0.0
 10
30.1496960911
 20
28.20520696
 30
0.0
 10
30.1645784604
 20
28.1713057876
 30
0.0
 10
30.1736454233
 20
28.1206008799
 30
0.0
 10
30.1675490694
 20
28.076466114
 30
0.0
 10
30.1501886653
 20
28.0544972345
 30
0.0
 10
30.1400779562
 20
28.048659647
 30
0.0
  0
SPLINE
  5
3EC
100
AcDbEntity
  8
0
100
AcDbSpline
 62
7
  6
BYLAYER
 70
0
 71
3
 72
11
 73
7
 74
0
 42
0.0000001
 43
0.0000001
 44
0.0000000001
 40
0.0
 40
0.0
 40
0.0
 40
0.0
 40
0.1863673369
 40
0.4150179814
 40
0.6929276535
 40
1.0
 40
1.0
 40
1.0
 40
1.0
 10
29.9365237182
 20
28.7476366099
 30
0.0
 10
29.9264130881
 20
28.741799068
 30
0.0
 10
29.9090525674
 20
28.7198305833
 30
0.0
 10
29.902956262
 20
28.6756958219
 30
0.0
 10
29.9120232263
 20
28.6249908499
 30
0.0
 10
29.9269055268
 20
28.5910893947
 30
0.0
 10
29.9365237182
 20
28.5744302911
 30
0.0
  0
SPLINE
  5
3ED
100
AcDbEntity
  8
0
100
AcDbSpline
 62
7
  6
BYLAYER
 70
0
 71
3
 72
11
 73
7
 74
0
 42
0.0000001
 43
0.0000001
 44
0.0000000001
 40
0.0
 40
0.0
 40
0.0
 40
0.0
 40
0.3070706355
 40
0.5849787224
 40
0.81363115
 40
1.0
 40
1.0
 40
1.0
 40
1.0
 10
30.1400779562
 20
29.0383683829
 30
0.0
 10
30.1496960911
 20
29.0217093771
 30
0.0
 10
30.1645784604
 20
28.9878082048
 30
0.0
 10
30.1736454233
 20
28.937103297
 30
0.0
 10
30.1675490694
 20
28.8929685311
 30
0.0
 10
30.1501886653
 20
28.8709996517
 30
0.0
 10
30.1400779562
 20
28.8651620641
 30
0.0
  0
SPLINE
  5
3EE
100
AcDbEntity
  8
0
100
AcDbSpline
 62
7
  6
BYLAYER
 70
0
 71
3
 72
11
 73
7
 74
0
 42
0.0000001
 43
0.0000001
 44
0.0000000001
 40
0.0
 40
0.0
 40
0.0
 40
0.0
 40
0.1863673369
 40
0.4150179814
 40
0.6929276535
 40
1.0
 40
1.0
 40
1.0
 40
1.0
 10
29.9365237182
 20
29.564139027
 30
0.0
 10
29.9264130881
 20
29.5583014851
 30
0.0
 10
29.9090525674
 20
29.5363330005
 30
0.0
 10
29.902956262
 20
29.4921982391
 30
0.0
 10
29.9120232263
 20
29.441493267
 30
0.0
 10
29.9269055268
 20
29.4075918118
 30
0.0
 10
29.9365237182
 20
29.3909327082
 30
0.0
  0
SPLINE
  5
3EF
100
AcDbEntity
  8
0
100
AcDbSpline
 62
7
  6
BYLAYER
 70
0
 71
3
 72
11
 73
7
 74
0
 42
0.0000001
 43
0.0000001
 44
0.0000000001
 40
0.0
 40
0.0
 40
0.0
 40
0.0
 40
0.3070706355
 40
0.5849787224
 40
0.81363115
 40
1.0
 40
1.0
 40
1.0
 40
1.0
 10
30.1400779562
 20
29.8548708001
 30
0.0
 10
30.1496960911
 20
29.8382117942
 30
0.0
 10
30.1645784604
 20
29.8043106219
 30
0.0
 10
30.1736454233
 20
29.7536057141
 30
0.0
 10
30.1675490694
 20
29.7094709482
 30
0.0
 10
30.1501886653
 20
29.6875020688
 30
0.0
 10
30.1400779562
 20
29.6816644813
 30
0.0
  0
SPLINE
  5
3F0
100
AcDbEntity
  8
0
100
AcDbSpline
 62
7
  6
BYLAYER
 70
0
 71
3
 72
11
 73
7
 74
0
 42
0.0000001
 43
0.0000001
 44
0.0000000001
 40
0.0
 40
0.0
 40
0.0
 40
0.0
 40
0.1863673369
 40
0.4150179814
 40
0.6929276535
 40
1.0
 40
1.0
 40
1.0
 40
1.0
 10
29.9365237182
 20
30.3806414441
 30
0.0
 10
29.9264130881
 20
30.3748039022
 30
0.0
 10
29.9090525674
 20
30.3528354176
 30
0.0
 10
29.902956262
 20
30.3087006562
 30
0.0
 10
29.9120232263
 20
30.2579956841
 30
0.0
 10
29.9269055268
 20
30.2240942289
 30
0.0
 10
29.9365237182
 20
30.2074351253
 30
0.0
  0
SPLINE
  5
3F1
100
AcDbEntity
  8
0
100
AcDbSpline
 62
7
  6
BYLAYER
 70
0
 71
3
 72
11
 73
7
 74
0
 42
0.0000001
 43
0.0000001
 44
0.0000000001
 40
0.0
 40
0.0
 40
0.0
 40
0.0
 40
0.3070706355
 40
0.5849787224
 40
0.81363115
 40
1.0
 40
1.0
 40
1.0
 40
1.0
 10
30.1400779562
 20
30.6713732172
 30
0.0
 10
30.1496960911
 20
30.6547142114
 30
0.0
 10
30.1645784604
 20
30.620813039
 30
0.0
 10
30.1736454233
 20
30.5701081313
 30
0.0
 10
30.1675490694
 20
30.5259733654
 30
0.0
 10
30.1501886653
 20
30.5040044859
 30
0.0
 10
30.1400779562
 20
30.4981668984
 30
0.0
  0
SPLINE
  5
3F2
100
AcDbEntity
  8
0
100
AcDbSpline
 62
7
  6
BYLAYER
 70
0
 71
3
 72
11
 73
7
 74
0
 42
0.0000001
 43
0.0000001
 44
0.0000000001
 40
0.0
 40
0.0
 40
0.0
 40
0.0
 40
0.1863673369
 40
0.4150179814
 40
0.6929276535
 40
1.0
 40
1.0
 40
1.0
 40
1.0
 10
29.9365237182
 20
31.1971438613
 30
0.0
 10
29.9264130881
 20
31.1913063194
 30
0.0
 10
29.9090525674
 20
31.1693378347
 30
0.0
 10
29.902956262
 20
31.1252030733
 30
0.0
 10
29.9120232263
 20
31.0744981013
 30
0.0
 10
29.9269055268
 20
31.0405966461
 30
0.0
 10
29.9365237182
 20
31.0239375424
 30
0.0
  0
SPLINE
  5
3F3
100
AcDbEntity
  8
0
100
AcDbSpline
 62
7
  6
BYLAYER
 70
0
 71
3
 72
11
 73
7
 74
0
 42
0.0000001
 43
0.0000001
 44
0.0000000001
 40
0.0
 40
0.0
 40
0.0
 40
0.0
 40
0.3070706355
 40
0.5849787224
 40
0.81363115
 40
1.0
 40
1.0
 40
1.0
 40
1.0
 10
30.1400779562
 20
31.4878756343
 30
0.0
 10
30.1496960911
 20
31.4712166285
 30
0.0
 10
30.1645784604
 20
31.4373154562
 30
0.0
 10
30.1736454233
 20
31.3866105484
 30
0.0
 10
30.1675490694
 20
31.3424757825
 30
0.0
 10
30.1501886653
 20
31.320506903
 30
0.0
 10
30.1400779562
 20
31.3146693155
 30
0.0
  0
SPLINE
  5
3F4
100
AcDbEntity
  8
0
100
AcDbSpline
 62
7
  6
BYLAYER
 70
0
 71
3
 72
11
 73
7
 74
0
 42
0.0000001
 43
0.0000001
 44
0.0000000001
 40
0.0
 40
0.0
 40
0.0
 40
0.0
 40
0.1863673369
 40
0.4150179814
 40
0.6929276535
 40
1.0
 40
1.0
 40
1.0
 40
1.0
 10
29.9365237182
 20
32.0136462784
 30
0.0
 10
29.9264130881
 20
32.0078087365
 30
0.0
 10
29.9090525674
 20
31.9858402518
 30
0.0
 10
29.902956262
 20
31.9417054904
 30
0.0
 10
29.9120232263
 20
31.8910005184
 30
0.0
 10
29.9269055268
 20
31.8570990632
 30
0.0
 10
29.9365237182
 20
31.8404399596
 30
0.0
  0
SPLINE
  5
3F5
100
AcDbEntity
  8
0
100
AcDbSpline
 62
7
  6
BYLAYER
 70
0
 71
3
 72
11
 73
7
 74
0
 42
0.0000001
 43
0.0000001
 44
0.0000000001
 40
0.0
 40
0.0
 40
0.0
 40
0.0
 40
0.3070706355
 40
0.5849787224
 40
0.81363115
 40
1.0
 40
1.0
 40
1.0
 40
1.0
 10
30.1400779562
 20
32.3043780514
 30
0.0
 10
30.1496960911
 20
32.2877190456
 30
0.0
 10
30.1645784604
 20
32.2538178733
 30
0.0
 10
30.1736454233
 20
32.2031129655
 30
0.0
 10
30.1675490694
 20
32.1589781996
 30
0.0
 10
30.1501886653
 20
32.1370093202
 30
0.0
 10
30.1400779562
 20
32.1311717326
 30
0.0
  0
SPLINE
  5
3F6
100
AcDbEntity
  8
0
100
AcDbSpline
 62
7
  6
BYLAYER
 70
0
 71
3
 72
11
 73
7
 74
0
 42
0.0000001
 43
0.0000001
 44
0.0000000001
 40
0.0
 40
0.0
 40
0.0
 40
0.0
 40
0.1863673369
 40
0.4150179814
 40
0.6929276535
 40
1.0
 40
1.0
 40
1.0
 40
1.0
 10
29.9365237182
 20
32.8301486955
 30
0.0
 10
29.9264130881
 20
32.8243111536
 30
0.0
 10
29.9090525674
 20
32.802342669
 30
0.0
 10
29.902956262
 20
32.7582079076
 30
0.0
 10
29.9120232263
 20
32.7075029355
 30
0.0
 10
29.9269055268
 20
32.6736014803
 30
0.0
 10
29.9365237182
 20
32.6569423767
 30
0.0
  0
SPLINE
  5
3F7
100
AcDbEntity
  8
0
100
AcDbSpline
 62
7
  6
BYLAYER
 70
0
 71
3
 72
11
 73
7
 74
0
 42
0.0000001
 43
0.0000001
 44
0.0000000001
 40
0.0
 40
0.0
 40
0.0
 40
0.0
 40
0.3070706355
 40
0.5849787224
 40
0.81363115
 40
1.0
 40
1.0
 40
1.0
 40
1.0
 10
30.1400779562
 20
33.1208804686
 30
0.0
 10
30.1496960911
 20
33.1042214628
 30
0.0
 10
30.1645784604
 20
33.0703202904
 30
0.0
 10
30.1736454233
 20
33.0196153826
 30
0.0
 10
30.1675490694
 20
32.9754806168
 30
0.0
 10
30.1501886653
 20
32.9535117373
 30
0.0
 10
30.1400779562
 20
32.9476741498
 30
0.0
  0
SPLINE
  5
3F8
100
AcDbEntity
  8
0
100
AcDbSpline
 62
7
  6
BYLAYER
 70
0
 71
3
 72
11
 73
7
 74
0
 42
0.0000001
 43
0.0000001
 44
0.0000000001
 40
0.0
 40
0.0
 40
0.0
 40
0.0
 40
0.1863673369
 40
0.4150179814
 40
0.6929276535
 40
1.0
 40
1.0
 40
1.0
 40
1.0
 10
29.9365237182
 20
33.6466511126
 30
0.0
 10
29.9264130881
 20
33.6408135708
 30
0.0
 10
29.9090525674
 20
33.6188450861
 30
0.0
 10
29.902956262
 20
33.5747103247
 30
0.0
 10
29.9120232263
 20
33.5240053526
 30
0.0
 10
29.9269055268
 20
33.4901038975
 30
0.0
 10
29.9365237182
 20
33.4734447938
 30
0.0
  0
SPLINE
  5
3F9
100
AcDbEntity
  8
0
100
AcDbSpline
 62
7
  6
BYLAYER
 70
0
 71
3
 72
11
 73
7
 74
0
 42
0.0000001
 43
0.0000001
 44
0.0000000001
 40
0.0
 40
0.0
 40
0.0
 40
0.0
 40
0.3070706355
 40
0.5849787224
 40
0.81363115
 40
1.0
 40
1.0
 40
1.0
 40
1.0
 10
30.1400779562
 20
33.9373828857
 30
0.0
 10
30.1496960911
 20
33.9207238799
 30
0.0
 10
30.1645784604
 20
33.8868227076
 30
0.0
 10
30.1736454233
 20
33.8361177998
 30
0.0
 10
30.1675490694
 20
33.7919830339
 30
0.0
 10
30.1501886653
 20
33.7700141544
 30
0.0
 10
30.1400779562
 20
33.7641765669
 30
0.0
  0
SPLINE
  5
3FA
100
AcDbEntity
  8
0
100
AcDbSpline
 62
7
  6
BYLAYER
 70
0
 71
3
 72
11
 73
7
 74
0
 42
0.0000001
 43
0.0000001
 44
0.0000000001
 40
0.0
 40
0.0
 40
0.0
 40
0.0
 40
0.1863673369
 40
0.4150179814
 40
0.6929276535
 40
1.0
 40
1.0
 40
1.0
 40
1.0
 10
29.9365237182
 20
34.4631535298
 30
0.0
 10
29.9264130881
 20
34.4573159879
 30
0.0
 10
29.9090525674
 20
34.4353475032
 30
0.0
 10
29.902956262
 20
34.3912127418
 30
0.0
 10
29.9120232263
 20
34.3405077698
 30
0.0
 10
29.9269055268
 20
34.3066063146
 30
0.0
 10
29.9365237182
 20
34.289947211
 30
0.0
  0
SPLINE
  5
3FB
100
AcDbEntity
  8
0
100
AcDbSpline
 62
7
  6
BYLAYER
 70
0
 71
3
 72
11
 73
7
 74
0
 42
0.0000001
 43
0.0000001
 44
0.0000000001
 40
0.0
 40
0.0
 40
0.0
 40
0.0
 40
0.3070706355
 40
0.5849787224
 40
0.81363115
 40
1.0
 40
1.0
 40
1.0
 40
1.0
 10
30.1400779562
 20
34.7538853028
 30
0.0
 10
30.1496960911
 20
34.737226297
 30
0.0
 10
30.1645784604
 20
34.7033251247
 30
0.0
 10
30.1736454233
 20
34.6526202169
 30
0.0
 10
30.1675490694
 20
34.608485451
 30
0.0
 10
30.1501886653
 20
34.5865165716
 30
0.0
 10
30.1400779562
 20
34.580678984
 30
0.0
  0
SPLINE
  5
3FC
100
AcDbEntity
  8
0
100
AcDbSpline
 62
7
  6
BYLAYER
 70
0
 71
3
 72
11
 73
7
 74
0
 42
0.0000001
 43
0.0000001
 44
0.0000000001
 40
0.0
 40
0.0
 40
0.0
 40
0.0
 40
0.1863673369
 40
0.4150179814
 40
0.6929276535
 40
1.0
 40
1.0
 40
1.0
 40
1.0
 10
29.9365237182
 20
35.2796559469
 30
0.0
 10
29.9264130881
 20
35.273818405
 30
0.0
 10
29.9090525674
 20
35.2518499204
 30
0.0
 10
29.902956262
 20
35.207715159
 30
0.0
 10
29.9120232263
 20
35.1570101869
 30
0.0
 10
29.9269055268
 20
35.1231087317
 30
0.0
 10
29.9365237182
 20
35.1064496281
 30
0.0
  0
SPLINE
  5
3FD
100
AcDbEntity
  8
0
100
AcDbSpline
 62
7
  6
BYLAYER
 70
0
 71
3
 72
11
 73
7
 74
0
 42
0.0000001
 43
0.0000001
 44
0.0000000001
 40
0.0
 40
0.0
 40
0.0
 40
0.0
 40
0.3070706355
 40
0.5849787224
 40
0.81363115
 40
1.0
 40
1.0
 40
1.0
 40
1.0
 10
30.1400779562
 20
35.57038772
 30
0.0
 10
30.1496960911
 20
35.5537287142
 30
0.0
 10
30.1645784604
 20
35.5198275418
 30
0.0
 10
30.1736454233
 20
35.469122634
 30
0.0
 10
30.1675490694
 20
35.4249878681
 30
0.0
 10
30.1501886653
 20
35.4030189887
 30
0.0
 10
30.1400779562
 20
35.3971814012
 30
0.0
  0
SPLINE
  5
3FE
100
AcDbEntity
  8
0
100
AcDbSpline
 62
7
  6
BYLAYER
 70
0
 71
3
 72
11
 73
7
 74
0
 42
0.0000001
 43
0.0000001
 44
0.0000000001
 40
0.0
 40
0.0
 40
0.0
 40
0.0
 40
0.1863673369
 40
0.4150179814
 40
0.6929276535
 40
1.0
 40
1.0
 40
1.0
 40
1.0
 10
29.9365237182
 20
36.096158364
 30
0.0
 10
29.9264130881
 20
36.0903208221
 30
0.0
 10
29.9090525674
 20
36.0683523375
 30
0.0
 10
29.902956262
 20
36.0242175761
 30
0.0
 10
29.9120232263
 20
35.973512604
 30
0.0
 10
29.9269055268
 20
35.9396111489
 30
0.0
 10
29.9365237182
 20
35.9229520452
 30
0.0
  0
SPLINE
  5
3FF
100
AcDbEntity
  8
0
100
AcDbSpline
 62
7
  6
BYLAYER
 70
0
 71
3
 72
11
 73
7
 74
0
 42
0.0000001
 43
0.0000001
 44
0.0000000001
 40
0.0
 40
0.0
 40
0.0
 40
0.0
 40
0.3070706355
 40
0.5849787224
 40
0.81363115
 40
1.0
 40
1.0
 40
1.0
 40
1.0
 10
30.1400779562
 20
36.3868901371
 30
0.0
 10
30.1496960911
 20
36.3702311313
 30
0.0
 10
30.1645784604
 20
36.3363299589
 30
0.0
 10
30.1736454233
 20
36.2856250512
 30
0.0
 10
30.1675490694
 20
36.2414902853
 30
0.0
 10
30.1501886653
 20
36.2195214058
 30
0.0
 10
30.1400779562
 20
36.2136838183
 30
0.0
  0
SPLINE
  5
400
100
AcDbEntity
  8
0
100
AcDbSpline
 62
7
  6
BYLAYER
 70
0
 71
3
 72
11
 73
7
 74
0
 42
0.0000001
 43
0.0000001
 44
0.0000000001
 40
0.0
 40
0.0
 40
0.0
 40
0.0
 40
0.1863673369
 40
0.4150179814
 40
0.6929276535
 40
1.0
 40
1.0
 40
1.0
 40
1.0
 10
29.9365237182
 20
36.9126607812
 30
0.0
 10
29.9264130881
 20
36.9068232393
 30
0.0
 10
29.9090525674
 20
36.8848547546
 30
0.0
 10
29.902956262
 20
36.8407199932
 30
0.0
 10
29.9120232263
 20
36.7900150212
 30
0.0
 10
29.9269055268
 20
36.756113566
 30
0.0
 10
29.9365237182
 20
36.7394544624
 30
0.0
  0
SPLINE
  5
401
100
AcDbEntity
  8
0
100
AcDbSpline
 62
7
  6
BYLAYER
 70
0
 71
3
 72
11
 73
7
 74
0
 42
0.0000001
 43
0.0000001
 44
0.0000000001
 40
0.0
 40
0.0
 40
0.0
 40
0.0
 40
0.3070706355
 40
0.5849787224
 40
0.81363115
 40
1.0
 40
1.0
 40
1.0
 40
1.0
 10
30.1400779562
 20
37.2033925542
 30
0.0
 10
30.1496960911
 20
37.1867335484
 30
0.0
 10
30.1645784604
 20
37.1528323761
 30
0.0
 10
30.1736454233
 20
37.1021274683
 30
0.0
 10
30.1675490694
 20
37.0579927024
 30
0.0
 10
30.1501886653
 20
37.036023823
 30
0.0
 10
30.1400779562
 20
37.0301862354
 30
0.0
  0
SPLINE
  5
402
100
AcDbEntity
  8
0
100
AcDbSpline
 62
7
  6
BYLAYER
 70
0
 71
3
 72
11
 73
7
 74
0
 42
0.0000001
 43
0.0000001
 44
0.0000000001
 40
0.0
 40
0.0
 40
0.0
 40
0.0
 40
0.1863673369
 40
0.4150179814
 40
0.6929276535
 40
1.0
 40
1.0
 40
1.0
 40
1.0
 10
29.9365237182
 20
37.7291631983
 30
0.0
 10
29.9264130881
 20
37.7233256564
 30
0.0
 10
29.9090525674
 20
37.7013571718
 30
0.0
 10
29.902956262
 20
37.6572224104
 30
0.0
 10
29.9120232263
 20
37.6065174383
 30
0.0
 10
29.9269055268
 20
37.5726159831
 30
0.0
 10
29.9365237182
 20
37.5559568795
 30
0.0
  0
SPLINE
  5
403
100
AcDbEntity
  8
0
100
AcDbSpline
 62
7
  6
BYLAYER
 70
0
 71
3
 72
11
 73
7
 74
0
 42
0.0000001
 43
0.0000001
 44
0.0000000001
 40
0.0
 40
0.0
 40
0.0
 40
0.0
 40
0.3070706355
 40
0.5849787224
 40
0.81363115
 40
1.0
 40
1.0
 40
1.0
 40
1.0
 10
30.1400779562
 20
38.0198949714
 30
0.0
 10
30.1496960911
 20
38.0032359655
 30
0.0
 10
30.1645784604
 20
37.9693347932
 30
0.0
 10
30.1736454233
 20
37.9186298854
 30
0.0
 10
30.1675490694
 20
37.8744951195
 30
0.0
 10
30.1501886653
 20
37.8525262401
 30
0.0
 10
30.1400779562
 20
37.8466886526
 30
0.0
  0
SPLINE
  5
404
100
AcDbEntity
  8
0
100
AcDbSpline
 62
7
  6
BYLAYER
 70
0
 71
3
 72
11
 73
7
 74
0
 42
0.0000001
 43
0.0000001
 44
0.0000000001
 40
0.0
 40
0.0
 40
0.0
 40
0.0
 40
0.1863673369
 40
0.4150179814
 40
0.6929276535
 40
1.0
 40
1.0
 40
1.0
 40
1.0
 10
29.9365237182
 20
38.5456656154
 30
0.0
 10
29.9264130881
 20
38.5398280735
 30
0.0
 10
29.9090525674
 20
38.5178595889
 30
0.0
 10
29.902956262
 20
38.4737248275
 30
0.0
 10
29.9120232263
 20
38.4230198554
 30
0.0
 10
29.9269055268
 20
38.3891184002
 30
0.0
 10
29.9365237182
 20
38.3724592966
 30
0.0
  0
SPLINE
  5
405
100
AcDbEntity
  8
0
100
AcDbSpline
 62
7
  6
BYLAYER
 70
0
 71
3
 72
11
 73
7
 74
0
 42
0.0000001
 43
0.0000001
 44
0.0000000001
 40
0.0
 40
0.0
 40
0.0
 40
0.0
 40
0.3070706355
 40
0.5849787224
 40
0.81363115
 40
1.0
 40
1.0
 40
1.0
 40
1.0
 10
30.1400779562
 20
38.8363973885
 30
0.0
 10
30.1496960911
 20
38.8197383827
 30
0.0
 10
30.1645784604
 20
38.7858372103
 30
0.0
 10
30.1736454233
 20
38.7351323026
 30
0.0
 10
30.1675490694
 20
38.6909975367
 30
0.0
 10
30.1501886653
 20
38.6690286572
 30
0.0
 10
30.1400779562
 20
38.6631910697
 30
0.0
  0
SPLINE
  5
406
100
AcDbEntity
  8
0
100
AcDbSpline
 62
7
  6
BYLAYER
 70
0
 71
3
 72
11
 73
7
 74
0
 42
0.0000001
 43
0.0000001
 44
0.0000000001
 40
0.0
 40
0.0
 40
0.0
 40
0.0
 40
0.1863673369
 40
0.4150179814
 40
0.6929276535
 40
1.0
 40
1.0
 40
1.0
 40
1.0
 10
29.9365237182
 20
39.3621680325
 30
0.0
 10
29.9264130881
 20
39.3563304907
 30
0.0
 10
29.9090525674
 20
39.334362006
 30
0.0
 10
29.902956262
 20
39.2902272446
 30
0.0
 10
29.9120232263
 20
39.2395222726
 30
0.0
 10
29.9269055268
 20
39.2056208174
 30
0.0
 10
29.9365237182
 20
39.1889617137
 30
0.0
  0
SPLINE
  5
407
100
AcDbEntity
  8
0
100
AcDbSpline
 62
7
  6
BYLAYER
 70
0
 71
3
 72
11
 73
7
 74
0
 42
0.0000001
 43
0.0000001
 44
0.0000000001
 40
0.0
 40
0.0
 40
0.0
 40
0.0
 40
0.3070706355
 40
0.5849787224
 40
0.81363115
 40
1.0
 40
1.0
 40
1.0
 40
1.0
 10
30.1400779562
 20
39.6528998056
 30
0.0
 10
30.1496960911
 20
39.6362407998
 30
0.0
 10
30.1645784604
 20
39.6023396275
 30
0.0
 10
30.1736454233
 20
39.5516347197
 30
0.0
 10
30.1675490694
 20
39.5074999538
 30
0.0
 10
30.1501886653
 20
39.4855310743
 30
0.0
 10
30.1400779562
 20
39.4796934868
 30
0.0
  0
SPLINE
  5
408
100
AcDbEntity
  8
0
100
AcDbSpline
 62
7
  6
BYLAYER
 70
0
 71
3
 72
11
 73
7
 74
0
 42
0.0000001
 43
0.0000001
 44
0.0000000001
 40
0.0
 40
0.0
 40
0.0
 40
0.0
 40
0.1863673369
 40
0.4150179814
 40
0.6929276535
 40
1.0
 40
1.0
 40
1.0
 40
1.0
 10
29.9365237182
 20
40.1786704497
 30
0.0
 10
29.9264130881
 20
40.1728329078
 30
0.0
 10
29.9090525674
 20
40.1508644231
 30
0.0
 10
29.902956262
 20
40.1067296617
 30
0.0
 10
29.9120232263
 20
40.0560246897
 30
0.0
 10
29.9269055268
 20
40.0221232345
 30
0.0
 10
29.9365237182
 20
40.0054641309
 30
0.0
  0
SPLINE
  5
409
100
AcDbEntity
  8
0
100
AcDbSpline
 62
7
  6
BYLAYER
 70
0
 71
3
 72
11
 73
7
 74
0
 42
0.0000001
 43
0.0000001
 44
0.0000000001
 40
0.0
 40
0.0
 40
0.0
 40
0.0
 40
0.3070706355
 40
0.5849787224
 40
0.81363115
 40
1.0
 40
1.0
 40
1.0
 40
1.0
 10
30.1400779562
 20
40.4694022227
 30
0.0
 10
30.1496960911
 20
40.4527432169
 30
0.0
 10
30.1645784604
 20
40.4188420446
 30
0.0
 10
30.1736454233
 20
40.3681371368
 30
0.0
 10
30.1675490694
 20
40.3240023709
 30
0.0
 10
30.1501886653
 20
40.3020334915
 30
0.0
 10
30.1400779562
 20
40.2961959039
 30
0.0
  0
SPLINE
  5
40A
100
AcDbEntity
  8
0
100
AcDbSpline
 62
7
  6
BYLAYER
 70
0
 71
3
 72
11
 73
7
 74
0
 42
0.0000001
 43
0.0000001
 44
0.0000000001
 40
0.0
 40
0.0
 40
0.0
 40
0.0
 40
0.1863673369
 40
0.4150179814
 40
0.6929276535
 40
1.0
 40
1.0
 40
1.0
 40
1.0
 10
29.9365237182
 20
40.9951728668
 30
0.0
 10
29.9264130881
 20
40.9893353249
 30
0.0
 10
29.9090525674
 20
40.9673668403
 30
0.0
 10
29.902956262
 20
40.9232320789
 30
0.0
 10
29.9120232263
 20
40.8725271068
 30
0.0
 10
29.9269055268
 20
40.8386256516
 30
0.0
 10
29.9365237182
 20
40.821966548
 30
0.0
  0
SPLINE
  5
40B
100
AcDbEntity
  8
0
100
AcDbSpline
 62
7
  6
BYLAYER
 70
0
 71
3
 72
11
 73
7
 74
0
 42
0.0000001
 43
0.0000001
 44
0.0000000001
 40
0.0
 40
0.0
 40
0.0
 40
0.0
 40
0.3070706355
 40
0.5849787224
 40
0.81363115
 40
1.0
 40
1.0
 40
1.0
 40
1.0
 10
30.1400779562
 20
41.2859046399
 30
0.0
 10
30.1496960911
 20
41.2692456341
 30
0.0
 10
30.1645784604
 20
41.2353444617
 30
0.0
 10
30.1736454233
 20
41.1846395539
 30
0.0
 10
30.1675490694
 20
41.1405047881
 30
0.0
 10
30.1501886653
 20
41.1185359086
 30
0.0
 10
30.1400779562
 20
41.1126983211
 30
0.0
  0
SPLINE
  5
40C
100
AcDbEntity
  8
0
100
AcDbSpline
 62
7
  6
BYLAYER
 70
0
 71
3
 72
11
 73
7
 74
0
 42
0.0000001
 43
0.0000001
 44
0.0000000001
 40
0.0
 40
0.0
 40
0.0
 40
0.0
 40
0.1863673369
 40
0.4150179814
 40
0.6929276535
 40
1.0
 40
1.0
 40
1.0
 40
1.0
 10
29.9365237182
 20
41.8116752839
 30
0.0
 10
29.9264130881
 20
41.8058377421
 30
0.0
 10
29.9090525674
 20
41.7838692574
 30
0.0
 10
29.902956262
 20
41.739734496
 30
0.0
 10
29.9120232263
 20
41.6890295239
 30
0.0
 10
29.9269055268
 20
41.6551280688
 30
0.0
 10
29.9365237182
 20
41.6384689651
 30
0.0
  0
SPLINE
  5
40D
100
AcDbEntity
  8
0
100
AcDbSpline
 62
7
  6
BYLAYER
 70
0
 71
3
 72
11
 73
7
 74
0
 42
0.0000001
 43
0.0000001
 44
0.0000000001
 40
0.0
 40
0.0
 40
0.0
 40
0.0
 40
0.3070706355
 40
0.5849787224
 40
0.81363115
 40
1.0
 40
1.0
 40
1.0
 40
1.0
 10
30.1400779562
 20
42.102407057
 30
0.0
 10
30.1496960911
 20
42.0857480512
 30
0.0
 10
30.1645784604
 20
42.0518468788
 30
0.0
 10
30.1736454233
 20
42.0011419711
 30
0.0
 10
30.1675490694
 20
41.9570072052
 30
0.0
 10
30.1501886653
 20
41.9350383257
 30
0.0
 10
30.1400779562
 20
41.9292007382
 30
0.0
  0
SPLINE
  5
40E
100
AcDbEntity
  8
0
100
AcDbSpline
 62
7
  6
BYLAYER
 70
0
 71
3
 72
11
 73
7
 74
0
 42
0.0000001
 43
0.0000001
 44
0.0000000001
 40
0.0
 40
0.0
 40
0.0
 40
0.0
 40
0.1863673369
 40
0.4150179814
 40
0.6929276535
 40
1.0
 40
1.0
 40
1.0
 40
1.0
 10
29.9365237182
 20
42.6281777011
 30
0.0
 10
29.9264130881
 20
42.6223401592
 30
0.0
 10
29.9090525674
 20
42.6003716745
 30
0.0
 10
29.902956262
 20
42.5562369131
 30
0.0
 10
29.9120232263
 20
42.5055319411
 30
0.0
 10
29.9269055268
 20
42.4716304859
 30
0.0
 10
29.9365237182
 20
42.4549713823
 30
0.0
  0
SPLINE
  5
40F
100
AcDbEntity
  8
0
100
AcDbSpline
 62
7
  6
BYLAYER
 70
0
 71
3
 72
11
 73
7
 74
0
 42
0.0000001
 43
0.0000001
 44
0.0000000001
 40
0.0
 40
0.0
 40
0.0
 40
0.0
 40
0.3070706355
 40
0.5849787224
 40
0.81363115
 40
1.0
 40
1.0
 40
1.0
 40
1.0
 10
30.1400779562
 20
42.9189094741
 30
0.0
 10
30.1496960911
 20
42.9022504683
 30
0.0
 10
30.1645784604
 20
42.868349296
 30
0.0
 10
30.1736454233
 20
42.8176443882
 30
0.0
 10
30.1675490694
 20
42.7735096223
 30
0.0
 10
30.1501886653
 20
42.7515407429
 30
0.0
 10
30.1400779562
 20
42.7457031553
 30
0.0
  0
SPLINE
  5
410
100
AcDbEntity
  8
0
100
AcDbSpline
 62
7
  6
BYLAYER
 70
0
 71
3
 72
11
 73
7
 74
0
 42
0.0000001
 43
0.0000001
 44
0.0000000001
 40
0.0
 40
0.0
 40
0.0
 40
0.0
 40
0.1863673369
 40
0.4150179814
 40
0.6929276535
 40
1.0
 40
1.0
 40
1.0
 40
1.0
 10
29.9365237182
 20
43.4446801182
 30
0.0
 10
29.9264130881
 20
43.4388425763
 30
0.0
 10
29.9090525674
 20
43.4168740917
 30
0.0
 10
29.902956262
 20
43.3727393303
 30
0.0
 10
29.9120232263
 20
43.3220343582
 30
0.0
 10
29.9269055268
 20
43.288132903
 30
0.0
 10
29.9365237182
 20
43.2714737994
 30
0.0
  0
SPLINE
  5
411
100
AcDbEntity
  8
0
100
AcDbSpline
 62
7
  6
BYLAYER
 70
0
 71
3
 72
11
 73
7
 74
0
 42
0.0000001
 43
0.0000001
 44
0.0000000001
 40
0.0
 40
0.0
 40
0.0
 40
0.0
 40
0.3070706355
 40
0.5849787224
 40
0.81363115
 40
1.0
 40
1.0
 40
1.0
 40
1.0
 10
30.1400779562
 20
43.7354118913
 30
0.0
 10
30.1496960911
 20
43.7187528854
 30
0.0
 10
30.1645784604
 20
43.6848517131
 30
0.0
 10
30.1736454233
 20
43.6341468053
 30
0.0
 10
30.1675490694
 20
43.5900120394
 30
0.0
 10
30.1501886653
 20
43.56804316
 30
0.0
 10
30.1400779562
 20
43.5622055725
 30
0.0
  0
SPLINE
  5
412
100
AcDbEntity
  8
0
100
AcDbSpline
 62
7
  6
BYLAYER
 70
0
 71
3
 72
11
 73
7
 74
0
 42
0.0000001
 43
0.0000001
 44
0.0000000001
 40
0.0
 40
0.0
 40
0.0
 40
0.0
 40
0.1863673369
 40
0.4150179814
 40
0.6929276535
 40
1.0
 40
1.0
 40
1.0
 40
1.0
 10
29.9365237182
 20
44.2611825353
 30
0.0
 10
29.9264130881
 20
44.2553449934
 30
0.0
 10
29.9090525674
 20
44.2333765088
 30
0.0
 10
29.902956262
 20
44.1892417474
 30
0.0
 10
29.9120232263
 20
44.1385367753
 30
0.0
 10
29.9269055268
 20
44.1046353201
 30
0.0
 10
29.9365237182
 20
44.0879762165
 30
0.0
  0
SPLINE
  5
413
100
AcDbEntity
  8
0
100
AcDbSpline
 62
7
  6
BYLAYER
 70
0
 71
3
 72
11
 73
7
 74
0
 42
0.0000001
 43
0.0000001
 44
0.0000000001
 40
0.0
 40
0.0
 40
0.0
 40
0.0
 40
0.3070706355
 40
0.5849787224
 40
0.81363115
 40
1.0
 40
1.0
 40
1.0
 40
1.0
 10
30.1400779562
 20
44.5519143084
 30
0.0
 10
30.1496960911
 20
44.5352553026
 30
0.0
 10
30.1645784604
 20
44.5013541302
 30
0.0
 10
30.1736454233
 20
44.4506492225
 30
0.0
 10
30.1675490694
 20
44.4065144566
 30
0.0
 10
30.1501886653
 20
44.3845455771
 30
0.0
 10
30.1400779562
 20
44.3787079896
 30
0.0
  0
SPLINE
  5
414
100
AcDbEntity
  8
0
100
AcDbSpline
 62
7
  6
BYLAYER
 70
0
 71
3
 72
11
 73
7
 74
0
 42
0.0000001
 43
0.0000001
 44
0.0000000001
 40
0.0
 40
0.0
 40
0.0
 40
0.0
 40
0.1863673369
 40
0.4150179814
 40
0.6929276535
 40
1.0
 40
1.0
 40
1.0
 40
1.0
 10
29.9365237182
 20
45.0776849525
 30
0.0
 10
29.9264130881
 20
45.0718474106
 30
0.0
 10
29.9090525674
 20
45.0498789259
 30
0.0
 10
29.902956262
 20
45.0057441645
 30
0.0
 10
29.9120232263
 20
44.9550391925
 30
0.0
 10
29.9269055268
 20
44.9211377373
 30
0.0
 10
29.9365237182
 20
44.9044786336
 30
0.0
  0
SPLINE
  5
415
100
AcDbEntity
  8
0
100
AcDbSpline
 62
7
  6
BYLAYER
 70
0
 71
3
 72
11
 73
7
 74
0
 42
0.0000001
 43
0.0000001
 44
0.0000000001
 40
0.0
 40
0.0
 40
0.0
 40
0.0
 40
0.3070706355
 40
0.5849787224
 40
0.81363115
 40
1.0
 40
1.0
 40
1.0
 40
1.0
 10
30.1400779562
 20
45.3684167255
 30
0.0
 10
30.1496960911
 20
45.3517577197
 30
0.0
 10
30.1645784604
 20
45.3178565474
 30
0.0
 10
30.1736454233
 20
45.2671516396
 30
0.0
 10
30.1675490694
 20
45.2230168737
 30
0.0
 10
30.1501886653
 20
45.2010479942
 30
0.0
 10
30.1400779562
 20
45.1952104067
 30
0.0
  0
SPLINE
  5
416
100
AcDbEntity
  8
0
100
AcDbSpline
 62
7
  6
BYLAYER
 70
0
 71
3
 72
11
 73
7
 74
0
 42
0.0000001
 43
0.0000001
 44
0.0000000001
 40
0.0
 40
0.0
 40
0.0
 40
0.0
 40
0.1863673369
 40
0.4150179814
 40
0.6929276535
 40
1.0
 40
1.0
 40
1.0
 40
1.0
 10
29.9365237182
 20
45.8941873696
 30
0.0
 10
29.9264130881
 20
45.8883498277
 30
0.0
 10
29.9090525674
 20
45.8663813431
 30
0.0
 10
29.902956262
 20
45.8222465816
 30
0.0
 10
29.9120232263
 20
45.7715416096
 30
0.0
 10
29.9269055268
 20
45.7376401544
 30
0.0
 10
29.9365237182
 20
45.7209810508
 30
0.0
  0
SPLINE
  5
417
100
AcDbEntity
  8
0
100
AcDbSpline
 62
7
  6
BYLAYER
 70
0
 71
3
 72
11
 73
7
 74
0
 42
0.0000001
 43
0.0000001
 44
0.0000000001
 40
0.0
 40
0.0
 40
0.0
 40
0.0
 40
0.3070706355
 40
0.5849787224
 40
0.81363115
 40
1.0
 40
1.0
 40
1.0
 40
1.0
 10
30.1400779562
 20
46.1849191426
 30
0.0
 10
30.1496960911
 20
46.1682601368
 30
0.0
 10
30.1645784604
 20
46.1343589645
 30
0.0
 10
30.1736454233
 20
46.0836540567
 30
0.0
 10
30.1675490694
 20
46.0395192908
 30
0.0
 10
30.1501886653
 20
46.0175504114
 30
0.0
 10
30.1400779562
 20
46.0117128238
 30
0.0
  0
SPLINE
  5
418
100
AcDbEntity
  8
0
100
AcDbSpline
 62
7
  6
BYLAYER
 70
0
 71
3
 72
11
 73
7
 74
0
 42
0.0000001
 43
0.0000001
 44
0.0000000001
 40
0.0
 40
0.0
 40
0.0
 40
0.0
 40
0.1863673369
 40
0.4150179814
 40
0.6929276535
 40
1.0
 40
1.0
 40
1.0
 40
1.0
 10
29.9365237182
 20
46.7106897867
 30
0.0
 10
29.9264130881
 20
46.7048522448
 30
0.0
 10
29.9090525674
 20
46.6828837602
 30
0.0
 10
29.902956262
 20
46.6387489988
 30
0.0
 10
29.9120232263
 20
46.5880440267
 30
0.0
 10
29.9269055268
 20
46.5541425715
 30
0.0
 10
29.9365237182
 20
46.5374834679
 30
0.0
  0
SPLINE
  5
419
100
AcDbEntity
  8
0
100
AcDbSpline
 62
7
  6
BYLAYER
 70
0
 71
3
 72
11
 73
7
 74
0
 42
0.0000001
 43
0.0000001
 44
0.0000000001
 40
0.0
 40
0.0
 40
0.0
 40
0.0
 40
0.3070706355
 40
0.5849787224
 40
0.81363115
 40
1.0
 40
1.0
 40
1.0
 40
1.0
 10
30.1400779562
 20
47.0014215598
 30
0.0
 10
30.1496960911
 20
46.984762554
 30
0.0
 10
30.1645784604
 20
46.9508613816
 30
0.0
 10
30.1736454233
 20
46.9001564738
 30
0.0
 10
30.1675490694
 20
46.856021708
 30
0.0
 10
30.1501886653
 20
46.8340528285
 30
0.0
 10
30.1400779562
 20
46.828215241
 30
0.0
  0
SPLINE
  5
41A
100
AcDbEntity
  8
0
100
AcDbSpline
 62
7
  6
BYLAYER
 70
0
 71
3
 72
11
 73
7
 74
0
 42
0.0000001
 43
0.0000001
 44
0.0000000001
 40
0.0
 40
0.0
 40
0.0
 40
0.0
 40
0.1863673369
 40
0.4150179814
 40
0.6929276535
 40
1.0
 40
1.0
 40
1.0
 40
1.0
 10
29.9365237182
 20
47.5271922038
 30
0.0
 10
29.9264130881
 20
47.521354662
 30
0.0
 10
29.9090525674
 20
47.4993861773
 30
0.0
 10
29.902956262
 20
47.4552514159
 30
0.0
 10
29.9120232263
 20
47.4045464438
 30
0.0
 10
29.9269055268
 20
47.3706449887
 30
0.0
 10
29.9365237182
 20
47.353985885
 30
0.0
  0
SPLINE
  5
41B
100
AcDbEntity
  8
0
100
AcDbSpline
 62
7
  6
BYLAYER
 70
0
 71
3
 72
11
 73
7
 74
0
 42
0.0000001
 43
0.0000001
 44
0.0000000001
 40
0.0
 40
0.0
 40
0.0
 40
0.0
 40
0.3070706355
 40
0.5849787224
 40
0.81363115
 40
1.0
 40
1.0
 40
1.0
 40
1.0
 10
30.1400779562
 20
47.8179239769
 30
0.0
 10
30.1496960911
 20
47.8012649711
 30
0.0
 10
30.1645784604
 20
47.7673637988
 30
0.0
 10
30.1736454233
 20
47.716658891
 30
0.0
 10
30.1675490694
 20
47.6725241251
 30
0.0
 10
30.1501886653
 20
47.6505552456
 30
0.0
 10
30.1400779562
 20
47.6447176581
 30
0.0
  0
SPLINE
  5
41C
100
AcDbEntity
  8
0
100
AcDbSpline
 62
7
  6
BYLAYER
 70
0
 71
3
 72
11
 73
7
 74
0
 42
0.0000001
 43
0.0000001
 44
0.0000000001
 40
0.0
 40
0.0
 40
0.0
 40
0.0
 40
0.1863673369
 40
0.4150179814
 40
0.6929276535
 40
1.0
 40
1.0
 40
1.0
 40
1.0
 10
29.9365237182
 20
48.343694621
 30
0.0
 10
29.9264130881
 20
48.3378570791
 30
0.0
 10
29.9090525674
 20
48.3158885944
 30
0.0
 10
29.902956262
 20
48.271753833
 30
0.0
 10
29.9120232263
 20
48.221048861
 30
0.0
 10
29.9269055268
 20
48.1871474058
 30
0.0
 10
29.9365237182
 20
48.1704883022
 30
0.0
  0
SPLINE
  5
41D
100
AcDbEntity
  8
0
100
AcDbSpline
 62
7
  6
BYLAYER
 70
0
 71
3
 72
11
 73
7
 74
0
 42
0.0000001
 43
0.0000001
 44
0.0000000001
 40
0.0
 40
0.0
 40
0.0
 40
0.0
 40
0.3070706355
 40
0.5849787224
 40
0.81363115
 40
1.0
 40
1.0
 40
1.0
 40
1.0
 10
30.1400779562
 20
48.634426394
 30
0.0
 10
30.1496960911
 20
48.6177673882
 30
0.0
 10
30.1645784604
 20
48.5838662159
 30
0.0
 10
30.1736454233
 20
48.5331613081
 30
0.0
 10
30.1675490694
 20
48.4890265422
 30
0.0
 10
30.1501886653
 20
48.4670576628
 30
0.0
 10
30.1400779562
 20
48.4612200752
 30
0.0
  0
SPLINE
  5
41E
100
AcDbEntity
  8
0
100
AcDbSpline
 62
7
  6
BYLAYER
 70
0
 71
3
 72
11
 73
7
 74
0
 42
0.0000001
 43
0.0000001
 44
0.0000000001
 40
0.0
 40
0.0
 40
0.0
 40
0.0
 40
0.1863673369
 40
0.4150179814
 40
0.6929276535
 40
1.0
 40
1.0
 40
1.0
 40
1.0
 10
29.9365237182
 20
49.1601970381
 30
0.0
 10
29.9264130881
 20
49.1543594962
 30
0.0
 10
29.9090525674
 20
49.1323910116
 30
0.0
 10
29.902956262
 20
49.0882562502
 30
0.0
 10
29.9120232263
 20
49.0375512781
 30
0.0
 10
29.9269055268
 20
49.0036498229
 30
0.0
 10
29.9365237182
 20
48.9869907193
 30
0.0
  0
SPLINE
  5
41F
100
AcDbEntity
  8
0
100
AcDbSpline
 62
7
  6
BYLAYER
 70
0
 71
3
 72
11
 73
7
 74
0
 42
0.0000001
 43
0.0000001
 44
0.0000000001
 40
0.0
 40
0.0
 40
0.0
 40
0.0
 40
0.3070706355
 40
0.5849787224
 40
0.81363115
 40
1.0
 40
1.0
 40
1.0
 40
1.0
 10
30.1400779562
 20
49.4509288112
 30
0.0
 10
30.1496960911
 20
49.4342698054
 30
0.0
 10
30.1645784604
 20
49.400368633
 30
0.0
 10
30.1736454233
 20
49.3496637252
 30
0.0
 10
30.1675490694
 20
49.3055289594
 30
0.0
 10
30.1501886653
 20
49.2835600799
 30
0.0
 10
30.1400779562
 20
49.2777224924
 30
0.0
  0
SPLINE
  5
420
100
AcDbEntity
  8
0
100
AcDbSpline
 62
7
  6
BYLAYER
 70
0
 71
3
 72
11
 73
7
 74
0
 42
0.0000001
 43
0.0000001
 44
0.0000000001
 40
0.0
 40
0.0
 40
0.0
 40
0.0
 40
0.1863673369
 40
0.4150179814
 40
0.6929276535
 40
1.0
 40
1.0
 40
1.0
 40
1.0
 10
29.9365237182
 20
49.9766994552
 30
0.0
 10
29.9264130881
 20
49.9708619133
 30
0.0
 10
29.9090525674
 20
49.9488934287
 30
0.0
 10
29.902956262
 20
49.9047586673
 30
0.0
 10
29.9120232263
 20
49.8540536952
 30
0.0
 10
29.9269055268
 20
49.8201522401
 30
0.0
 10
29.9365237182
 20
49.8034931364
 30
0.0
  0
SPLINE
  5
421
100
AcDbEntity
  8
0
100
AcDbSpline
 62
7
  6
BYLAYER
 70
0
 71
3
 72
11
 73
7
 74
0
 42
0.0000001
 43
0.0000001
 44
0.0000000001
 40
0.0
 40
0.0
 40
0.0
 40
0.0
 40
0.3070706355
 40
0.5849787224
 40
0.81363115
 40
1.0
 40
1.0
 40
1.0
 40
1.0
 10
30.1400779562
 20
50.2674312283
 30
0.0
 10
30.1496960911
 20
50.2507722225
 30
0.0
 10
30.1645784604
 20
50.2168710501
 30
0.0
 10
30.1736454233
 20
50.1661661424
 30
0.0
 10
30.1675490694
 20
50.1220313765
 30
0.0
 10
30.1501886653
 20
50.100062497
 30
0.0
 10
30.1400779562
 20
50.0942249095
 30
0.0
  0
SPLINE
  5
422
100
AcDbEntity
  8
0
100
AcDbSpline
 62
7
  6
BYLAYER
 70
0
 71
3
 72
11
 73
7
 74
0
 42
0.0000001
 43
0.0000001
 44
0.0000000001
 40
0.0
 40
0.0
 40
0.0
 40
0.0
 40
0.1863673369
 40
0.4150179814
 40
0.6929276535
 40
1.0
 40
1.0
 40
1.0
 40
1.0
 10
29.9365237182
 20
50.7932018724
 30
0.0
 10
29.9264130881
 20
50.7873643305
 30
0.0
 10
29.9090525674
 20
50.7653958458
 30
0.0
 10
29.902956262
 20
50.7212610844
 30
0.0
 10
29.9120232263
 20
50.6705561124
 30
0.0
 10
29.9269055268
 20
50.6366546572
 30
0.0
 10
29.9365237182
 20
50.6199955536
 30
0.0
  0
SPLINE
  5
423
100
AcDbEntity
  8
0
100
AcDbSpline
 62
7
  6
BYLAYER
 70
0
 71
3
 72
11
 73
7
 74
0
 42
0.0000001
 43
0.0000001
 44
0.0000000001
 40
0.0
 40
0.0
 40
0.0
 40
0.0
 40
0.3070706355
 40
0.5849787224
 40
0.81363115
 40
1.0
 40
1.0
 40
1.0
 40
1.0
 10
30.1400779562
 20
51.0839336454
 30
0.0
 10
30.1496960911
 20
51.0672746396
 30
0.0
 10
30.1645784604
 20
51.0333734673
 30
0.0
 10
30.1736454233
 20
50.9826685595
 30
0.0
 10
30.1675490694
 20
50.9385337936
 30
0.0
 10
30.1501886653
 20
50.9165649142
 30
0.0
 10
30.1400779562
 20
50.9107273266
 30
0.0
  0
SPLINE
  5
424
100
AcDbEntity
  8
0
100
AcDbSpline
 62
7
  6
BYLAYER
 70
0
 71
3
 72
11
 73
7
 74
0
 42
0.0000001
 43
0.0000001
 44
0.0000000001
 40
0.0
 40
0.0
 40
0.0
 40
0.0
 40
0.1863673369
 40
0.4150179814
 40
0.6929276535
 40
1.0
 40
1.0
 40
1.0
 40
1.0
 10
29.9365237182
 20
51.6097042895
 30
0.0
 10
29.9264130881
 20
51.6038667476
 30
0.0
 10
29.9090525674
 20
51.581898263
 30
0.0
 10
29.902956262
 20
51.5377635016
 30
0.0
 10
29.9120232263
 20
51.4870585295
 30
0.0
 10
29.9269055268
 20
51.4531570743
 30
0.0
 10
29.9365237182
 20
51.4364979707
 30
0.0
  0
SPLINE
  5
425
100
AcDbEntity
  8
0
100
AcDbSpline
 62
7
  6
BYLAYER
 70
0
 71
3
 72
11
 73
7
 74
0
 42
0.0000001
 43
0.0000001
 44
0.0000000001
 40
0.0
 40
0.0
 40
0.0
 40
0.0
 40
0.3070706355
 40
0.5849787224
 40
0.81363115
 40
1.0
 40
1.0
 40
1.0
 40
1.0
 10
30.1400779562
 20
51.9004360626
 30
0.0
 10
30.1496960911
 20
51.8837770567
 30
0.0
 10
30.1645784604
 20
51.8498758844
 30
0.0
 10
30.1736454233
 20
51.7991709766
 30
0.0
 10
30.1675490694
 20
51.7550362107
 30
0.0
 10
30.1501886653
 20
51.7330673313
 30
0.0
 10
30.1400779562
 20
51.7272297438
 30
0.0
  0
SPLINE
  5
426
100
AcDbEntity
  8
0
100
AcDbSpline
 62
7
  6
BYLAYER
 70
0
 71
3
 72
11
 73
7
 74
0
 42
0.0000001
 43
0.0000001
 44
0.0000000001
 40
0.0
 40
0.0
 40
0.0
 40
0.0
 40
0.1863673369
 40
0.4150179814
 40
0.6929276535
 40
1.0
 40
1.0
 40
1.0
 40
1.0
 10
29.9365237182
 20
52.4262067066
 30
0.0
 10
29.9264130881
 20
52.4203691647
 30
0.0
 10
29.9090525674
 20
52.3984006801
 30
0.0
 10
29.902956262
 20
52.3542659187
 30
0.0
 10
29.9120232263
 20
52.3035609466
 30
0.0
 10
29.9269055268
 20
52.2696594914
 30
0.0
 10
29.9365237182
 20
52.2530003878
 30
0.0
  0
SPLINE
  5
427
100
AcDbEntity
  8
0
100
AcDbSpline
 62
7
  6
BYLAYER
 70
0
 71
3
 72
11
 73
7
 74
0
 42
0.0000001
 43
0.0000001
 44
0.0000000001
 40
0.0
 40
0.0
 40
0.0
 40
0.0
 40
0.3070706355
 40
0.5849787224
 40
0.81363115
 40
1.0
 40
1.0
 40
1.0
 40
1.0
 10
30.1400779562
 20
52.7169384797
 30
0.0
 10
30.1496960911
 20
52.7002794739
 30
0.0
 10
30.1645784604
 20
52.6663783015
 30
0.0
 10
30.1736454233
 20
52.6156733938
 30
0.0
 10
30.1675490694
 20
52.5715386279
 30
0.0
 10
30.1501886653
 20
52.5495697484
 30
0.0
 10
30.1400779562
 20
52.5437321609
 30
0.0
  0
SPLINE
  5
428
100
AcDbEntity
  8
0
100
AcDbSpline
 62
7
  6
BYLAYER
 70
0
 71
3
 72
11
 73
7
 74
0
 42
0.0000001
 43
0.0000001
 44
0.0000000001
 40
0.0
 40
0.0
 40
0.0
 40
0.0
 40
0.1863673369
 40
0.4150179814
 40
0.6929276535
 40
1.0
 40
1.0
 40
1.0
 40
1.0
 10
29.9365237182
 20
53.2427091237
 30
0.0
 10
29.9264130881
 20
53.2368715819
 30
0.0
 10
29.9090525674
 20
53.2149030972
 30
0.0
 10
29.902956262
 20
53.1707683358
 30
0.0
 10
29.9120232263
 20
53.1200633638
 30
0.0
 10
29.9269055268
 20
53.0861619086
 30
0.0
 10
29.9365237182
 20
53.0695028049
 30
0.0
  0
SPLINE
  5
429
100
AcDbEntity
  8
0
100
AcDbSpline
 62
7
  6
BYLAYER
 70
0
 71
3
 72
11
 73
7
 74
0
 42
0.0000001
 43
0.0000001
 44
0.0000000001
 40
0.0
 40
0.0
 40
0.0
 40
0.0
 40
0.3070706355
 40
0.5849787224
 40
0.81363115
 40
1.0
 40
1.0
 40
1.0
 40
1.0
 10
30.1400779562
 20
53.5334408968
 30
0.0
 10
30.1496960911
 20
53.516781891
 30
0.0
 10
30.1645784604
 20
53.4828807187
 30
0.0
 10
30.1736454233
 20
53.4321758109
 30
0.0
 10
30.1675490694
 20
53.388041045
 30
0.0
 10
30.1501886653
 20
53.3660721655
 30
0.0
 10
30.1400779562
 20
53.360234578
 30
0.0
  0
SPLINE
  5
42A
100
AcDbEntity
  8
0
100
AcDbSpline
 62
7
  6
BYLAYER
 70
0
 71
3
 72
11
 73
7
 74
0
 42
0.0000001
 43
0.0000001
 44
0.0000000001
 40
0.0
 40
0.0
 40
0.0
 40
0.0
 40
0.1863673369
 40
0.4150179814
 40
0.6929276535
 40
1.0
 40
1.0
 40
1.0
 40
1.0
 10
29.9365237182
 20
54.0592115409
 30
0.0
 10
29.9264130881
 20
54.053373999
 30
0.0
 10
29.9090525674
 20
54.0314055143
 30
0.0
 10
29.902956262
 20
53.9872707529
 30
0.0
 10
29.9120232263
 20
53.9365657809
 30
0.0
 10
29.9269055268
 20
53.9026643257
 30
0.0
 10
29.9365237182
 20
53.8860052221
 30
0.0
  0
SPLINE
  5
42B
100
AcDbEntity
  8
0
100
AcDbSpline
 62
7
  6
BYLAYER
 70
0
 71
3
 72
11
 73
7
 74
0
 42
0.0000001
 43
0.0000001
 44
0.0000000001
 40
0.0
 40
0.0
 40
0.0
 40
0.0
 40
0.3070706355
 40
0.5849787224
 40
0.81363115
 40
1.0
 40
1.0
 40
1.0
 40
1.0
 10
30.1400779562
 20
54.3499433139
 30
0.0
 10
30.1496960911
 20
54.3332843081
 30
0.0
 10
30.1645784604
 20
54.2993831358
 30
0.0
 10
30.1736454233
 20
54.248678228
 30
0.0
 10
30.1675490694
 20
54.2045434621
 30
0.0
 10
30.1501886653
 20
54.1825745827
 30
0.0
 10
30.1400779562
 20
54.1767369951
 30
0.0
  0
SPLINE
  5
42C
100
AcDbEntity
  8
0
100
AcDbSpline
 62
7
  6
BYLAYER
 70
0
 71
3
 72
11
 73
7
 74
0
 42
0.0000001
 43
0.0000001
 44
0.0000000001
 40
0.0
 40
0.0
 40
0.0
 40
0.0
 40
0.1863673369
 40
0.4150179814
 40
0.6929276535
 40
1.0
 40
1.0
 40
1.0
 40
1.0
 10
29.9365237182
 20
54.875713958
 30
0.0
 10
29.9264130881
 20
54.8698764161
 30
0.0
 10
29.9090525674
 20
54.8479079315
 30
0.0
 10
29.902956262
 20
54.8037731701
 30
0.0
 10
29.9120232263
 20
54.753068198
 30
0.0
 10
29.9269055268
 20
54.7191667428
 30
0.0
 10
29.9365237182
 20
54.7025076392
 30
0.0
  0
SPLINE
  5
42D
100
AcDbEntity
  8
0
100
AcDbSpline
 62
7
  6
BYLAYER
 70
0
 71
3
 72
11
 73
7
 74
0
 42
0.0000001
 43
0.0000001
 44
0.0000000001
 40
0.0
 40
0.0
 40
0.0
 40
0.0
 40
0.3070706355
 40
0.5849787224
 40
0.81363115
 40
1.0
 40
1.0
 40
1.0
 40
1.0
 10
30.1400779562
 20
55.1664457311
 30
0.0
 10
30.1496960911
 20
55.1497867253
 30
0.0
 10
30.1645784604
 20
55.1158855529
 30
0.0
 10
30.1736454233
 20
55.0651806451
 30
0.0
 10
30.1675490694
 20
55.0210458793
 30
0.0
 10
30.1501886653
 20
54.9990769998
 30
0.0
 10
30.1400779562
 20
54.9932394123
 30
0.0
  0
SPLINE
  5
42E
100
AcDbEntity
  8
0
100
AcDbSpline
 62
7
  6
BYLAYER
 70
0
 71
3
 72
11
 73
7
 74
0
 42
0.0000001
 43
0.0000001
 44
0.0000000001
 40
0.0
 40
0.0
 40
0.0
 40
0.0
 40
0.1863673369
 40
0.4150179814
 40
0.6929276535
 40
1.0
 40
1.0
 40
1.0
 40
1.0
 10
29.9365237182
 20
55.6922163751
 30
0.0
 10
29.9264130881
 20
55.6863788333
 30
0.0
 10
29.9090525674
 20
55.6644103486
 30
0.0
 10
29.902956262
 20
55.6202755872
 30
0.0
 10
29.9120232263
 20
55.5695706151
 30
0.0
 10
29.9269055268
 20
55.53566916
 30
0.0
 10
29.9365237182
 20
55.5190100563
 30
0.0
  0
SPLINE
  5
42F
100
AcDbEntity
  8
0
100
AcDbSpline
 62
7
  6
BYLAYER
 70
0
 71
3
 72
11
 73
7
 74
0
 42
0.0000001
 43
0.0000001
 44
0.0000000001
 40
0.0
 40
0.0
 40
0.0
 40
0.0
 40
0.3070706355
 40
0.5849787224
 40
0.81363115
 40
1.0
 40
1.0
 40
1.0
 40
1.0
 10
30.1400779562
 20
55.9829481482
 30
0.0
 10
30.1496960911
 20
55.9662891424
 30
0.0
 10
30.1645784604
 20
55.93238797
 30
0.0
 10
30.1736454233
 20
55.8816830623
 30
0.0
 10
30.1675490694
 20
55.8375482964
 30
0.0
 10
30.1501886653
 20
55.8155794169
 30
0.0
 10
30.1400779562
 20
55.8097418294
 30
0.0
  0
SPLINE
  5
430
100
AcDbEntity
  8
0
100
AcDbSpline
 62
7
  6
BYLAYER
 70
0
 71
3
 72
11
 73
7
 74
0
 42
0.0000001
 43
0.0000001
 44
0.0000000001
 40
0.0
 40
0.0
 40
0.0
 40
0.0
 40
0.1863673369
 40
0.4150179814
 40
0.6929276535
 40
1.0
 40
1.0
 40
1.0
 40
1.0
 10
29.9365237182
 20
56.5087187923
 30
0.0
 10
29.9264130881
 20
56.5028812504
 30
0.0
 10
29.9090525674
 20
56.4809127657
 30
0.0
 10
29.902956262
 20
56.4367780043
 30
0.0
 10
29.9120232263
 20
56.3860730323
 30
0.0
 10
29.9269055268
 20
56.3521715771
 30
0.0
 10
29.9365237182
 20
56.3355124735
 30
0.0
  0
SPLINE
  5
431
100
AcDbEntity
  8
0
100
AcDbSpline
 62
7
  6
BYLAYER
 70
0
 71
3
 72
11
 73
7
 74
0
 42
0.0000001
 43
0.0000001
 44
0.0000000001
 40
0.0
 40
0.0
 40
0.0
 40
0.0
 40
0.3070706355
 40
0.5849787224
 40
0.81363115
 40
1.0
 40
1.0
 40
1.0
 40
1.0
 10
30.1400779562
 20
56.7994505653
 30
0.0
 10
30.1496960911
 20
56.7827915595
 30
0.0
 10
30.1645784604
 20
56.7488903872
 30
0.0
 10
30.1736454233
 20
56.6981854794
 30
0.0
 10
30.1675490694
 20
56.6540507135
 30
0.0
 10
30.1501886653
 20
56.6320818341
 30
0.0
 10
30.1400779562
 20
56.6262442465
 30
0.0
  0
SPLINE
  5
432
100
AcDbEntity
  8
0
100
AcDbSpline
 62
7
  6
BYLAYER
 70
0
 71
3
 72
11
 73
7
 74
0
 42
0.0000001
 43
0.0000001
 44
0.0000000001
 40
0.0
 40
0.0
 40
0.0
 40
0.0
 40
0.1863673369
 40
0.4150179814
 40
0.6929276535
 40
1.0
 40
1.0
 40
1.0
 40
1.0
 10
29.9365237182
 20
57.3252212094
 30
0.0
 10
29.9264130881
 20
57.3193836675
 30
0.0
 10
29.9090525674
 20
57.2974151829
 30
0.0
 10
29.902956262
 20
57.2532804215
 30
0.0
 10
29.9120232263
 20
57.2025754494
 30
0.0
 10
29.9269055268
 20
57.1686739942
 30
0.0
 10
29.9365237182
 20
57.1520148906
 30
0.0
  0
SPLINE
  5
433
100
AcDbEntity
  8
0
100
AcDbSpline
 62
7
  6
BYLAYER
 70
0
 71
3
 72
11
 73
7
 74
0
 42
0.0000001
 43
0.0000001
 44
0.0000000001
 40
0.0
 40
0.0
 40
0.0
 40
0.0
 40
0.3070706355
 40
0.5849787224
 40
0.81363115
 40
1.0
 40
1.0
 40
1.0
 40
1.0
 10
30.1400779562
 20
57.6159529825
 30
0.0
 10
30.1496960911
 20
57.5992939767
 30
0.0
 10
30.1645784604
 20
57.5653928043
 30
0.0
 10
30.1736454233
 20
57.5146878965
 30
0.0
 10
30.1675490694
 20
57.4705531306
 30
0.0
 10
30.1501886653
 20
57.4485842512
 30
0.0
 10
30.1400779562
 20
57.4427466637
 30
0.0
  0
SPLINE
  5
434
100
AcDbEntity
  8
0
100
AcDbSpline
 62
7
  6
BYLAYER
 70
0
 71
3
 72
11
 73
7
 74
0
 42
0.0000001
 43
0.0000001
 44
0.0000000001
 40
0.0
 40
0.0
 40
0.0
 40
0.0
 40
0.1863673369
 40
0.4150179814
 40
0.6929276535
 40
1.0
 40
1.0
 40
1.0
 40
1.0
 10
29.9365237182
 20
58.1417236265
 30
0.0
 10
29.9264130881
 20
58.1358860846
 30
0.0
 10
29.9090525674
 20
58.1139176
 30
0.0
 10
29.902956262
 20
58.0697828386
 30
0.0
 10
29.9120232263
 20
58.0190778665
 30
0.0
 10
29.9269055268
 20
57.9851764114
 30
0.0
 10
29.9365237182
 20
57.9685173077
 30
0.0
  0
SPLINE
  5
435
100
AcDbEntity
  8
0
100
AcDbSpline
 62
7
  6
BYLAYER
 70
0
 71
3
 72
11
 73
7
 74
0
 42
0.0000001
 43
0.0000001
 44
0.0000000001
 40
0.0
 40
0.0
 40
0.0
 40
0.0
 40
0.3070706355
 40
0.5849787224
 40
0.81363115
 40
1.0
 40
1.0
 40
1.0
 40
1.0
 10
30.1400779562
 20
58.4324553996
 30
0.0
 10
30.1496960911
 20
58.4157963938
 30
0.0
 10
30.1645784604
 20
58.3818952214
 30
0.0
 10
30.1736454233
 20
58.3311903137
 30
0.0
 10
30.1675490694
 20
58.2870555478
 30
0.0
 10
30.1501886653
 20
58.2650866683
 30
0.0
 10
30.1400779562
 20
58.2592490808
 30
0.0
  0
SPLINE
  5
436
100
AcDbEntity
  8
0
100
AcDbSpline
 62
7
  6
BYLAYER
 70
0
 71
3
 72
14
 73
10
 74
0
 42
0.0000001
 43
0.0000001
 44
0.0000000001
 40
0.0
 40
0.0
 40
0.0
 40
0.0
 40
0.2892627236
 40
0.4225620581
 40
0.5485070661
 40
0.6678898887
 40
0.7818699259
 40
0.8919549059
 40
1.0
 40
1.0
 40
1.0
 40
1.0
 10
39.8494482736
 20
17.2207481877
 30
0.0
 10
39.8494482736
 20
16.9609921691
 30
0.0
 10
39.8191072092
 20
16.5796700478
 30
0.0
 10
39.7018920202
 20
16.1004004679
 30
0.0
 10
39.5826429011
 20
15.7810239347
 30
0.0
 10
39.4305895903
 20
15.4952873596
 30
0.0
 10
39.2470381118
 20
15.2459329526
 30
0.0
 10
39.0335693827
 20
15.0358479865
 30
0.0
 10
38.8720109916
 20
14.9231305551
 30
0.0
 10
38.7879907141
 20
14.8746103814
 30
0.0
  0
SPLINE
  5
437
100
AcDbEntity
  8
0
100
AcDbSpline
 62
7
  6
BYLAYER
 70
0
 71
3
 72
11
 73
7
 74
0
 42
0.0000001
 43
0.0000001
 44
0.0000000001
 40
0.0
 40
0.0
 40
0.0
 40
0.0
 40
0.223564661
 40
0.463536206
 40
0.7222734968
 40
1.0
 40
1.0
 40
1.0
 40
1.0
 10
34.4934229877
 20
68.9299652016
 30
0.0
 10
34.4132247003
 20
68.814240709
 30
0.0
 10
34.2711900125
 20
68.5568976779
 30
0.0
 10
34.1228614138
 20
68.1249518127
 30
0.0
 10
34.0341188147
 20
67.6425285357
 30
0.0
 10
34.0157812653
 20
67.3042448908
 30
0.0
 10
34.0157812653
 20
67.1293371714
 30
0.0
  0
SPLINE
  5
438
100
AcDbEntity
  8
0
100
AcDbSpline
 62
7
  6
BYLAYER
 70
0
 71
3
 72
11
 73
7
 74
0
 42
0.0000001
 43
0.0000001
 44
0.0000000001
 40
0.0
 40
0.0
 40
0.0
 40
0.0
 40
0.3070706355
 40
0.5849787224
 40
0.81363115
 40
1.0
 40
1.0
 40
1.0
 40
1.0
 10
43.9287058207
 20
58.2284986317
 30
0.0
 10
43.9383239556
 20
58.2118396259
 30
0.0
 10
43.9532063249
 20
58.1779384536
 30
0.0
 10
43.9622732878
 20
58.1272335458
 30
0.0
 10
43.9561769339
 20
58.0830987799
 30
0.0
 10
43.9388165298
 20
58.0611299004
 30
0.0
 10
43.9287058207
 20
58.0552923129
 30
0.0
  0
SPLINE
  5
439
100
AcDbEntity
  8
0
100
AcDbSpline
 62
7
  6
BYLAYER
 70
0
 71
3
 72
11
 73
7
 74
0
 42
0.0000001
 43
0.0000001
 44
0.0000000001
 40
0.0
 40
0.0
 40
0.0
 40
0.0
 40
0.1863673369
 40
0.4150179814
 40
0.6929276535
 40
1.0
 40
1.0
 40
1.0
 40
1.0
 10
43.7251515827
 20
58.7542692758
 30
0.0
 10
43.7150409526
 20
58.7484317339
 30
0.0
 10
43.6976804319
 20
58.7264632492
 30
0.0
 10
43.6915841265
 20
58.6823284878
 30
0.0
 10
43.7006510908
 20
58.6316235158
 30
0.0
 10
43.7155333913
 20
58.5977220606
 30
0.0
 10
43.7251515827
 20
58.581062957
 30
0.0
  0
SPLINE
  5
43A
100
AcDbEntity
  8
0
100
AcDbSpline
 62
7
  6
BYLAYER
 70
0
 71
3
 72
23
 73
19
 74
0
 42
0.0000001
 43
0.0000001
 44
0.0000000001
 40
0.0
 40
0.0
 40
0.0
 40
0.0
 40
0.0428136627
 40
0.0873953382
 40
0.1351787076
 40
0.1870887764
 40
0.2435345351
 40
0.3044910801
 40
0.3695892327
 40
0.4381964242
 40
0.5094933421
 40
0.5825292555
 40
0.656270414
 40
0.7296595763
 40
0.8016497187
 40
0.8712468985
 40
0.9376204939
 40
1.0
 40
1.0
 40
1.0
 40
1.0
 10
33.6630311504
 20
68.65898667
 30
0.0
 10
33.7893728434
 20
68.7319466872
 30
0.0
 10
34.0679115753
 20
68.84765894
 30
0.0
 10
34.5276550802
 20
68.9150897336
 30
0.0
 10
35.0213728729
 20
68.8787413955
 30
0.0
 10
35.538063148
 20
68.7414347409
 30
0.0
 10
36.0676048647
 20
68.5074176414
 30
0.0
 10
36.5994531163
 20
68.1820588712
 30
0.0
 10
37.1227762894
 20
67.7723309938
 30
0.0
 10
37.6267453024
 20
67.2869681292
 30
0.0
 10
38.1007592057
 20
66.7362530808
 30
0.0
 10
38.5347154589
 20
66.1318619214
 30
0.0
 10
38.9194066555
 20
65.486696553
 30
0.0
 10
39.2466297292
 20
64.8145103505
 30
0.0
 10
39.5093824392
 20
64.1296626822
 30
0.0
 10
39.7021381323
 20
63.4465841438
 30
0.0
 10
39.82058846
 20
62.7799869383
 30
0.0
 10
39.8494482736
 20
62.3409503256
 30
0.0
 10
39.8494482736
 20
62.1283811299
 30
0.0
  0
SPLINE
  5
43B
100
AcDbEntity
  8
0
100
AcDbSpline
 62
7
  6
BYLAYER
 70
0
 71
3
 72
11
 73
7
 74
0
 42
0.0000001
 43
0.0000001
 44
0.0000000001
 40
0.0
 40
0.0
 40
0.0
 40
0.0
 40
0.3070706355
 40
0.5849787224
 40
0.81363115
 40
1.0
 40
1.0
 40
1.0
 40
1.0
 10
43.9287058207
 20
59.0450010488
 30
0.0
 10
43.9383239556
 20
59.028342043
 30
0.0
 10
43.9532063249
 20
58.9944408707
 30
0.0
 10
43.9622732878
 20
58.9437359629
 30
0.0
 10
43.9561769339
 20
58.899601197
 30
0.0
 10
43.9388165298
 20
58.8776323176
 30
0.0
 10
43.9287058207
 20
58.87179473
 30
0.0
  0
SPLINE
  5
43C
100
AcDbEntity
  8
0
100
AcDbSpline
 62
7
  6
BYLAYER
 70
0
 71
3
 72
11
 73
7
 74
0
 42
0.0000001
 43
0.0000001
 44
0.0000000001
 40
0.0
 40
0.0
 40
0.0
 40
0.0
 40
0.1863673369
 40
0.4150179814
 40
0.6929276535
 40
1.0
 40
1.0
 40
1.0
 40
1.0
 10
43.7251515827
 20
59.5707716929
 30
0.0
 10
43.7150409526
 20
59.564934151
 30
0.0
 10
43.6976804319
 20
59.5429656664
 30
0.0
 10
43.6915841265
 20
59.498830905
 30
0.0
 10
43.7006510908
 20
59.4481259329
 30
0.0
 10
43.7155333913
 20
59.4142244777
 30
0.0
 10
43.7251515827
 20
59.3975653741
 30
0.0
  0
SPLINE
  5
43D
100
AcDbEntity
  8
0
100
AcDbSpline
 62
7
  6
BYLAYER
 70
0
 71
3
 72
11
 73
7
 74
0
 42
0.0000001
 43
0.0000001
 44
0.0000000001
 40
0.0
 40
0.0
 40
0.0
 40
0.0
 40
0.3070706355
 40
0.5849787224
 40
0.81363115
 40
1.0
 40
1.0
 40
1.0
 40
1.0
 10
43.9287058207
 20
59.861503466
 30
0.0
 10
43.9383239556
 20
59.8448444602
 30
0.0
 10
43.9532063249
 20
59.8109432878
 30
0.0
 10
43.9622732878
 20
59.76023838
 30
0.0
 10
43.9561769339
 20
59.7161036142
 30
0.0
 10
43.9388165298
 20
59.6941347347
 30
0.0
 10
43.9287058207
 20
59.6882971472
 30
0.0
  0
SPLINE
  5
43E
100
AcDbEntity
  8
0
100
AcDbSpline
 62
7
  6
BYLAYER
 70
0
 71
3
 72
11
 73
7
 74
0
 42
0.0000001
 43
0.0000001
 44
0.0000000001
 40
0.0
 40
0.0
 40
0.0
 40
0.0
 40
0.1863673369
 40
0.4150179814
 40
0.6929276535
 40
1.0
 40
1.0
 40
1.0
 40
1.0
 10
43.7251515827
 20
60.38727411
 30
0.0
 10
43.7150409526
 20
60.3814365681
 30
0.0
 10
43.6976804319
 20
60.3594680835
 30
0.0
 10
43.6915841265
 20
60.3153333221
 30
0.0
 10
43.7006510908
 20
60.26462835
 30
0.0
 10
43.7155333913
 20
60.2307268949
 30
0.0
 10
43.7251515827
 20
60.2140677912
 30
0.0
  0
SPLINE
  5
43F
100
AcDbEntity
  8
0
100
AcDbSpline
 62
7
  6
BYLAYER
 70
0
 71
3
 72
11
 73
7
 74
0
 42
0.0000001
 43
0.0000001
 44
0.0000000001
 40
0.0
 40
0.0
 40
0.0
 40
0.0
 40
0.3070706355
 40
0.5849787224
 40
0.81363115
 40
1.0
 40
1.0
 40
1.0
 40
1.0
 10
43.9287058207
 20
60.6780058831
 30
0.0
 10
43.9383239556
 20
60.6613468773
 30
0.0
 10
43.9532063249
 20
60.6274457049
 30
0.0
 10
43.9622732878
 20
60.5767407972
 30
0.0
 10
43.9561769339
 20
60.5326060313
 30
0.0
 10
43.9388165298
 20
60.5106371518
 30
0.0
 10
43.9287058207
 20
60.5047995643
 30
0.0
  0
SPLINE
  5
440
100
AcDbEntity
  8
0
100
AcDbSpline
 62
7
  6
BYLAYER
 70
0
 71
3
 72
11
 73
7
 74
0
 42
0.0000001
 43
0.0000001
 44
0.0000000001
 40
0.0
 40
0.0
 40
0.0
 40
0.0
 40
0.1863673369
 40
0.4150179814
 40
0.6929276535
 40
1.0
 40
1.0
 40
1.0
 40
1.0
 10
43.7251515827
 20
61.2037765272
 30
0.0
 10
43.7150409526
 20
61.1979389853
 30
0.0
 10
43.6976804319
 20
61.1759705006
 30
0.0
 10
43.6915841265
 20
61.1318357392
 30
0.0
 10
43.7006510908
 20
61.0811307672
 30
0.0
 10
43.7155333913
 20
61.047229312
 30
0.0
 10
43.7251515827
 20
61.0305702084
 30
0.0
  0
SPLINE
  5
441
100
AcDbEntity
  8
0
100
AcDbSpline
 62
7
  6
BYLAYER
 70
0
 71
3
 72
11
 73
7
 74
0
 42
0.0000001
 43
0.0000001
 44
0.0000000001
 40
0.0
 40
0.0
 40
0.0
 40
0.0
 40
0.3070706355
 40
0.5849787224
 40
0.81363115
 40
1.0
 40
1.0
 40
1.0
 40
1.0
 10
43.9279834901
 20
61.4940912505
 30
0.0
 10
43.937601625
 20
61.4774322447
 30
0.0
 10
43.9524839943
 20
61.4435310724
 30
0.0
 10
43.9615509572
 20
61.3928261646
 30
0.0
 10
43.9554546033
 20
61.3486913987
 30
0.0
 10
43.9380941992
 20
61.3267225192
 30
0.0
 10
43.9279834901
 20
61.3208849317
 30
0.0
  0
SPLINE
  5
442
100
AcDbEntity
  8
0
100
AcDbSpline
 62
7
  6
BYLAYER
 70
0
 71
3
 72
18
 73
14
 74
0
 42
0.0000001
 43
0.0000001
 44
0.0000000001
 40
0.0
 40
0.0
 40
0.0
 40
0.0
 40
0.0449228774
 40
0.0907447423
 40
0.138205092
 40
0.1879619483
 40
0.2405114868
 40
0.2961524403
 40
0.4170213645
 40
0.5503501784
 40
0.6941232261
 40
0.8452554208
 40
1.0
 40
1.0
 40
1.0
 40
1.0
 10
33.7255250134
 20
11.3955739968
 30
0.0
 10
33.808581215
 20
11.4435063175
 30
0.0
 10
33.9851458619
 20
11.5258820002
 30
0.0
 10
34.2709697908
 20
11.6040084287
 30
0.0
 10
34.5758281642
 20
11.6363744673
 30
0.0
 10
34.8962861504
 20
11.6231466292
 30
0.0
 10
35.2292477816
 20
11.5646879206
 30
0.0
 10
35.6984534829
 20
11.4237748739
 30
0.0
 10
36.2971687432
 20
11.1323840196
 30
0.0
 10
36.9907444365
 20
10.636563444
 30
0.0
 10
37.6543079298
 20
10.0038408756
 30
0.0
 10
38.262591629
 20
9.2585522756
 30
0.0
 10
38.615041007
 20
8.706888702
 30
0.0
 10
38.7767713928
 20
8.4188627271
 30
0.0
  0
SPLINE
  5
443
100
AcDbEntity
  8
0
100
AcDbSpline
 62
7
  6
BYLAYER
 70
0
 71
3
 72
11
 73
7
 74
0
 42
0.0000001
 43
0.0000001
 44
0.0000000001
 40
0.0
 40
0.0
 40
0.0
 40
0.0
 40
0.2739694543
 40
0.5288239768
 40
0.7685223491
 40
1.0
 40
1.0
 40
1.0
 40
1.0
 10
42.0828532771
 20
8.694713298
 30
0.0
 10
42.0717453982
 20
8.649682762
 30
0.0
 10
42.0438096085
 20
8.5641407075
 30
0.0
 10
41.9819092973
 20
8.4488118774
 30
0.0
 10
41.9021761075
 20
8.3540422917
 30
0.0
 10
41.8376304294
 20
8.3057293455
 30
0.0
 10
41.8036868259
 20
8.2861476393
 30
0.0
  0
SPLINE
  5
444
100
AcDbEntity
  8
0
100
AcDbSpline
 62
7
  6
BYLAYER
 70
0
 71
3
 72
11
 73
7
 74
0
 42
0.0000001
 43
0.0000001
 44
0.0000000001
 40
0.0
 40
0.0
 40
0.0
 40
0.0
 40
0.3070706355
 40
0.5849787224
 40
0.81363115
 40
1.0
 40
1.0
 40
1.0
 40
1.0
 10
43.9294281514
 20
16.5856242517
 30
0.0
 10
43.9390462862
 20
16.5689652459
 30
0.0
 10
43.9539286556
 20
16.5350640735
 30
0.0
 10
43.9629956185
 20
16.4843591658
 30
0.0
 10
43.9568992646
 20
16.4402243999
 30
0.0
 10
43.9395388605
 20
16.4182555204
 30
0.0
 10
43.9294281513
 20
16.4124179329
 30
0.0
  0
SPLINE
  5
445
100
AcDbEntity
  8
0
100
AcDbSpline
 62
7
  6
BYLAYER
 70
0
 71
3
 72
11
 73
7
 74
0
 42
0.0000001
 43
0.0000001
 44
0.0000000001
 40
0.0
 40
0.0
 40
0.0
 40
0.0
 40
0.1863673369
 40
0.4150179814
 40
0.6929276535
 40
1.0
 40
1.0
 40
1.0
 40
1.0
 10
43.7251515827
 20
17.1126460022
 30
0.0
 10
43.7150409526
 20
17.1068084603
 30
0.0
 10
43.6976804319
 20
17.0848399756
 30
0.0
 10
43.6915841265
 20
17.0407052142
 30
0.0
 10
43.7006510908
 20
16.9900002422
 30
0.0
 10
43.7155333913
 20
16.956098787
 30
0.0
 10
43.7251515827
 20
16.9394396834
 30
0.0
  0
SPLINE
  5
446
100
AcDbEntity
  8
0
100
AcDbSpline
 62
7
  6
BYLAYER
 70
0
 71
3
 72
11
 73
7
 74
0
 42
0.0000001
 43
0.0000001
 44
0.0000000001
 40
0.0
 40
0.0
 40
0.0
 40
0.0
 40
0.3070706355
 40
0.5849787224
 40
0.81363115
 40
1.0
 40
1.0
 40
1.0
 40
1.0
 10
43.9287058207
 20
17.4033777752
 30
0.0
 10
43.9383239556
 20
17.3867187694
 30
0.0
 10
43.9532063249
 20
17.3528175971
 30
0.0
 10
43.9622732878
 20
17.3021126893
 30
0.0
 10
43.9561769339
 20
17.2579779234
 30
0.0
 10
43.9388165298
 20
17.236009044
 30
0.0
 10
43.9287058207
 20
17.2301714564
 30
0.0
  0
SPLINE
  5
447
100
AcDbEntity
  8
0
100
AcDbSpline
 62
7
  6
BYLAYER
 70
0
 71
3
 72
11
 73
7
 74
0
 42
0.0000001
 43
0.0000001
 44
0.0000000001
 40
0.0
 40
0.0
 40
0.0
 40
0.0
 40
0.1863673369
 40
0.4150179814
 40
0.6929276535
 40
1.0
 40
1.0
 40
1.0
 40
1.0
 10
43.7251515827
 20
17.9291484193
 30
0.0
 10
43.7150409526
 20
17.9233108774
 30
0.0
 10
43.6976804319
 20
17.9013423928
 30
0.0
 10
43.6915841265
 20
17.8572076314
 30
0.0
 10
43.7006510908
 20
17.8065026593
 30
0.0
 10
43.7155333913
 20
17.7726012041
 30
0.0
 10
43.7251515827
 20
17.7559421005
 30
0.0
  0
SPLINE
  5
448
100
AcDbEntity
  8
0
100
AcDbSpline
 62
7
  6
BYLAYER
 70
0
 71
3
 72
11
 73
7
 74
0
 42
0.0000001
 43
0.0000001
 44
0.0000000001
 40
0.0
 40
0.0
 40
0.0
 40
0.0
 40
0.3070706355
 40
0.5849787224
 40
0.81363115
 40
1.0
 40
1.0
 40
1.0
 40
1.0
 10
43.9287058207
 20
18.2198801924
 30
0.0
 10
43.9383239556
 20
18.2032211866
 30
0.0
 10
43.9532063249
 20
18.1693200142
 30
0.0
 10
43.9622732878
 20
18.1186151064
 30
0.0
 10
43.9561769339
 20
18.0744803405
 30
0.0
 10
43.9388165298
 20
18.0525114611
 30
0.0
 10
43.9287058207
 20
18.0466738736
 30
0.0
  0
SPLINE
  5
449
100
AcDbEntity
  8
0
100
AcDbSpline
 62
7
  6
BYLAYER
 70
0
 71
3
 72
11
 73
7
 74
0
 42
0.0000001
 43
0.0000001
 44
0.0000000001
 40
0.0
 40
0.0
 40
0.0
 40
0.0
 40
0.1863673369
 40
0.4150179814
 40
0.6929276535
 40
1.0
 40
1.0
 40
1.0
 40
1.0
 10
43.7251515827
 20
18.7456508364
 30
0.0
 10
43.7150409526
 20
18.7398132945
 30
0.0
 10
43.6976804319
 20
18.7178448099
 30
0.0
 10
43.6915841265
 20
18.6737100485
 30
0.0
 10
43.7006510908
 20
18.6230050764
 30
0.0
 10
43.7155333913
 20
18.5891036213
 30
0.0
 10
43.7251515827
 20
18.5724445176
 30
0.0
  0
SPLINE
  5
44A
100
AcDbEntity
  8
0
100
AcDbSpline
 62
7
  6
BYLAYER
 70
0
 71
3
 72
11
 73
7
 74
0
 42
0.0000001
 43
0.0000001
 44
0.0000000001
 40
0.0
 40
0.0
 40
0.0
 40
0.0
 40
0.3070706355
 40
0.5849787224
 40
0.81363115
 40
1.0
 40
1.0
 40
1.0
 40
1.0
 10
43.9287058207
 20
19.0363826095
 30
0.0
 10
43.9383239556
 20
19.0197236037
 30
0.0
 10
43.9532063249
 20
18.9858224313
 30
0.0
 10
43.9622732878
 20
18.9351175236
 30
0.0
 10
43.9561769339
 20
18.8909827577
 30
0.0
 10
43.9388165298
 20
18.8690138782
 30
0.0
 10
43.9287058207
 20
18.8631762907
 30
0.0
  0
SPLINE
  5
44B
100
AcDbEntity
  8
0
100
AcDbSpline
 62
7
  6
BYLAYER
 70
0
 71
3
 72
11
 73
7
 74
0
 42
0.0000001
 43
0.0000001
 44
0.0000000001
 40
0.0
 40
0.0
 40
0.0
 40
0.0
 40
0.1863673369
 40
0.4150179814
 40
0.6929276535
 40
1.0
 40
1.0
 40
1.0
 40
1.0
 10
43.7251515827
 20
19.5621532536
 30
0.0
 10
43.7150409526
 20
19.5563157117
 30
0.0
 10
43.6976804319
 20
19.534347227
 30
0.0
 10
43.6915841265
 20
19.4902124656
 30
0.0
 10
43.7006510908
 20
19.4395074936
 30
0.0
 10
43.7155333913
 20
19.4056060384
 30
0.0
 10
43.7251515827
 20
19.3889469348
 30
0.0
  0
SPLINE
  5
44C
100
AcDbEntity
  8
0
100
AcDbSpline
 62
7
  6
BYLAYER
 70
0
 71
3
 72
11
 73
7
 74
0
 42
0.0000001
 43
0.0000001
 44
0.0000000001
 40
0.0
 40
0.0
 40
0.0
 40
0.0
 40
0.3070706355
 40
0.5849787224
 40
0.81363115
 40
1.0
 40
1.0
 40
1.0
 40
1.0
 10
43.9287058207
 20
19.8528850266
 30
0.0
 10
43.9383239556
 20
19.8362260208
 30
0.0
 10
43.9532063249
 20
19.8023248485
 30
0.0
 10
43.9622732878
 20
19.7516199407
 30
0.0
 10
43.9561769339
 20
19.7074851748
 30
0.0
 10
43.9388165298
 20
19.6855162953
 30
0.0
 10
43.9287058207
 20
19.6796787078
 30
0.0
  0
SPLINE
  5
44D
100
AcDbEntity
  8
0
100
AcDbSpline
 62
7
  6
BYLAYER
 70
0
 71
3
 72
11
 73
7
 74
0
 42
0.0000001
 43
0.0000001
 44
0.0000000001
 40
0.0
 40
0.0
 40
0.0
 40
0.0
 40
0.1863673369
 40
0.4150179814
 40
0.6929276535
 40
1.0
 40
1.0
 40
1.0
 40
1.0
 10
43.7251515827
 20
20.3786556707
 30
0.0
 10
43.7150409526
 20
20.3728181288
 30
0.0
 10
43.6976804319
 20
20.3508496442
 30
0.0
 10
43.6915841265
 20
20.3067148827
 30
0.0
 10
43.7006510908
 20
20.2560099107
 30
0.0
 10
43.7155333913
 20
20.2221084555
 30
0.0
 10
43.7251515827
 20
20.2054493519
 30
0.0
  0
SPLINE
  5
44E
100
AcDbEntity
  8
0
100
AcDbSpline
 62
7
  6
BYLAYER
 70
0
 71
3
 72
11
 73
7
 74
0
 42
0.0000001
 43
0.0000001
 44
0.0000000001
 40
0.0
 40
0.0
 40
0.0
 40
0.0
 40
0.3070706355
 40
0.5849787224
 40
0.81363115
 40
1.0
 40
1.0
 40
1.0
 40
1.0
 10
43.9287058207
 20
20.6693874438
 30
0.0
 10
43.9383239556
 20
20.6527284379
 30
0.0
 10
43.9532063249
 20
20.6188272656
 30
0.0
 10
43.9622732878
 20
20.5681223578
 30
0.0
 10
43.9561769339
 20
20.5239875919
 30
0.0
 10
43.9388165298
 20
20.5020187125
 30
0.0
 10
43.9287058207
 20
20.4961811249
 30
0.0
  0
SPLINE
  5
44F
100
AcDbEntity
  8
0
100
AcDbSpline
 62
7
  6
BYLAYER
 70
0
 71
3
 72
11
 73
7
 74
0
 42
0.0000001
 43
0.0000001
 44
0.0000000001
 40
0.0
 40
0.0
 40
0.0
 40
0.0
 40
0.1863673369
 40
0.4150179814
 40
0.6929276535
 40
1.0
 40
1.0
 40
1.0
 40
1.0
 10
43.7251515827
 20
21.1951580878
 30
0.0
 10
43.7150409526
 20
21.1893205459
 30
0.0
 10
43.6976804319
 20
21.1673520613
 30
0.0
 10
43.6915841265
 20
21.1232172999
 30
0.0
 10
43.7006510908
 20
21.0725123278
 30
0.0
 10
43.7155333913
 20
21.0386108726
 30
0.0
 10
43.7251515827
 20
21.021951769
 30
0.0
  0
SPLINE
  5
450
100
AcDbEntity
  8
0
100
AcDbSpline
 62
7
  6
BYLAYER
 70
0
 71
3
 72
11
 73
7
 74
0
 42
0.0000001
 43
0.0000001
 44
0.0000000001
 40
0.0
 40
0.0
 40
0.0
 40
0.0
 40
0.3070706355
 40
0.5849787224
 40
0.81363115
 40
1.0
 40
1.0
 40
1.0
 40
1.0
 10
43.9287058207
 20
21.4858898609
 30
0.0
 10
43.9383239556
 20
21.4692308551
 30
0.0
 10
43.9532063249
 20
21.4353296827
 30
0.0
 10
43.9622732878
 20
21.3846247749
 30
0.0
 10
43.9561769339
 20
21.3404900091
 30
0.0
 10
43.9388165298
 20
21.3185211296
 30
0.0
 10
43.9287058207
 20
21.3126835421
 30
0.0
  0
SPLINE
  5
451
100
AcDbEntity
  8
0
100
AcDbSpline
 62
7
  6
BYLAYER
 70
0
 71
3
 72
11
 73
7
 74
0
 42
0.0000001
 43
0.0000001
 44
0.0000000001
 40
0.0
 40
0.0
 40
0.0
 40
0.0
 40
0.1863673369
 40
0.4150179814
 40
0.6929276535
 40
1.0
 40
1.0
 40
1.0
 40
1.0
 10
43.7251515827
 20
22.0116605049
 30
0.0
 10
43.7150409526
 20
22.0058229631
 30
0.0
 10
43.6976804319
 20
21.9838544784
 30
0.0
 10
43.6915841265
 20
21.939719717
 30
0.0
 10
43.7006510908
 20
21.8890147449
 30
0.0
 10
43.7155333913
 20
21.8551132898
 30
0.0
 10
43.7251515827
 20
21.8384541861
 30
0.0
  0
SPLINE
  5
452
100
AcDbEntity
  8
0
100
AcDbSpline
 62
7
  6
BYLAYER
 70
0
 71
3
 72
11
 73
7
 74
0
 42
0.0000001
 43
0.0000001
 44
0.0000000001
 40
0.0
 40
0.0
 40
0.0
 40
0.0
 40
0.3070706355
 40
0.5849787224
 40
0.81363115
 40
1.0
 40
1.0
 40
1.0
 40
1.0
 10
43.9287058207
 20
22.302392278
 30
0.0
 10
43.9383239556
 20
22.2857332722
 30
0.0
 10
43.9532063249
 20
22.2518320999
 30
0.0
 10
43.9622732878
 20
22.2011271921
 30
0.0
 10
43.9561769339
 20
22.1569924262
 30
0.0
 10
43.9388165298
 20
22.1350235467
 30
0.0
 10
43.9287058207
 20
22.1291859592
 30
0.0
  0
SPLINE
  5
453
100
AcDbEntity
  8
0
100
AcDbSpline
 62
7
  6
BYLAYER
 70
0
 71
3
 72
11
 73
7
 74
0
 42
0.0000001
 43
0.0000001
 44
0.0000000001
 40
0.0
 40
0.0
 40
0.0
 40
0.0
 40
0.1863673369
 40
0.4150179814
 40
0.6929276535
 40
1.0
 40
1.0
 40
1.0
 40
1.0
 10
43.7251515827
 20
22.8281629221
 30
0.0
 10
43.7150409526
 20
22.8223253802
 30
0.0
 10
43.6976804319
 20
22.8003568955
 30
0.0
 10
43.6915841265
 20
22.7562221341
 30
0.0
 10
43.7006510908
 20
22.7055171621
 30
0.0
 10
43.7155333913
 20
22.6716157069
 30
0.0
 10
43.7251515827
 20
22.6549566033
 30
0.0
  0
SPLINE
  5
454
100
AcDbEntity
  8
0
100
AcDbSpline
 62
7
  6
BYLAYER
 70
0
 71
3
 72
11
 73
7
 74
0
 42
0.0000001
 43
0.0000001
 44
0.0000000001
 40
0.0
 40
0.0
 40
0.0
 40
0.0
 40
0.3070706355
 40
0.5849787224
 40
0.81363115
 40
1.0
 40
1.0
 40
1.0
 40
1.0
 10
43.9287058207
 20
23.1188946951
 30
0.0
 10
43.9383239556
 20
23.1022356893
 30
0.0
 10
43.9532063249
 20
23.068334517
 30
0.0
 10
43.9622732878
 20
23.0176296092
 30
0.0
 10
43.9561769339
 20
22.9734948433
 30
0.0
 10
43.9388165298
 20
22.9515259639
 30
0.0
 10
43.9287058207
 20
22.9456883763
 30
0.0
  0
SPLINE
  5
455
100
AcDbEntity
  8
0
100
AcDbSpline
 62
7
  6
BYLAYER
 70
0
 71
3
 72
11
 73
7
 74
0
 42
0.0000001
 43
0.0000001
 44
0.0000000001
 40
0.0
 40
0.0
 40
0.0
 40
0.0
 40
0.1863673369
 40
0.4150179814
 40
0.6929276535
 40
1.0
 40
1.0
 40
1.0
 40
1.0
 10
43.7251515827
 20
23.6446653392
 30
0.0
 10
43.7150409526
 20
23.6388277973
 30
0.0
 10
43.6976804319
 20
23.6168593127
 30
0.0
 10
43.6915841265
 20
23.5727245513
 30
0.0
 10
43.7006510908
 20
23.5220195792
 30
0.0
 10
43.7155333913
 20
23.488118124
 30
0.0
 10
43.7251515827
 20
23.4714590204
 30
0.0
  0
SPLINE
  5
456
100
AcDbEntity
  8
0
100
AcDbSpline
 62
7
  6
BYLAYER
 70
0
 71
3
 72
11
 73
7
 74
0
 42
0.0000001
 43
0.0000001
 44
0.0000000001
 40
0.0
 40
0.0
 40
0.0
 40
0.0
 40
0.3070706355
 40
0.5849787224
 40
0.81363115
 40
1.0
 40
1.0
 40
1.0
 40
1.0
 10
43.9287058207
 20
23.9353971123
 30
0.0
 10
43.9383239556
 20
23.9187381065
 30
0.0
 10
43.9532063249
 20
23.8848369341
 30
0.0
 10
43.9622732878
 20
23.8341320263
 30
0.0
 10
43.9561769339
 20
23.7899972605
 30
0.0
 10
43.9388165298
 20
23.768028381
 30
0.0
 10
43.9287058207
 20
23.7621907935
 30
0.0
  0
SPLINE
  5
457
100
AcDbEntity
  8
0
100
AcDbSpline
 62
7
  6
BYLAYER
 70
0
 71
3
 72
11
 73
7
 74
0
 42
0.0000001
 43
0.0000001
 44
0.0000000001
 40
0.0
 40
0.0
 40
0.0
 40
0.0
 40
0.1863673369
 40
0.4150179814
 40
0.6929276535
 40
1.0
 40
1.0
 40
1.0
 40
1.0
 10
43.7251515827
 20
24.4611677563
 30
0.0
 10
43.7150409526
 20
24.4553302144
 30
0.0
 10
43.6976804319
 20
24.4333617298
 30
0.0
 10
43.6915841265
 20
24.3892269684
 30
0.0
 10
43.7006510908
 20
24.3385219963
 30
0.0
 10
43.7155333913
 20
24.3046205412
 30
0.0
 10
43.7251515827
 20
24.2879614375
 30
0.0
  0
SPLINE
  5
458
100
AcDbEntity
  8
0
100
AcDbSpline
 62
7
  6
BYLAYER
 70
0
 71
3
 72
11
 73
7
 74
0
 42
0.0000001
 43
0.0000001
 44
0.0000000001
 40
0.0
 40
0.0
 40
0.0
 40
0.0
 40
0.3070706355
 40
0.5849787224
 40
0.81363115
 40
1.0
 40
1.0
 40
1.0
 40
1.0
 10
43.9287058207
 20
24.7518995294
 30
0.0
 10
43.9383239556
 20
24.7352405236
 30
0.0
 10
43.9532063249
 20
24.7013393512
 30
0.0
 10
43.9622732878
 20
24.6506344435
 30
0.0
 10
43.9561769339
 20
24.6064996776
 30
0.0
 10
43.9388165298
 20
24.5845307981
 30
0.0
 10
43.9287058207
 20
24.5786932106
 30
0.0
  0
SPLINE
  5
459
100
AcDbEntity
  8
0
100
AcDbSpline
 62
7
  6
BYLAYER
 70
0
 71
3
 72
11
 73
7
 74
0
 42
0.0000001
 43
0.0000001
 44
0.0000000001
 40
0.0
 40
0.0
 40
0.0
 40
0.0
 40
0.1863673369
 40
0.4150179814
 40
0.6929276535
 40
1.0
 40
1.0
 40
1.0
 40
1.0
 10
43.7251515827
 20
25.2776701735
 30
0.0
 10
43.7150409526
 20
25.2718326316
 30
0.0
 10
43.6976804319
 20
25.2498641469
 30
0.0
 10
43.6915841265
 20
25.2057293855
 30
0.0
 10
43.7006510908
 20
25.1550244135
 30
0.0
 10
43.7155333913
 20
25.1211229583
 30
0.0
 10
43.7251515827
 20
25.1044638547
 30
0.0
  0
SPLINE
  5
45A
100
AcDbEntity
  8
0
100
AcDbSpline
 62
7
  6
BYLAYER
 70
0
 71
3
 72
11
 73
7
 74
0
 42
0.0000001
 43
0.0000001
 44
0.0000000001
 40
0.0
 40
0.0
 40
0.0
 40
0.0
 40
0.3070706355
 40
0.5849787224
 40
0.81363115
 40
1.0
 40
1.0
 40
1.0
 40
1.0
 10
43.9287058207
 20
25.5684019465
 30
0.0
 10
43.9383239556
 20
25.5517429407
 30
0.0
 10
43.9532063249
 20
25.5178417684
 30
0.0
 10
43.9622732878
 20
25.4671368606
 30
0.0
 10
43.9561769339
 20
25.4230020947
 30
0.0
 10
43.9388165298
 20
25.4010332153
 30
0.0
 10
43.9287058207
 20
25.3951956277
 30
0.0
  0
SPLINE
  5
45B
100
AcDbEntity
  8
0
100
AcDbSpline
 62
7
  6
BYLAYER
 70
0
 71
3
 72
11
 73
7
 74
0
 42
0.0000001
 43
0.0000001
 44
0.0000000001
 40
0.0
 40
0.0
 40
0.0
 40
0.0
 40
0.1863673369
 40
0.4150179814
 40
0.6929276535
 40
1.0
 40
1.0
 40
1.0
 40
1.0
 10
43.7251515827
 20
26.0941725906
 30
0.0
 10
43.7150409526
 20
26.0883350487
 30
0.0
 10
43.6976804319
 20
26.0663665641
 30
0.0
 10
43.6915841265
 20
26.0222318027
 30
0.0
 10
43.7006510908
 20
25.9715268306
 30
0.0
 10
43.7155333913
 20
25.9376253754
 30
0.0
 10
43.7251515827
 20
25.9209662718
 30
0.0
  0
SPLINE
  5
45C
100
AcDbEntity
  8
0
100
AcDbSpline
 62
7
  6
BYLAYER
 70
0
 71
3
 72
11
 73
7
 74
0
 42
0.0000001
 43
0.0000001
 44
0.0000000001
 40
0.0
 40
0.0
 40
0.0
 40
0.0
 40
0.3070706355
 40
0.5849787224
 40
0.81363115
 40
1.0
 40
1.0
 40
1.0
 40
1.0
 10
43.9287058207
 20
26.3849043637
 30
0.0
 10
43.9383239556
 20
26.3682453578
 30
0.0
 10
43.9532063249
 20
26.3343441855
 30
0.0
 10
43.9622732878
 20
26.2836392777
 30
0.0
 10
43.9561769339
 20
26.2395045118
 30
0.0
 10
43.9388165298
 20
26.2175356324
 30
0.0
 10
43.9287058207
 20
26.2116980449
 30
0.0
  0
SPLINE
  5
45D
100
AcDbEntity
  8
0
100
AcDbSpline
 62
7
  6
BYLAYER
 70
0
 71
3
 72
11
 73
7
 74
0
 42
0.0000001
 43
0.0000001
 44
0.0000000001
 40
0.0
 40
0.0
 40
0.0
 40
0.0
 40
0.1863673369
 40
0.4150179814
 40
0.6929276535
 40
1.0
 40
1.0
 40
1.0
 40
1.0
 10
43.7251515827
 20
26.9106750077
 30
0.0
 10
43.7150409526
 20
26.9048374658
 30
0.0
 10
43.6976804319
 20
26.8828689812
 30
0.0
 10
43.6915841265
 20
26.8387342198
 30
0.0
 10
43.7006510908
 20
26.7880292477
 30
0.0
 10
43.7155333913
 20
26.7541277925
 30
0.0
 10
43.7251515827
 20
26.7374686889
 30
0.0
  0
SPLINE
  5
45E
100
AcDbEntity
  8
0
100
AcDbSpline
 62
7
  6
BYLAYER
 70
0
 71
3
 72
11
 73
7
 74
0
 42
0.0000001
 43
0.0000001
 44
0.0000000001
 40
0.0
 40
0.0
 40
0.0
 40
0.0
 40
0.3070706355
 40
0.5849787224
 40
0.81363115
 40
1.0
 40
1.0
 40
1.0
 40
1.0
 10
43.9287058207
 20
27.2014067808
 30
0.0
 10
43.9383239556
 20
27.184747775
 30
0.0
 10
43.9532063249
 20
27.1508466026
 30
0.0
 10
43.9622732878
 20
27.1001416949
 30
0.0
 10
43.9561769339
 20
27.056006929
 30
0.0
 10
43.9388165298
 20
27.0340380495
 30
0.0
 10
43.9287058207
 20
27.028200462
 30
0.0
  0
SPLINE
  5
45F
100
AcDbEntity
  8
0
100
AcDbSpline
 62
7
  6
BYLAYER
 70
0
 71
3
 72
11
 73
7
 74
0
 42
0.0000001
 43
0.0000001
 44
0.0000000001
 40
0.0
 40
0.0
 40
0.0
 40
0.0
 40
0.1863673369
 40
0.4150179814
 40
0.6929276535
 40
1.0
 40
1.0
 40
1.0
 40
1.0
 10
43.7251515827
 20
27.7271774248
 30
0.0
 10
43.7150409526
 20
27.721339883
 30
0.0
 10
43.6976804319
 20
27.6993713983
 30
0.0
 10
43.6915841265
 20
27.6552366369
 30
0.0
 10
43.7006510908
 20
27.6045316649
 30
0.0
 10
43.7155333913
 20
27.5706302097
 30
0.0
 10
43.7251515827
 20
27.553971106
 30
0.0
  0
SPLINE
  5
460
100
AcDbEntity
  8
0
100
AcDbSpline
 62
7
  6
BYLAYER
 70
0
 71
3
 72
11
 73
7
 74
0
 42
0.0000001
 43
0.0000001
 44
0.0000000001
 40
0.0
 40
0.0
 40
0.0
 40
0.0
 40
0.3070706355
 40
0.5849787224
 40
0.81363115
 40
1.0
 40
1.0
 40
1.0
 40
1.0
 10
43.9287058207
 20
28.0179091979
 30
0.0
 10
43.9383239556
 20
28.0012501921
 30
0.0
 10
43.9532063249
 20
27.9673490198
 30
0.0
 10
43.9622732878
 20
27.916644112
 30
0.0
 10
43.9561769339
 20
27.8725093461
 30
0.0
 10
43.9388165298
 20
27.8505404666
 30
0.0
 10
43.9287058207
 20
27.8447028791
 30
0.0
  0
SPLINE
  5
461
100
AcDbEntity
  8
0
100
AcDbSpline
 62
7
  6
BYLAYER
 70
0
 71
3
 72
11
 73
7
 74
0
 42
0.0000001
 43
0.0000001
 44
0.0000000001
 40
0.0
 40
0.0
 40
0.0
 40
0.0
 40
0.1863673369
 40
0.4150179814
 40
0.6929276535
 40
1.0
 40
1.0
 40
1.0
 40
1.0
 10
43.7251515827
 20
28.543679842
 30
0.0
 10
43.7150409526
 20
28.5378423001
 30
0.0
 10
43.6976804319
 20
28.5158738154
 30
0.0
 10
43.6915841265
 20
28.471739054
 30
0.0
 10
43.7006510908
 20
28.421034082
 30
0.0
 10
43.7155333913
 20
28.3871326268
 30
0.0
 10
43.7251515827
 20
28.3704735232
 30
0.0
  0
SPLINE
  5
462
100
AcDbEntity
  8
0
100
AcDbSpline
 62
7
  6
BYLAYER
 70
0
 71
3
 72
11
 73
7
 74
0
 42
0.0000001
 43
0.0000001
 44
0.0000000001
 40
0.0
 40
0.0
 40
0.0
 40
0.0
 40
0.3070706355
 40
0.5849787224
 40
0.81363115
 40
1.0
 40
1.0
 40
1.0
 40
1.0
 10
43.9287058207
 20
28.834411615
 30
0.0
 10
43.9383239556
 20
28.8177526092
 30
0.0
 10
43.9532063249
 20
28.7838514369
 30
0.0
 10
43.9622732878
 20
28.7331465291
 30
0.0
 10
43.9561769339
 20
28.6890117632
 30
0.0
 10
43.9388165298
 20
28.6670428838
 30
0.0
 10
43.9287058207
 20
28.6612052962
 30
0.0
  0
SPLINE
  5
463
100
AcDbEntity
  8
0
100
AcDbSpline
 62
7
  6
BYLAYER
 70
0
 71
3
 72
11
 73
7
 74
0
 42
0.0000001
 43
0.0000001
 44
0.0000000001
 40
0.0
 40
0.0
 40
0.0
 40
0.0
 40
0.1863673369
 40
0.4150179814
 40
0.6929276535
 40
1.0
 40
1.0
 40
1.0
 40
1.0
 10
43.7251515827
 20
29.3601822591
 30
0.0
 10
43.7150409526
 20
29.3543447172
 30
0.0
 10
43.6976804319
 20
29.3323762326
 30
0.0
 10
43.6915841265
 20
29.2882414712
 30
0.0
 10
43.7006510908
 20
29.2375364991
 30
0.0
 10
43.7155333913
 20
29.2036350439
 30
0.0
 10
43.7251515827
 20
29.1869759403
 30
0.0
  0
SPLINE
  5
464
100
AcDbEntity
  8
0
100
AcDbSpline
 62
7
  6
BYLAYER
 70
0
 71
3
 72
11
 73
7
 74
0
 42
0.0000001
 43
0.0000001
 44
0.0000000001
 40
0.0
 40
0.0
 40
0.0
 40
0.0
 40
0.3070706355
 40
0.5849787224
 40
0.81363115
 40
1.0
 40
1.0
 40
1.0
 40
1.0
 10
43.9287058207
 20
29.6509140322
 30
0.0
 10
43.9383239556
 20
29.6342550264
 30
0.0
 10
43.9532063249
 20
29.600353854
 30
0.0
 10
43.9622732878
 20
29.5496489462
 30
0.0
 10
43.9561769339
 20
29.5055141804
 30
0.0
 10
43.9388165298
 20
29.4835453009
 30
0.0
 10
43.9287058207
 20
29.4777077134
 30
0.0
  0
SPLINE
  5
465
100
AcDbEntity
  8
0
100
AcDbSpline
 62
7
  6
BYLAYER
 70
0
 71
3
 72
11
 73
7
 74
0
 42
0.0000001
 43
0.0000001
 44
0.0000000001
 40
0.0
 40
0.0
 40
0.0
 40
0.0
 40
0.1863673369
 40
0.4150179814
 40
0.6929276535
 40
1.0
 40
1.0
 40
1.0
 40
1.0
 10
43.7251515827
 20
30.1766846762
 30
0.0
 10
43.7150409526
 20
30.1708471344
 30
0.0
 10
43.6976804319
 20
30.1488786497
 30
0.0
 10
43.6915841265
 20
30.1047438883
 30
0.0
 10
43.7006510908
 20
30.0540389162
 30
0.0
 10
43.7155333913
 20
30.0201374611
 30
0.0
 10
43.7251515827
 20
30.0034783574
 30
0.0
  0
SPLINE
  5
466
100
AcDbEntity
  8
0
100
AcDbSpline
 62
7
  6
BYLAYER
 70
0
 71
3
 72
11
 73
7
 74
0
 42
0.0000001
 43
0.0000001
 44
0.0000000001
 40
0.0
 40
0.0
 40
0.0
 40
0.0
 40
0.3070706355
 40
0.5849787224
 40
0.81363115
 40
1.0
 40
1.0
 40
1.0
 40
1.0
 10
43.9287058207
 20
30.4674164493
 30
0.0
 10
43.9383239556
 20
30.4507574435
 30
0.0
 10
43.9532063249
 20
30.4168562712
 30
0.0
 10
43.9622732878
 20
30.3661513634
 30
0.0
 10
43.9561769339
 20
30.3220165975
 30
0.0
 10
43.9388165298
 20
30.300047718
 30
0.0
 10
43.9287058207
 20
30.2942101305
 30
0.0
  0
SPLINE
  5
467
100
AcDbEntity
  8
0
100
AcDbSpline
 62
7
  6
BYLAYER
 70
0
 71
3
 72
11
 73
7
 74
0
 42
0.0000001
 43
0.0000001
 44
0.0000000001
 40
0.0
 40
0.0
 40
0.0
 40
0.0
 40
0.1863673369
 40
0.4150179814
 40
0.6929276535
 40
1.0
 40
1.0
 40
1.0
 40
1.0
 10
43.7251515827
 20
30.9931870934
 30
0.0
 10
43.7150409526
 20
30.9873495515
 30
0.0
 10
43.6976804319
 20
30.9653810668
 30
0.0
 10
43.6915841265
 20
30.9212463054
 30
0.0
 10
43.7006510908
 20
30.8705413334
 30
0.0
 10
43.7155333913
 20
30.8366398782
 30
0.0
 10
43.7251515827
 20
30.8199807746
 30
0.0
  0
SPLINE
  5
468
100
AcDbEntity
  8
0
100
AcDbSpline
 62
7
  6
BYLAYER
 70
0
 71
3
 72
11
 73
7
 74
0
 42
0.0000001
 43
0.0000001
 44
0.0000000001
 40
0.0
 40
0.0
 40
0.0
 40
0.0
 40
0.3070706355
 40
0.5849787224
 40
0.81363115
 40
1.0
 40
1.0
 40
1.0
 40
1.0
 10
43.9287058207
 20
31.2839188664
 30
0.0
 10
43.9383239556
 20
31.2672598606
 30
0.0
 10
43.9532063249
 20
31.2333586883
 30
0.0
 10
43.9622732878
 20
31.1826537805
 30
0.0
 10
43.9561769339
 20
31.1385190146
 30
0.0
 10
43.9388165298
 20
31.1165501352
 30
0.0
 10
43.9287058207
 20
31.1107125476
 30
0.0
  0
SPLINE
  5
469
100
AcDbEntity
  8
0
100
AcDbSpline
 62
7
  6
BYLAYER
 70
0
 71
3
 72
11
 73
7
 74
0
 42
0.0000001
 43
0.0000001
 44
0.0000000001
 40
0.0
 40
0.0
 40
0.0
 40
0.0
 40
0.1863673369
 40
0.4150179814
 40
0.6929276535
 40
1.0
 40
1.0
 40
1.0
 40
1.0
 10
43.7251515827
 20
31.8096895105
 30
0.0
 10
43.7150409526
 20
31.8038519686
 30
0.0
 10
43.6976804319
 20
31.781883484
 30
0.0
 10
43.6915841265
 20
31.7377487226
 30
0.0
 10
43.7006510908
 20
31.6870437505
 30
0.0
 10
43.7155333913
 20
31.6531422953
 30
0.0
 10
43.7251515827
 20
31.6364831917
 30
0.0
  0
SPLINE
  5
46A
100
AcDbEntity
  8
0
100
AcDbSpline
 62
7
  6
BYLAYER
 70
0
 71
3
 72
11
 73
7
 74
0
 42
0.0000001
 43
0.0000001
 44
0.0000000001
 40
0.0
 40
0.0
 40
0.0
 40
0.0
 40
0.3070706355
 40
0.5849787224
 40
0.81363115
 40
1.0
 40
1.0
 40
1.0
 40
1.0
 10
43.9287058207
 20
32.1004212836
 30
0.0
 10
43.9383239556
 20
32.0837622778
 30
0.0
 10
43.9532063249
 20
32.0498611054
 30
0.0
 10
43.9622732878
 20
31.9991561976
 30
0.0
 10
43.9561769339
 20
31.9550214317
 30
0.0
 10
43.9388165298
 20
31.9330525523
 30
0.0
 10
43.9287058207
 20
31.9272149648
 30
0.0
  0
SPLINE
  5
46B
100
AcDbEntity
  8
0
100
AcDbSpline
 62
7
  6
BYLAYER
 70
0
 71
3
 72
11
 73
7
 74
0
 42
0.0000001
 43
0.0000001
 44
0.0000000001
 40
0.0
 40
0.0
 40
0.0
 40
0.0
 40
0.1863673369
 40
0.4150179814
 40
0.6929276535
 40
1.0
 40
1.0
 40
1.0
 40
1.0
 10
43.7251515827
 20
32.6261919276
 30
0.0
 10
43.7150409526
 20
32.6203543857
 30
0.0
 10
43.6976804319
 20
32.5983859011
 30
0.0
 10
43.6915841265
 20
32.5542511397
 30
0.0
 10
43.7006510908
 20
32.5035461676
 30
0.0
 10
43.7155333913
 20
32.4696447125
 30
0.0
 10
43.7251515827
 20
32.4529856088
 30
0.0
  0
SPLINE
  5
46C
100
AcDbEntity
  8
0
100
AcDbSpline
 62
7
  6
BYLAYER
 70
0
 71
3
 72
11
 73
7
 74
0
 42
0.0000001
 43
0.0000001
 44
0.0000000001
 40
0.0
 40
0.0
 40
0.0
 40
0.0
 40
0.3070706355
 40
0.5849787224
 40
0.81363115
 40
1.0
 40
1.0
 40
1.0
 40
1.0
 10
43.9287058207
 20
32.9169237007
 30
0.0
 10
43.9383239556
 20
32.9002646949
 30
0.0
 10
43.9532063249
 20
32.8663635225
 30
0.0
 10
43.9622732878
 20
32.8156586148
 30
0.0
 10
43.9561769339
 20
32.7715238489
 30
0.0
 10
43.9388165298
 20
32.7495549694
 30
0.0
 10
43.9287058207
 20
32.7437173819
 30
0.0
  0
SPLINE
  5
46D
100
AcDbEntity
  8
0
100
AcDbSpline
 62
7
  6
BYLAYER
 70
0
 71
3
 72
11
 73
7
 74
0
 42
0.0000001
 43
0.0000001
 44
0.0000000001
 40
0.0
 40
0.0
 40
0.0
 40
0.0
 40
0.1863673369
 40
0.4150179814
 40
0.6929276535
 40
1.0
 40
1.0
 40
1.0
 40
1.0
 10
43.7251515827
 20
33.4426943448
 30
0.0
 10
43.7150409526
 20
33.4368568029
 30
0.0
 10
43.6976804319
 20
33.4148883182
 30
0.0
 10
43.6915841265
 20
33.3707535568
 30
0.0
 10
43.7006510908
 20
33.3200485848
 30
0.0
 10
43.7155333913
 20
33.2861471296
 30
0.0
 10
43.7251515827
 20
33.269488026
 30
0.0
  0
SPLINE
  5
46E
100
AcDbEntity
  8
0
100
AcDbSpline
 62
7
  6
BYLAYER
 70
0
 71
3
 72
11
 73
7
 74
0
 42
0.0000001
 43
0.0000001
 44
0.0000000001
 40
0.0
 40
0.0
 40
0.0
 40
0.0
 40
0.3070706355
 40
0.5849787224
 40
0.81363115
 40
1.0
 40
1.0
 40
1.0
 40
1.0
 10
43.9287058207
 20
33.7334261178
 30
0.0
 10
43.9383239556
 20
33.716767112
 30
0.0
 10
43.9532063249
 20
33.6828659397
 30
0.0
 10
43.9622732878
 20
33.6321610319
 30
0.0
 10
43.9561769339
 20
33.588026266
 30
0.0
 10
43.9388165298
 20
33.5660573865
 30
0.0
 10
43.9287058207
 20
33.560219799
 30
0.0
  0
SPLINE
  5
46F
100
AcDbEntity
  8
0
100
AcDbSpline
 62
7
  6
BYLAYER
 70
0
 71
3
 72
11
 73
7
 74
0
 42
0.0000001
 43
0.0000001
 44
0.0000000001
 40
0.0
 40
0.0
 40
0.0
 40
0.0
 40
0.1863673369
 40
0.4150179814
 40
0.6929276535
 40
1.0
 40
1.0
 40
1.0
 40
1.0
 10
43.7251515827
 20
34.2591967619
 30
0.0
 10
43.7150409526
 20
34.25335922
 30
0.0
 10
43.6976804319
 20
34.2313907354
 30
0.0
 10
43.6915841265
 20
34.187255974
 30
0.0
 10
43.7006510908
 20
34.1365510019
 30
0.0
 10
43.7155333913
 20
34.1026495467
 30
0.0
 10
43.7251515827
 20
34.0859904431
 30
0.0
  0
SPLINE
  5
470
100
AcDbEntity
  8
0
100
AcDbSpline
 62
7
  6
BYLAYER
 70
0
 71
3
 72
11
 73
7
 74
0
 42
0.0000001
 43
0.0000001
 44
0.0000000001
 40
0.0
 40
0.0
 40
0.0
 40
0.0
 40
0.3070706355
 40
0.5849787224
 40
0.81363115
 40
1.0
 40
1.0
 40
1.0
 40
1.0
 10
43.9287058207
 20
34.549928535
 30
0.0
 10
43.9383239556
 20
34.5332695291
 30
0.0
 10
43.9532063249
 20
34.4993683568
 30
0.0
 10
43.9622732878
 20
34.448663449
 30
0.0
 10
43.9561769339
 20
34.4045286831
 30
0.0
 10
43.9388165298
 20
34.3825598037
 30
0.0
 10
43.9287058207
 20
34.3767222161
 30
0.0
  0
SPLINE
  5
471
100
AcDbEntity
  8
0
100
AcDbSpline
 62
7
  6
BYLAYER
 70
0
 71
3
 72
11
 73
7
 74
0
 42
0.0000001
 43
0.0000001
 44
0.0000000001
 40
0.0
 40
0.0
 40
0.0
 40
0.0
 40
0.1863673369
 40
0.4150179814
 40
0.6929276535
 40
1.0
 40
1.0
 40
1.0
 40
1.0
 10
43.7251515827
 20
35.075699179
 30
0.0
 10
43.7150409526
 20
35.0698616371
 30
0.0
 10
43.6976804319
 20
35.0478931525
 30
0.0
 10
43.6915841265
 20
35.0037583911
 30
0.0
 10
43.7006510908
 20
34.953053419
 30
0.0
 10
43.7155333913
 20
34.9191519638
 30
0.0
 10
43.7251515827
 20
34.9024928602
 30
0.0
  0
SPLINE
  5
472
100
AcDbEntity
  8
0
100
AcDbSpline
 62
7
  6
BYLAYER
 70
0
 71
3
 72
11
 73
7
 74
0
 42
0.0000001
 43
0.0000001
 44
0.0000000001
 40
0.0
 40
0.0
 40
0.0
 40
0.0
 40
0.3070706355
 40
0.5849787224
 40
0.81363115
 40
1.0
 40
1.0
 40
1.0
 40
1.0
 10
43.9287058207
 20
35.3664309521
 30
0.0
 10
43.9383239556
 20
35.3497719463
 30
0.0
 10
43.9532063249
 20
35.3158707739
 30
0.0
 10
43.9622732878
 20
35.2651658662
 30
0.0
 10
43.9561769339
 20
35.2210311003
 30
0.0
 10
43.9388165298
 20
35.1990622208
 30
0.0
 10
43.9287058207
 20
35.1932246333
 30
0.0
  0
SPLINE
  5
473
100
AcDbEntity
  8
0
100
AcDbSpline
 62
7
  6
BYLAYER
 70
0
 71
3
 72
11
 73
7
 74
0
 42
0.0000001
 43
0.0000001
 44
0.0000000001
 40
0.0
 40
0.0
 40
0.0
 40
0.0
 40
0.1863673369
 40
0.4150179814
 40
0.6929276535
 40
1.0
 40
1.0
 40
1.0
 40
1.0
 10
43.7251515827
 20
35.8922015961
 30
0.0
 10
43.7150409526
 20
35.8863640543
 30
0.0
 10
43.6976804319
 20
35.8643955696
 30
0.0
 10
43.6915841265
 20
35.8202608082
 30
0.0
 10
43.7006510908
 20
35.7695558362
 30
0.0
 10
43.7155333913
 20
35.735654381
 30
0.0
 10
43.7251515827
 20
35.7189952773
 30
0.0
  0
SPLINE
  5
474
100
AcDbEntity
  8
0
100
AcDbSpline
 62
7
  6
BYLAYER
 70
0
 71
3
 72
11
 73
7
 74
0
 42
0.0000001
 43
0.0000001
 44
0.0000000001
 40
0.0
 40
0.0
 40
0.0
 40
0.0
 40
0.3070706355
 40
0.5849787224
 40
0.81363115
 40
1.0
 40
1.0
 40
1.0
 40
1.0
 10
43.9287058207
 20
36.1829333692
 30
0.0
 10
43.9383239556
 20
36.1662743634
 30
0.0
 10
43.9532063249
 20
36.1323731911
 30
0.0
 10
43.9622732878
 20
36.0816682833
 30
0.0
 10
43.9561769339
 20
36.0375335174
 30
0.0
 10
43.9388165298
 20
36.0155646379
 30
0.0
 10
43.9287058207
 20
36.0097270504
 30
0.0
  0
SPLINE
  5
475
100
AcDbEntity
  8
0
100
AcDbSpline
 62
7
  6
BYLAYER
 70
0
 71
3
 72
11
 73
7
 74
0
 42
0.0000001
 43
0.0000001
 44
0.0000000001
 40
0.0
 40
0.0
 40
0.0
 40
0.0
 40
0.1863673369
 40
0.4150179814
 40
0.6929276535
 40
1.0
 40
1.0
 40
1.0
 40
1.0
 10
43.7251515827
 20
36.7087040133
 30
0.0
 10
43.7150409526
 20
36.7028664714
 30
0.0
 10
43.6976804319
 20
36.6808979867
 30
0.0
 10
43.6915841265
 20
36.6367632253
 30
0.0
 10
43.7006510908
 20
36.5860582533
 30
0.0
 10
43.7155333913
 20
36.5521567981
 30
0.0
 10
43.7251515827
 20
36.5354976945
 30
0.0
  0
SPLINE
  5
476
100
AcDbEntity
  8
0
100
AcDbSpline
 62
7
  6
BYLAYER
 70
0
 71
3
 72
11
 73
7
 74
0
 42
0.0000001
 43
0.0000001
 44
0.0000000001
 40
0.0
 40
0.0
 40
0.0
 40
0.0
 40
0.3070706355
 40
0.5849787224
 40
0.81363115
 40
1.0
 40
1.0
 40
1.0
 40
1.0
 10
43.9287058207
 20
36.9994357863
 30
0.0
 10
43.9383239556
 20
36.9827767805
 30
0.0
 10
43.9532063249
 20
36.9488756082
 30
0.0
 10
43.9622732878
 20
36.8981707004
 30
0.0
 10
43.9561769339
 20
36.8540359345
 30
0.0
 10
43.9388165298
 20
36.8320670551
 30
0.0
 10
43.9287058207
 20
36.8262294675
 30
0.0
  0
SPLINE
  5
477
100
AcDbEntity
  8
0
100
AcDbSpline
 62
7
  6
BYLAYER
 70
0
 71
3
 72
11
 73
7
 74
0
 42
0.0000001
 43
0.0000001
 44
0.0000000001
 40
0.0
 40
0.0
 40
0.0
 40
0.0
 40
0.1863673369
 40
0.4150179814
 40
0.6929276535
 40
1.0
 40
1.0
 40
1.0
 40
1.0
 10
43.7251515827
 20
37.5252064304
 30
0.0
 10
43.7150409526
 20
37.5193688885
 30
0.0
 10
43.6976804319
 20
37.4974004039
 30
0.0
 10
43.6915841265
 20
37.4532656425
 30
0.0
 10
43.7006510908
 20
37.4025606704
 30
0.0
 10
43.7155333913
 20
37.3686592152
 30
0.0
 10
43.7251515827
 20
37.3520001116
 30
0.0
  0
SPLINE
  5
478
100
AcDbEntity
  8
0
100
AcDbSpline
 62
7
  6
BYLAYER
 70
0
 71
3
 72
11
 73
7
 74
0
 42
0.0000001
 43
0.0000001
 44
0.0000000001
 40
0.0
 40
0.0
 40
0.0
 40
0.0
 40
0.3070706355
 40
0.5849787224
 40
0.81363115
 40
1.0
 40
1.0
 40
1.0
 40
1.0
 10
43.9287058207
 20
37.8159382035
 30
0.0
 10
43.9383239556
 20
37.7992791977
 30
0.0
 10
43.9532063249
 20
37.7653780253
 30
0.0
 10
43.9622732878
 20
37.7146731175
 30
0.0
 10
43.9561769339
 20
37.6705383517
 30
0.0
 10
43.9388165298
 20
37.6485694722
 30
0.0
 10
43.9287058207
 20
37.6427318847
 30
0.0
  0
SPLINE
  5
479
100
AcDbEntity
  8
0
100
AcDbSpline
 62
7
  6
BYLAYER
 70
0
 71
3
 72
11
 73
7
 74
0
 42
0.0000001
 43
0.0000001
 44
0.0000000001
 40
0.0
 40
0.0
 40
0.0
 40
0.0
 40
0.1863673369
 40
0.4150179814
 40
0.6929276535
 40
1.0
 40
1.0
 40
1.0
 40
1.0
 10
43.7251515827
 20
38.3417088475
 30
0.0
 10
43.7150409526
 20
38.3358713057
 30
0.0
 10
43.6976804319
 20
38.313902821
 30
0.0
 10
43.6915841265
 20
38.2697680596
 30
0.0
 10
43.7006510908
 20
38.2190630875
 30
0.0
 10
43.7155333913
 20
38.1851616324
 30
0.0
 10
43.7251515827
 20
38.1685025287
 30
0.0
  0
SPLINE
  5
47A
100
AcDbEntity
  8
0
100
AcDbSpline
 62
7
  6
BYLAYER
 70
0
 71
3
 72
11
 73
7
 74
0
 42
0.0000001
 43
0.0000001
 44
0.0000000001
 40
0.0
 40
0.0
 40
0.0
 40
0.0
 40
0.3070706355
 40
0.5849787224
 40
0.81363115
 40
1.0
 40
1.0
 40
1.0
 40
1.0
 10
43.9287058207
 20
38.6324406206
 30
0.0
 10
43.9383239556
 20
38.6157816148
 30
0.0
 10
43.9532063249
 20
38.5818804424
 30
0.0
 10
43.9622732878
 20
38.5311755347
 30
0.0
 10
43.9561769339
 20
38.4870407688
 30
0.0
 10
43.9388165298
 20
38.4650718893
 30
0.0
 10
43.9287058207
 20
38.4592343018
 30
0.0
  0
SPLINE
  5
47B
100
AcDbEntity
  8
0
100
AcDbSpline
 62
7
  6
BYLAYER
 70
0
 71
3
 72
11
 73
7
 74
0
 42
0.0000001
 43
0.0000001
 44
0.0000000001
 40
0.0
 40
0.0
 40
0.0
 40
0.0
 40
0.1863673369
 40
0.4150179814
 40
0.6929276535
 40
1.0
 40
1.0
 40
1.0
 40
1.0
 10
43.7251515827
 20
39.1582112647
 30
0.0
 10
43.7150409526
 20
39.1523737228
 30
0.0
 10
43.6976804319
 20
39.1304052381
 30
0.0
 10
43.6915841265
 20
39.0862704767
 30
0.0
 10
43.7006510908
 20
39.0355655047
 30
0.0
 10
43.7155333913
 20
39.0016640495
 30
0.0
 10
43.7251515827
 20
38.9850049459
 30
0.0
  0
SPLINE
  5
47C
100
AcDbEntity
  8
0
100
AcDbSpline
 62
7
  6
BYLAYER
 70
0
 71
3
 72
11
 73
7
 74
0
 42
0.0000001
 43
0.0000001
 44
0.0000000001
 40
0.0
 40
0.0
 40
0.0
 40
0.0
 40
0.3070706355
 40
0.5849787224
 40
0.81363115
 40
1.0
 40
1.0
 40
1.0
 40
1.0
 10
43.9287058207
 20
39.4489430377
 30
0.0
 10
43.9383239556
 20
39.4322840319
 30
0.0
 10
43.9532063249
 20
39.3983828596
 30
0.0
 10
43.9622732878
 20
39.3476779518
 30
0.0
 10
43.9561769339
 20
39.3035431859
 30
0.0
 10
43.9388165298
 20
39.2815743065
 30
0.0
 10
43.9287058207
 20
39.2757367189
 30
0.0
  0
SPLINE
  5
47D
100
AcDbEntity
  8
0
100
AcDbSpline
 62
7
  6
BYLAYER
 70
0
 71
3
 72
11
 73
7
 74
0
 42
0.0000001
 43
0.0000001
 44
0.0000000001
 40
0.0
 40
0.0
 40
0.0
 40
0.0
 40
0.1863673369
 40
0.4150179814
 40
0.6929276535
 40
1.0
 40
1.0
 40
1.0
 40
1.0
 10
43.7251515827
 20
39.9747136818
 30
0.0
 10
43.7150409526
 20
39.9688761399
 30
0.0
 10
43.6976804319
 20
39.9469076553
 30
0.0
 10
43.6915841265
 20
39.9027728939
 30
0.0
 10
43.7006510908
 20
39.8520679218
 30
0.0
 10
43.7155333913
 20
39.8181664666
 30
0.0
 10
43.7251515827
 20
39.801507363
 30
0.0
  0
SPLINE
  5
47E
100
AcDbEntity
  8
0
100
AcDbSpline
 62
7
  6
BYLAYER
 70
0
 71
3
 72
11
 73
7
 74
0
 42
0.0000001
 43
0.0000001
 44
0.0000000001
 40
0.0
 40
0.0
 40
0.0
 40
0.0
 40
0.3070706355
 40
0.5849787224
 40
0.81363115
 40
1.0
 40
1.0
 40
1.0
 40
1.0
 10
43.9287058207
 20
40.2654454549
 30
0.0
 10
43.9383239556
 20
40.2487864491
 30
0.0
 10
43.9532063249
 20
40.2148852767
 30
0.0
 10
43.9622732878
 20
40.1641803689
 30
0.0
 10
43.9561769339
 20
40.120045603
 30
0.0
 10
43.9388165298
 20
40.0980767236
 30
0.0
 10
43.9287058207
 20
40.0922391361
 30
0.0
  0
SPLINE
  5
47F
100
AcDbEntity
  8
0
100
AcDbSpline
 62
7
  6
BYLAYER
 70
0
 71
3
 72
11
 73
7
 74
0
 42
0.0000001
 43
0.0000001
 44
0.0000000001
 40
0.0
 40
0.0
 40
0.0
 40
0.0
 40
0.1863673369
 40
0.4150179814
 40
0.6929276535
 40
1.0
 40
1.0
 40
1.0
 40
1.0
 10
43.7251515827
 20
40.7912160989
 30
0.0
 10
43.7150409526
 20
40.785378557
 30
0.0
 10
43.6976804319
 20
40.7634100724
 30
0.0
 10
43.6915841265
 20
40.719275311
 30
0.0
 10
43.7006510908
 20
40.6685703389
 30
0.0
 10
43.7155333913
 20
40.6346688837
 30
0.0
 10
43.7251515827
 20
40.6180097801
 30
0.0
  0
SPLINE
  5
480
100
AcDbEntity
  8
0
100
AcDbSpline
 62
7
  6
BYLAYER
 70
0
 71
3
 72
11
 73
7
 74
0
 42
0.0000001
 43
0.0000001
 44
0.0000000001
 40
0.0
 40
0.0
 40
0.0
 40
0.0
 40
0.3070706355
 40
0.5849787224
 40
0.81363115
 40
1.0
 40
1.0
 40
1.0
 40
1.0
 10
43.9287058207
 20
41.081947872
 30
0.0
 10
43.9383239556
 20
41.0652888662
 30
0.0
 10
43.9532063249
 20
41.0313876938
 30
0.0
 10
43.9622732878
 20
40.9806827861
 30
0.0
 10
43.9561769339
 20
40.9365480202
 30
0.0
 10
43.9388165298
 20
40.9145791407
 30
0.0
 10
43.9287058207
 20
40.9087415532
 30
0.0
  0
SPLINE
  5
481
100
AcDbEntity
  8
0
100
AcDbSpline
 62
7
  6
BYLAYER
 70
0
 71
3
 72
11
 73
7
 74
0
 42
0.0000001
 43
0.0000001
 44
0.0000000001
 40
0.0
 40
0.0
 40
0.0
 40
0.0
 40
0.1863673369
 40
0.4150179814
 40
0.6929276535
 40
1.0
 40
1.0
 40
1.0
 40
1.0
 10
43.7251515827
 20
41.6077185161
 30
0.0
 10
43.7150409526
 20
41.6018809742
 30
0.0
 10
43.6976804319
 20
41.5799124895
 30
0.0
 10
43.6915841265
 20
41.5357777281
 30
0.0
 10
43.7006510908
 20
41.4850727561
 30
0.0
 10
43.7155333913
 20
41.4511713009
 30
0.0
 10
43.7251515827
 20
41.4345121972
 30
0.0
  0
SPLINE
  5
482
100
AcDbEntity
  8
0
100
AcDbSpline
 62
7
  6
BYLAYER
 70
0
 71
3
 72
11
 73
7
 74
0
 42
0.0000001
 43
0.0000001
 44
0.0000000001
 40
0.0
 40
0.0
 40
0.0
 40
0.0
 40
0.3070706355
 40
0.5849787224
 40
0.81363115
 40
1.0
 40
1.0
 40
1.0
 40
1.0
 10
43.9287058207
 20
41.8984502891
 30
0.0
 10
43.9383239556
 20
41.8817912833
 30
0.0
 10
43.9532063249
 20
41.847890111
 30
0.0
 10
43.9622732878
 20
41.7971852032
 30
0.0
 10
43.9561769339
 20
41.7530504373
 30
0.0
 10
43.9388165298
 20
41.7310815578
 30
0.0
 10
43.9287058207
 20
41.7252439703
 30
0.0
  0
SPLINE
  5
483
100
AcDbEntity
  8
0
100
AcDbSpline
 62
7
  6
BYLAYER
 70
0
 71
3
 72
11
 73
7
 74
0
 42
0.0000001
 43
0.0000001
 44
0.0000000001
 40
0.0
 40
0.0
 40
0.0
 40
0.0
 40
0.1863673369
 40
0.4150179814
 40
0.6929276535
 40
1.0
 40
1.0
 40
1.0
 40
1.0
 10
43.7251515827
 20
42.4242209332
 30
0.0
 10
43.7150409526
 20
42.4183833913
 30
0.0
 10
43.6976804319
 20
42.3964149067
 30
0.0
 10
43.6915841265
 20
42.3522801452
 30
0.0
 10
43.7006510908
 20
42.3015751732
 30
0.0
 10
43.7155333913
 20
42.267673718
 30
0.0
 10
43.7251515827
 20
42.2510146144
 30
0.0
  0
SPLINE
  5
484
100
AcDbEntity
  8
0
100
AcDbSpline
 62
7
  6
BYLAYER
 70
0
 71
3
 72
11
 73
7
 74
0
 42
0.0000001
 43
0.0000001
 44
0.0000000001
 40
0.0
 40
0.0
 40
0.0
 40
0.0
 40
0.3070706355
 40
0.5849787224
 40
0.81363115
 40
1.0
 40
1.0
 40
1.0
 40
1.0
 10
43.9287058207
 20
42.7149527063
 30
0.0
 10
43.9383239556
 20
42.6982937004
 30
0.0
 10
43.9532063249
 20
42.6643925281
 30
0.0
 10
43.9622732878
 20
42.6136876203
 30
0.0
 10
43.9561769339
 20
42.5695528544
 30
0.0
 10
43.9388165298
 20
42.547583975
 30
0.0
 10
43.9287058207
 20
42.5417463874
 30
0.0
  0
SPLINE
  5
485
100
AcDbEntity
  8
0
100
AcDbSpline
 62
7
  6
BYLAYER
 70
0
 71
3
 72
11
 73
7
 74
0
 42
0.0000001
 43
0.0000001
 44
0.0000000001
 40
0.0
 40
0.0
 40
0.0
 40
0.0
 40
0.1863673369
 40
0.4150179814
 40
0.6929276535
 40
1.0
 40
1.0
 40
1.0
 40
1.0
 10
43.7251515827
 20
43.2407233503
 30
0.0
 10
43.7150409526
 20
43.2348858084
 30
0.0
 10
43.6976804319
 20
43.2129173238
 30
0.0
 10
43.6915841265
 20
43.1687825624
 30
0.0
 10
43.7006510908
 20
43.1180775903
 30
0.0
 10
43.7155333913
 20
43.0841761351
 30
0.0
 10
43.7251515827
 20
43.0675170315
 30
0.0
  0
SPLINE
  5
486
100
AcDbEntity
  8
0
100
AcDbSpline
 62
7
  6
BYLAYER
 70
0
 71
3
 72
11
 73
7
 74
0
 42
0.0000001
 43
0.0000001
 44
0.0000000001
 40
0.0
 40
0.0
 40
0.0
 40
0.0
 40
0.3070706355
 40
0.5849787224
 40
0.81363115
 40
1.0
 40
1.0
 40
1.0
 40
1.0
 10
43.9287058207
 20
43.5314551234
 30
0.0
 10
43.9383239556
 20
43.5147961176
 30
0.0
 10
43.9532063249
 20
43.4808949452
 30
0.0
 10
43.9622732878
 20
43.4301900374
 30
0.0
 10
43.9561769339
 20
43.3860552716
 30
0.0
 10
43.9388165298
 20
43.3640863921
 30
0.0
 10
43.9287058207
 20
43.3582488046
 30
0.0
  0
SPLINE
  5
487
100
AcDbEntity
  8
0
100
AcDbSpline
 62
7
  6
BYLAYER
 70
0
 71
3
 72
11
 73
7
 74
0
 42
0.0000001
 43
0.0000001
 44
0.0000000001
 40
0.0
 40
0.0
 40
0.0
 40
0.0
 40
0.1863673369
 40
0.4150179814
 40
0.6929276535
 40
1.0
 40
1.0
 40
1.0
 40
1.0
 10
43.7251515827
 20
44.0572257674
 30
0.0
 10
43.7150409526
 20
44.0513882256
 30
0.0
 10
43.6976804319
 20
44.0294197409
 30
0.0
 10
43.6915841265
 20
43.9852849795
 30
0.0
 10
43.7006510908
 20
43.9345800074
 30
0.0
 10
43.7155333913
 20
43.9006785523
 30
0.0
 10
43.7251515827
 20
43.8840194486
 30
0.0
  0
SPLINE
  5
488
100
AcDbEntity
  8
0
100
AcDbSpline
 62
7
  6
BYLAYER
 70
0
 71
3
 72
11
 73
7
 74
0
 42
0.0000001
 43
0.0000001
 44
0.0000000001
 40
0.0
 40
0.0
 40
0.0
 40
0.0
 40
0.3070706355
 40
0.5849787224
 40
0.81363115
 40
1.0
 40
1.0
 40
1.0
 40
1.0
 10
43.9287058207
 20
44.3479575405
 30
0.0
 10
43.9383239556
 20
44.3312985347
 30
0.0
 10
43.9532063249
 20
44.2973973624
 30
0.0
 10
43.9622732878
 20
44.2466924546
 30
0.0
 10
43.9561769339
 20
44.2025576887
 30
0.0
 10
43.9388165298
 20
44.1805888092
 30
0.0
 10
43.9287058207
 20
44.1747512217
 30
0.0
  0
SPLINE
  5
489
100
AcDbEntity
  8
0
100
AcDbSpline
 62
7
  6
BYLAYER
 70
0
 71
3
 72
11
 73
7
 74
0
 42
0.0000001
 43
0.0000001
 44
0.0000000001
 40
0.0
 40
0.0
 40
0.0
 40
0.0
 40
0.1863673369
 40
0.4150179814
 40
0.6929276535
 40
1.0
 40
1.0
 40
1.0
 40
1.0
 10
43.7251515827
 20
44.8737281846
 30
0.0
 10
43.7150409526
 20
44.8678906427
 30
0.0
 10
43.6976804319
 20
44.845922158
 30
0.0
 10
43.6915841265
 20
44.8017873966
 30
0.0
 10
43.7006510908
 20
44.7510824246
 30
0.0
 10
43.7155333913
 20
44.7171809694
 30
0.0
 10
43.7251515827
 20
44.7005218658
 30
0.0
  0
SPLINE
  5
48A
100
AcDbEntity
  8
0
100
AcDbSpline
 62
7
  6
BYLAYER
 70
0
 71
3
 72
11
 73
7
 74
0
 42
0.0000001
 43
0.0000001
 44
0.0000000001
 40
0.0
 40
0.0
 40
0.0
 40
0.0
 40
0.3070706355
 40
0.5849787224
 40
0.81363115
 40
1.0
 40
1.0
 40
1.0
 40
1.0
 10
43.9287058207
 20
45.1644599576
 30
0.0
 10
43.9383239556
 20
45.1478009518
 30
0.0
 10
43.9532063249
 20
45.1138997795
 30
0.0
 10
43.9622732878
 20
45.0631948717
 30
0.0
 10
43.9561769339
 20
45.0190601058
 30
0.0
 10
43.9388165298
 20
44.9970912264
 30
0.0
 10
43.9287058207
 20
44.9912536388
 30
0.0
  0
SPLINE
  5
48B
100
AcDbEntity
  8
0
100
AcDbSpline
 62
7
  6
BYLAYER
 70
0
 71
3
 72
11
 73
7
 74
0
 42
0.0000001
 43
0.0000001
 44
0.0000000001
 40
0.0
 40
0.0
 40
0.0
 40
0.0
 40
0.1863673369
 40
0.4150179814
 40
0.6929276535
 40
1.0
 40
1.0
 40
1.0
 40
1.0
 10
43.7251515827
 20
45.6902306017
 30
0.0
 10
43.7150409526
 20
45.6843930598
 30
0.0
 10
43.6976804319
 20
45.6624245752
 30
0.0
 10
43.6915841265
 20
45.6182898138
 30
0.0
 10
43.7006510908
 20
45.5675848417
 30
0.0
 10
43.7155333913
 20
45.5336833865
 30
0.0
 10
43.7251515827
 20
45.5170242829
 30
0.0
  0
SPLINE
  5
48C
100
AcDbEntity
  8
0
100
AcDbSpline
 62
7
  6
BYLAYER
 70
0
 71
3
 72
11
 73
7
 74
0
 42
0.0000001
 43
0.0000001
 44
0.0000000001
 40
0.0
 40
0.0
 40
0.0
 40
0.0
 40
0.3070706355
 40
0.5849787224
 40
0.81363115
 40
1.0
 40
1.0
 40
1.0
 40
1.0
 10
43.9287058207
 20
45.9809623748
 30
0.0
 10
43.9383239556
 20
45.964303369
 30
0.0
 10
43.9532063249
 20
45.9304021966
 30
0.0
 10
43.9622732878
 20
45.8796972888
 30
0.0
 10
43.9561769339
 20
45.835562523
 30
0.0
 10
43.9388165298
 20
45.8135936435
 30
0.0
 10
43.9287058207
 20
45.807756056
 30
0.0
  0
SPLINE
  5
48D
100
AcDbEntity
  8
0
100
AcDbSpline
 62
7
  6
BYLAYER
 70
0
 71
3
 72
11
 73
7
 74
0
 42
0.0000001
 43
0.0000001
 44
0.0000000001
 40
0.0
 40
0.0
 40
0.0
 40
0.0
 40
0.1863673369
 40
0.4150179814
 40
0.6929276535
 40
1.0
 40
1.0
 40
1.0
 40
1.0
 10
43.7251515827
 20
46.5067330188
 30
0.0
 10
43.7150409526
 20
46.5008954769
 30
0.0
 10
43.6976804319
 20
46.4789269923
 30
0.0
 10
43.6915841265
 20
46.4347922309
 30
0.0
 10
43.7006510908
 20
46.3840872588
 30
0.0
 10
43.7155333913
 20
46.3501858037
 30
0.0
 10
43.7251515827
 20
46.3335267
 30
0.0
  0
SPLINE
  5
48E
100
AcDbEntity
  8
0
100
AcDbSpline
 62
7
  6
BYLAYER
 70
0
 71
3
 72
11
 73
7
 74
0
 42
0.0000001
 43
0.0000001
 44
0.0000000001
 40
0.0
 40
0.0
 40
0.0
 40
0.0
 40
0.3070706355
 40
0.5849787224
 40
0.81363115
 40
1.0
 40
1.0
 40
1.0
 40
1.0
 10
43.9287058207
 20
46.7974647919
 30
0.0
 10
43.9383239556
 20
46.7808057861
 30
0.0
 10
43.9532063249
 20
46.7469046137
 30
0.0
 10
43.9622732878
 20
46.696199706
 30
0.0
 10
43.9561769339
 20
46.6520649401
 30
0.0
 10
43.9388165298
 20
46.6300960606
 30
0.0
 10
43.9287058207
 20
46.6242584731
 30
0.0
  0
SPLINE
  5
48F
100
AcDbEntity
  8
0
100
AcDbSpline
 62
7
  6
BYLAYER
 70
0
 71
3
 72
11
 73
7
 74
0
 42
0.0000001
 43
0.0000001
 44
0.0000000001
 40
0.0
 40
0.0
 40
0.0
 40
0.0
 40
0.1863673369
 40
0.4150179814
 40
0.6929276535
 40
1.0
 40
1.0
 40
1.0
 40
1.0
 10
43.7251515827
 20
47.323235436
 30
0.0
 10
43.7150409526
 20
47.3173978941
 30
0.0
 10
43.6976804319
 20
47.2954294094
 30
0.0
 10
43.6915841265
 20
47.251294648
 30
0.0
 10
43.7006510908
 20
47.200589676
 30
0.0
 10
43.7155333913
 20
47.1666882208
 30
0.0
 10
43.7251515827
 20
47.1500291172
 30
0.0
  0
SPLINE
  5
490
100
AcDbEntity
  8
0
100
AcDbSpline
 62
7
  6
BYLAYER
 70
0
 71
3
 72
11
 73
7
 74
0
 42
0.0000001
 43
0.0000001
 44
0.0000000001
 40
0.0
 40
0.0
 40
0.0
 40
0.0
 40
0.3070706355
 40
0.5849787224
 40
0.81363115
 40
1.0
 40
1.0
 40
1.0
 40
1.0
 10
43.9287058207
 20
47.613967209
 30
0.0
 10
43.9383239556
 20
47.5973082032
 30
0.0
 10
43.9532063249
 20
47.5634070309
 30
0.0
 10
43.9622732878
 20
47.5127021231
 30
0.0
 10
43.9561769339
 20
47.4685673572
 30
0.0
 10
43.9388165298
 20
47.4465984778
 30
0.0
 10
43.9287058207
 20
47.4407608902
 30
0.0
  0
SPLINE
  5
491
100
AcDbEntity
  8
0
100
AcDbSpline
 62
7
  6
BYLAYER
 70
0
 71
3
 72
11
 73
7
 74
0
 42
0.0000001
 43
0.0000001
 44
0.0000000001
 40
0.0
 40
0.0
 40
0.0
 40
0.0
 40
0.1863673369
 40
0.4150179814
 40
0.6929276535
 40
1.0
 40
1.0
 40
1.0
 40
1.0
 10
43.7251515827
 20
48.1397378531
 30
0.0
 10
43.7150409526
 20
48.1339003112
 30
0.0
 10
43.6976804319
 20
48.1119318266
 30
0.0
 10
43.6915841265
 20
48.0677970652
 30
0.0
 10
43.7006510908
 20
48.0170920931
 30
0.0
 10
43.7155333913
 20
47.9831906379
 30
0.0
 10
43.7251515827
 20
47.9665315343
 30
0.0
  0
SPLINE
  5
492
100
AcDbEntity
  8
0
100
AcDbSpline
 62
7
  6
BYLAYER
 70
0
 71
3
 72
11
 73
7
 74
0
 42
0.0000001
 43
0.0000001
 44
0.0000000001
 40
0.0
 40
0.0
 40
0.0
 40
0.0
 40
0.3070706355
 40
0.5849787224
 40
0.81363115
 40
1.0
 40
1.0
 40
1.0
 40
1.0
 10
43.9287058207
 20
48.4304696262
 30
0.0
 10
43.9383239556
 20
48.4138106203
 30
0.0
 10
43.9532063249
 20
48.379909448
 30
0.0
 10
43.9622732878
 20
48.3292045402
 30
0.0
 10
43.9561769339
 20
48.2850697743
 30
0.0
 10
43.9388165298
 20
48.2631008949
 30
0.0
 10
43.9287058207
 20
48.2572633074
 30
0.0
  0
SPLINE
  5
493
100
AcDbEntity
  8
0
100
AcDbSpline
 62
7
  6
BYLAYER
 70
0
 71
3
 72
11
 73
7
 74
0
 42
0.0000001
 43
0.0000001
 44
0.0000000001
 40
0.0
 40
0.0
 40
0.0
 40
0.0
 40
0.1863673369
 40
0.4150179814
 40
0.6929276535
 40
1.0
 40
1.0
 40
1.0
 40
1.0
 10
43.7251515827
 20
48.9562402702
 30
0.0
 10
43.7150409526
 20
48.9504027283
 30
0.0
 10
43.6976804319
 20
48.9284342437
 30
0.0
 10
43.6915841265
 20
48.8842994823
 30
0.0
 10
43.7006510908
 20
48.8335945102
 30
0.0
 10
43.7155333913
 20
48.799693055
 30
0.0
 10
43.7251515827
 20
48.7830339514
 30
0.0
  0
SPLINE
  5
494
100
AcDbEntity
  8
0
100
AcDbSpline
 62
7
  6
BYLAYER
 70
0
 71
3
 72
11
 73
7
 74
0
 42
0.0000001
 43
0.0000001
 44
0.0000000001
 40
0.0
 40
0.0
 40
0.0
 40
0.0
 40
0.3070706355
 40
0.5849787224
 40
0.81363115
 40
1.0
 40
1.0
 40
1.0
 40
1.0
 10
43.9287058207
 20
49.2469720433
 30
0.0
 10
43.9383239556
 20
49.2303130375
 30
0.0
 10
43.9532063249
 20
49.1964118651
 30
0.0
 10
43.9622732878
 20
49.1457069574
 30
0.0
 10
43.9561769339
 20
49.1015721915
 30
0.0
 10
43.9388165298
 20
49.079603312
 30
0.0
 10
43.9287058207
 20
49.0737657245
 30
0.0
  0
SPLINE
  5
495
100
AcDbEntity
  8
0
100
AcDbSpline
 62
7
  6
BYLAYER
 70
0
 71
3
 72
11
 73
7
 74
0
 42
0.0000001
 43
0.0000001
 44
0.0000000001
 40
0.0
 40
0.0
 40
0.0
 40
0.0
 40
0.1863673369
 40
0.4150179814
 40
0.6929276535
 40
1.0
 40
1.0
 40
1.0
 40
1.0
 10
43.7251515827
 20
49.7727426873
 30
0.0
 10
43.7150409526
 20
49.7669051455
 30
0.0
 10
43.6976804319
 20
49.7449366608
 30
0.0
 10
43.6915841265
 20
49.7008018994
 30
0.0
 10
43.7006510908
 20
49.6500969274
 30
0.0
 10
43.7155333913
 20
49.6161954722
 30
0.0
 10
43.7251515827
 20
49.5995363685
 30
0.0
  0
SPLINE
  5
496
100
AcDbEntity
  8
0
100
AcDbSpline
 62
7
  6
BYLAYER
 70
0
 71
3
 72
11
 73
7
 74
0
 42
0.0000001
 43
0.0000001
 44
0.0000000001
 40
0.0
 40
0.0
 40
0.0
 40
0.0
 40
0.3070706355
 40
0.5849787224
 40
0.81363115
 40
1.0
 40
1.0
 40
1.0
 40
1.0
 10
43.9287058207
 20
50.0634744604
 30
0.0
 10
43.9383239556
 20
50.0468154546
 30
0.0
 10
43.9532063249
 20
50.0129142823
 30
0.0
 10
43.9622732878
 20
49.9622093745
 30
0.0
 10
43.9561769339
 20
49.9180746086
 30
0.0
 10
43.9388165298
 20
49.8961057291
 30
0.0
 10
43.9287058207
 20
49.8902681416
 30
0.0
  0
SPLINE
  5
497
100
AcDbEntity
  8
0
100
AcDbSpline
 62
7
  6
BYLAYER
 70
0
 71
3
 72
11
 73
7
 74
0
 42
0.0000001
 43
0.0000001
 44
0.0000000001
 40
0.0
 40
0.0
 40
0.0
 40
0.0
 40
0.1863673369
 40
0.4150179814
 40
0.6929276535
 40
1.0
 40
1.0
 40
1.0
 40
1.0
 10
43.7251515827
 20
50.5892451045
 30
0.0
 10
43.7150409526
 20
50.5834075626
 30
0.0
 10
43.6976804319
 20
50.5614390779
 30
0.0
 10
43.6915841265
 20
50.5173043165
 30
0.0
 10
43.7006510908
 20
50.4665993445
 30
0.0
 10
43.7155333913
 20
50.4326978893
 30
0.0
 10
43.7251515827
 20
50.4160387857
 30
0.0
  0
SPLINE
  5
498
100
AcDbEntity
  8
0
100
AcDbSpline
 62
7
  6
BYLAYER
 70
0
 71
3
 72
11
 73
7
 74
0
 42
0.0000001
 43
0.0000001
 44
0.0000000001
 40
0.0
 40
0.0
 40
0.0
 40
0.0
 40
0.3070706355
 40
0.5849787224
 40
0.81363115
 40
1.0
 40
1.0
 40
1.0
 40
1.0
 10
43.9287058207
 20
50.8799768775
 30
0.0
 10
43.9383239556
 20
50.8633178717
 30
0.0
 10
43.9532063249
 20
50.8294166994
 30
0.0
 10
43.9622732878
 20
50.7787117916
 30
0.0
 10
43.9561769339
 20
50.7345770257
 30
0.0
 10
43.9388165298
 20
50.7126081463
 30
0.0
 10
43.9287058207
 20
50.7067705587
 30
0.0
  0
SPLINE
  5
499
100
AcDbEntity
  8
0
100
AcDbSpline
 62
7
  6
BYLAYER
 70
0
 71
3
 72
11
 73
7
 74
0
 42
0.0000001
 43
0.0000001
 44
0.0000000001
 40
0.0
 40
0.0
 40
0.0
 40
0.0
 40
0.1863673369
 40
0.4150179814
 40
0.6929276535
 40
1.0
 40
1.0
 40
1.0
 40
1.0
 10
43.7251515827
 20
51.4057475216
 30
0.0
 10
43.7150409526
 20
51.3999099797
 30
0.0
 10
43.6976804319
 20
51.3779414951
 30
0.0
 10
43.6915841265
 20
51.3338067337
 30
0.0
 10
43.7006510908
 20
51.2831017616
 30
0.0
 10
43.7155333913
 20
51.2492003064
 30
0.0
 10
43.7251515827
 20
51.2325412028
 30
0.0
  0
SPLINE
  5
49A
100
AcDbEntity
  8
0
100
AcDbSpline
 62
7
  6
BYLAYER
 70
0
 71
3
 72
11
 73
7
 74
0
 42
0.0000001
 43
0.0000001
 44
0.0000000001
 40
0.0
 40
0.0
 40
0.0
 40
0.0
 40
0.3070706355
 40
0.5849787224
 40
0.81363115
 40
1.0
 40
1.0
 40
1.0
 40
1.0
 10
43.9287058207
 20
51.6964792947
 30
0.0
 10
43.9383239556
 20
51.6798202889
 30
0.0
 10
43.9532063249
 20
51.6459191165
 30
0.0
 10
43.9622732878
 20
51.5952142087
 30
0.0
 10
43.9561769339
 20
51.5510794429
 30
0.0
 10
43.9388165298
 20
51.5291105634
 30
0.0
 10
43.9287058207
 20
51.5232729759
 30
0.0
  0
SPLINE
  5
49B
100
AcDbEntity
  8
0
100
AcDbSpline
 62
7
  6
BYLAYER
 70
0
 71
3
 72
11
 73
7
 74
0
 42
0.0000001
 43
0.0000001
 44
0.0000000001
 40
0.0
 40
0.0
 40
0.0
 40
0.0
 40
0.1863673369
 40
0.4150179814
 40
0.6929276535
 40
1.0
 40
1.0
 40
1.0
 40
1.0
 10
43.7251515827
 20
52.2222499387
 30
0.0
 10
43.7150409526
 20
52.2164123969
 30
0.0
 10
43.6976804319
 20
52.1944439122
 30
0.0
 10
43.6915841265
 20
52.1503091508
 30
0.0
 10
43.7006510908
 20
52.0996041787
 30
0.0
 10
43.7155333913
 20
52.0657027236
 30
0.0
 10
43.7251515827
 20
52.0490436199
 30
0.0
  0
SPLINE
  5
49C
100
AcDbEntity
  8
0
100
AcDbSpline
 62
7
  6
BYLAYER
 70
0
 71
3
 72
11
 73
7
 74
0
 42
0.0000001
 43
0.0000001
 44
0.0000000001
 40
0.0
 40
0.0
 40
0.0
 40
0.0
 40
0.3070706355
 40
0.5849787224
 40
0.81363115
 40
1.0
 40
1.0
 40
1.0
 40
1.0
 10
43.9287058207
 20
52.5129817118
 30
0.0
 10
43.9383239556
 20
52.496322706
 30
0.0
 10
43.9532063249
 20
52.4624215337
 30
0.0
 10
43.9622732878
 20
52.4117166259
 30
0.0
 10
43.9561769339
 20
52.36758186
 30
0.0
 10
43.9388165298
 20
52.3456129805
 30
0.0
 10
43.9287058207
 20
52.339775393
 30
0.0
  0
SPLINE
  5
49D
100
AcDbEntity
  8
0
100
AcDbSpline
 62
7
  6
BYLAYER
 70
0
 71
3
 72
11
 73
7
 74
0
 42
0.0000001
 43
0.0000001
 44
0.0000000001
 40
0.0
 40
0.0
 40
0.0
 40
0.0
 40
0.1863673369
 40
0.4150179814
 40
0.6929276535
 40
1.0
 40
1.0
 40
1.0
 40
1.0
 10
43.7251515827
 20
53.0387523559
 30
0.0
 10
43.7150409526
 20
53.032914814
 30
0.0
 10
43.6976804319
 20
53.0109463293
 30
0.0
 10
43.6915841265
 20
52.9668115679
 30
0.0
 10
43.7006510908
 20
52.9161065959
 30
0.0
 10
43.7155333913
 20
52.8822051407
 30
0.0
 10
43.7251515827
 20
52.8655460371
 30
0.0
  0
SPLINE
  5
49E
100
AcDbEntity
  8
0
100
AcDbSpline
 62
7
  6
BYLAYER
 70
0
 71
3
 72
11
 73
7
 74
0
 42
0.0000001
 43
0.0000001
 44
0.0000000001
 40
0.0
 40
0.0
 40
0.0
 40
0.0
 40
0.3070706355
 40
0.5849787224
 40
0.81363115
 40
1.0
 40
1.0
 40
1.0
 40
1.0
 10
43.9287058207
 20
53.3294841289
 30
0.0
 10
43.9383239556
 20
53.3128251231
 30
0.0
 10
43.9532063249
 20
53.2789239508
 30
0.0
 10
43.9622732878
 20
53.228219043
 30
0.0
 10
43.9561769339
 20
53.1840842771
 30
0.0
 10
43.9388165298
 20
53.1621153977
 30
0.0
 10
43.9287058207
 20
53.1562778101
 30
0.0
  0
SPLINE
  5
49F
100
AcDbEntity
  8
0
100
AcDbSpline
 62
7
  6
BYLAYER
 70
0
 71
3
 72
11
 73
7
 74
0
 42
0.0000001
 43
0.0000001
 44
0.0000000001
 40
0.0
 40
0.0
 40
0.0
 40
0.0
 40
0.1863673369
 40
0.4150179814
 40
0.6929276535
 40
1.0
 40
1.0
 40
1.0
 40
1.0
 10
43.7251515827
 20
53.855254773
 30
0.0
 10
43.7150409526
 20
53.8494172311
 30
0.0
 10
43.6976804319
 20
53.8274487465
 30
0.0
 10
43.6915841265
 20
53.7833139851
 30
0.0
 10
43.7006510908
 20
53.732609013
 30
0.0
 10
43.7155333913
 20
53.6987075578
 30
0.0
 10
43.7251515827
 20
53.6820484542
 30
0.0
  0
SPLINE
  5
4A0
100
AcDbEntity
  8
0
100
AcDbSpline
 62
7
  6
BYLAYER
 70
0
 71
3
 72
11
 73
7
 74
0
 42
0.0000001
 43
0.0000001
 44
0.0000000001
 40
0.0
 40
0.0
 40
0.0
 40
0.0
 40
0.3070706355
 40
0.5849787224
 40
0.81363115
 40
1.0
 40
1.0
 40
1.0
 40
1.0
 10
43.9287058207
 20
54.1459865461
 30
0.0
 10
43.9383239556
 20
54.1293275403
 30
0.0
 10
43.9532063249
 20
54.0954263679
 30
0.0
 10
43.9622732878
 20
54.0447214601
 30
0.0
 10
43.9561769339
 20
54.0005866942
 30
0.0
 10
43.9388165298
 20
53.9786178148
 30
0.0
 10
43.9287058207
 20
53.9727802273
 30
0.0
  0
SPLINE
  5
4A1
100
AcDbEntity
  8
0
100
AcDbSpline
 62
7
  6
BYLAYER
 70
0
 71
3
 72
11
 73
7
 74
0
 42
0.0000001
 43
0.0000001
 44
0.0000000001
 40
0.0
 40
0.0
 40
0.0
 40
0.0
 40
0.1863673369
 40
0.4150179814
 40
0.6929276535
 40
1.0
 40
1.0
 40
1.0
 40
1.0
 10
43.7251515827
 20
54.6717571901
 30
0.0
 10
43.7150409526
 20
54.6659196482
 30
0.0
 10
43.6976804319
 20
54.6439511636
 30
0.0
 10
43.6915841265
 20
54.5998164022
 30
0.0
 10
43.7006510908
 20
54.5491114301
 30
0.0
 10
43.7155333913
 20
54.5152099749
 30
0.0
 10
43.7251515827
 20
54.4985508713
 30
0.0
  0
SPLINE
  5
4A2
100
AcDbEntity
  8
0
100
AcDbSpline
 62
7
  6
BYLAYER
 70
0
 71
3
 72
11
 73
7
 74
0
 42
0.0000001
 43
0.0000001
 44
0.0000000001
 40
0.0
 40
0.0
 40
0.0
 40
0.0
 40
0.3070706355
 40
0.5849787224
 40
0.81363115
 40
1.0
 40
1.0
 40
1.0
 40
1.0
 10
43.9287058207
 20
54.9624889632
 30
0.0
 10
43.9383239556
 20
54.9458299574
 30
0.0
 10
43.9532063249
 20
54.911928785
 30
0.0
 10
43.9622732878
 20
54.8612238773
 30
0.0
 10
43.9561769339
 20
54.8170891114
 30
0.0
 10
43.9388165298
 20
54.7951202319
 30
0.0
 10
43.9287058207
 20
54.7892826444
 30
0.0
  0
SPLINE
  5
4A3
100
AcDbEntity
  8
0
100
AcDbSpline
 62
7
  6
BYLAYER
 70
0
 71
3
 72
11
 73
7
 74
0
 42
0.0000001
 43
0.0000001
 44
0.0000000001
 40
0.0
 40
0.0
 40
0.0
 40
0.0
 40
0.1863673369
 40
0.4150179814
 40
0.6929276535
 40
1.0
 40
1.0
 40
1.0
 40
1.0
 10
43.7251515827
 20
55.4882596073
 30
0.0
 10
43.7150409526
 20
55.4824220654
 30
0.0
 10
43.6976804319
 20
55.4604535807
 30
0.0
 10
43.6915841265
 20
55.4163188193
 30
0.0
 10
43.7006510908
 20
55.3656138473
 30
0.0
 10
43.7155333913
 20
55.3317123921
 30
0.0
 10
43.7251515827
 20
55.3150532885
 30
0.0
  0
SPLINE
  5
4A4
100
AcDbEntity
  8
0
100
AcDbSpline
 62
7
  6
BYLAYER
 70
0
 71
3
 72
11
 73
7
 74
0
 42
0.0000001
 43
0.0000001
 44
0.0000000001
 40
0.0
 40
0.0
 40
0.0
 40
0.0
 40
0.3070706355
 40
0.5849787224
 40
0.81363115
 40
1.0
 40
1.0
 40
1.0
 40
1.0
 10
43.9287058207
 20
55.7789913803
 30
0.0
 10
43.9383239556
 20
55.7623323745
 30
0.0
 10
43.9532063249
 20
55.7284312022
 30
0.0
 10
43.9622732878
 20
55.6777262944
 30
0.0
 10
43.9561769339
 20
55.6335915285
 30
0.0
 10
43.9388165298
 20
55.611622649
 30
0.0
 10
43.9287058207
 20
55.6057850615
 30
0.0
  0
SPLINE
  5
4A5
100
AcDbEntity
  8
0
100
AcDbSpline
 62
7
  6
BYLAYER
 70
0
 71
3
 72
11
 73
7
 74
0
 42
0.0000001
 43
0.0000001
 44
0.0000000001
 40
0.0
 40
0.0
 40
0.0
 40
0.0
 40
0.1863673369
 40
0.4150179814
 40
0.6929276535
 40
1.0
 40
1.0
 40
1.0
 40
1.0
 10
43.7251515827
 20
56.3047620244
 30
0.0
 10
43.7150409526
 20
56.2989244825
 30
0.0
 10
43.6976804319
 20
56.2769559979
 30
0.0
 10
43.6915841265
 20
56.2328212364
 30
0.0
 10
43.7006510908
 20
56.1821162644
 30
0.0
 10
43.7155333913
 20
56.1482148092
 30
0.0
 10
43.7251515827
 20
56.1315557056
 30
0.0
  0
SPLINE
  5
4A6
100
AcDbEntity
  8
0
100
AcDbSpline
 62
7
  6
BYLAYER
 70
0
 71
3
 72
11
 73
7
 74
0
 42
0.0000001
 43
0.0000001
 44
0.0000000001
 40
0.0
 40
0.0
 40
0.0
 40
0.0
 40
0.3070706355
 40
0.5849787224
 40
0.81363115
 40
1.0
 40
1.0
 40
1.0
 40
1.0
 10
43.9287058207
 20
56.5954937975
 30
0.0
 10
43.9383239556
 20
56.5788347916
 30
0.0
 10
43.9532063249
 20
56.5449336193
 30
0.0
 10
43.9622732878
 20
56.4942287115
 30
0.0
 10
43.9561769339
 20
56.4500939456
 30
0.0
 10
43.9388165298
 20
56.4281250662
 30
0.0
 10
43.9287058207
 20
56.4222874786
 30
0.0
  0
SPLINE
  5
4A7
100
AcDbEntity
  8
0
100
AcDbSpline
 62
7
  6
BYLAYER
 70
0
 71
3
 72
11
 73
7
 74
0
 42
0.0000001
 43
0.0000001
 44
0.0000000001
 40
0.0
 40
0.0
 40
0.0
 40
0.0
 40
0.1863673369
 40
0.4150179814
 40
0.6929276535
 40
1.0
 40
1.0
 40
1.0
 40
1.0
 10
43.7251515827
 20
57.1212644415
 30
0.0
 10
43.7150409526
 20
57.1154268996
 30
0.0
 10
43.6976804319
 20
57.093458415
 30
0.0
 10
43.6915841265
 20
57.0493236536
 30
0.0
 10
43.7006510908
 20
56.9986186815
 30
0.0
 10
43.7155333913
 20
56.9647172263
 30
0.0
 10
43.7251515827
 20
56.9480581227
 30
0.0
  0
SPLINE
  5
4A8
100
AcDbEntity
  8
0
100
AcDbSpline
 62
7
  6
BYLAYER
 70
0
 71
3
 72
11
 73
7
 74
0
 42
0.0000001
 43
0.0000001
 44
0.0000000001
 40
0.0
 40
0.0
 40
0.0
 40
0.0
 40
0.3070706355
 40
0.5849787224
 40
0.81363115
 40
1.0
 40
1.0
 40
1.0
 40
1.0
 10
43.9287058207
 20
57.4119962146
 30
0.0
 10
43.9383239556
 20
57.3953372088
 30
0.0
 10
43.9532063249
 20
57.3614360364
 30
0.0
 10
43.9622732878
 20
57.3107311286
 30
0.0
 10
43.9561769339
 20
57.2665963628
 30
0.0
 10
43.9388165298
 20
57.2446274833
 30
0.0
 10
43.9287058207
 20
57.2387898958
 30
0.0
  0
SPLINE
  5
4A9
100
AcDbEntity
  8
0
100
AcDbSpline
 62
7
  6
BYLAYER
 70
0
 71
3
 72
11
 73
7
 74
0
 42
0.0000001
 43
0.0000001
 44
0.0000000001
 40
0.0
 40
0.0
 40
0.0
 40
0.0
 40
0.1863673369
 40
0.4150179814
 40
0.6929276535
 40
1.0
 40
1.0
 40
1.0
 40
1.0
 10
43.7251515827
 20
57.9377668586
 30
0.0
 10
43.7150409526
 20
57.9319293168
 30
0.0
 10
43.6976804319
 20
57.9099608321
 30
0.0
 10
43.6915841265
 20
57.8658260707
 30
0.0
 10
43.7006510908
 20
57.8151210986
 30
0.0
 10
43.7155333913
 20
57.7812196435
 30
0.0
 10
43.7251515827
 20
57.7645605398
 30
0.0
  0
SPLINE
  5
4AA
100
AcDbEntity
  8
0
100
AcDbSpline
 62
7
  6
BYLAYER
 70
0
 71
3
 72
21
 73
17
 74
0
 42
0.0000001
 43
0.0000001
 44
0.0000000001
 40
0.0
 40
0.0
 40
0.0
 40
0.0
 40
0.0595105536
 40
0.1224417355
 40
0.1882286624
 40
0.2563022592
 40
0.3964158883
 40
0.53687491
 40
0.6053731632
 40
0.6717332204
 40
0.7353307362
 40
0.7956523209
 40
0.85233394
 40
0.9051945242
 40
0.9542992469
 40
1.0
 40
1.0
 40
1.0
 40
1.0
 10
34.0157812653
 20
22.2217042293
 30
0.0
 10
34.0157812653
 20
22.0370097873
 30
0.0
 10
34.0375517023
 20
21.6567989613
 30
0.0
 10
34.1278431388
 20
21.078857837
 30
0.0
 10
34.2755427693
 20
20.4854276623
 30
0.0
 10
34.5481875389
 20
19.6792059763
 30
0.0
 10
35.0134038673
 20
18.6975036335
 30
0.0
 10
35.6168469595
 20
17.7926398645
 30
0.0
 10
36.1700714416
 20
17.1404406538
 30
0.0
 10
36.6056548929
 20
16.7039362531
 30
0.0
 10
37.058197398
 20
16.3232737742
 30
0.0
 10
37.520454108
 20
16.0045937277
 30
0.0
 10
37.9850403853
 20
15.7530279727
 30
0.0
 10
38.4448419031
 20
15.5728987317
 30
0.0
 10
38.8924912917
 20
15.4672696608
 30
0.0
 10
39.1879305825
 20
15.4476619886
 30
0.0
 10
39.3296961564
 20
15.4520969503
 30
0.0
  0
SPLINE
  5
4AB
100
AcDbEntity
  8
0
100
AcDbSpline
 62
7
  6
BYLAYER
 70
0
 71
3
 72
23
 73
19
 74
0
 42
0.0000001
 43
0.0000001
 44
0.0000000001
 40
0.0
 40
0.0
 40
0.0
 40
0.0
 40
0.0428136627
 40
0.0873953382
 40
0.1351787076
 40
0.1870887764
 40
0.2435345351
 40
0.3044910801
 40
0.3695892327
 40
0.4381964242
 40
0.5094933421
 40
0.5825292555
 40
0.656270414
 40
0.7296595763
 40
0.8016497187
 40
0.8712468985
 40
0.9376204939
 40
1.0
 40
1.0
 40
1.0
 40
1.0
 10
38.7879907141
 20
14.8746103814
 30
0.0
 10
38.661649021
 20
14.8016503643
 30
0.0
 10
38.3831102892
 20
14.6859381115
 30
0.0
 10
37.9233667843
 20
14.6185073178
 30
0.0
 10
37.4296489915
 20
14.6548556559
 30
0.0
 10
36.9129587164
 20
14.7921623105
 30
0.0
 10
36.3834169998
 20
15.02617941
 30
0.0
 10
35.8515687481
 20
15.3515381802
 30
0.0
 10
35.328245575
 20
15.7612660576
 30
0.0
 10
34.8242765621
 20
16.2466289222
 30
0.0
 10
34.3502626587
 20
16.7973439707
 30
0.0
 10
33.9163064055
 20
17.40173513
 30
0.0
 10
33.5316152089
 20
18.0469004984
 30
0.0
 10
33.2043921352
 20
18.7190867009
 30
0.0
 10
32.9416394253
 20
19.4039343692
 30
0.0
 10
32.7488837321
 20
20.0870129077
 30
0.0
 10
32.6304334044
 20
20.7536101132
 30
0.0
 10
32.6015735908
 20
21.1926467258
 30
0.0
 10
32.6015735908
 20
21.4052159216
 30
0.0
  0
SPLINE
  5
4AC
100
AcDbEntity
  8
0
100
AcDbSpline
 62
7
  6
BYLAYER
 70
0
 71
3
 72
11
 73
7
 74
0
 42
0.0000001
 43
0.0000001
 44
0.0000000001
 40
0.0
 40
0.0
 40
0.0
 40
0.0
 40
0.3070706355
 40
0.5849787224
 40
0.81363115
 40
1.0
 40
1.0
 40
1.0
 40
1.0
 10
42.3109439082
 20
47.1500432265
 30
0.0
 10
42.3013257733
 20
47.1667022324
 30
0.0
 10
42.286443404
 20
47.2006034047
 30
0.0
 10
42.2773764411
 20
47.2513083125
 30
0.0
 10
42.283472795
 20
47.2954430784
 30
0.0
 10
42.3008331991
 20
47.3174119578
 30
0.0
 10
42.3109439082
 20
47.3232495453
 30
0.0
  0
SPLINE
  5
4AD
100
AcDbEntity
  8
0
100
AcDbSpline
 62
7
  6
BYLAYER
 70
0
 71
3
 72
11
 73
7
 74
0
 42
0.0000001
 43
0.0000001
 44
0.0000000001
 40
0.0
 40
0.0
 40
0.0
 40
0.0
 40
0.1863673369
 40
0.4150179814
 40
0.6929276535
 40
1.0
 40
1.0
 40
1.0
 40
1.0
 10
42.5144981463
 20
46.6242725825
 30
0.0
 10
42.5246087763
 20
46.6301101244
 30
0.0
 10
42.541969297
 20
46.652078609
 30
0.0
 10
42.5480656024
 20
46.6962133704
 30
0.0
 10
42.5389986381
 20
46.7469183425
 30
0.0
 10
42.5241163376
 20
46.7808197977
 30
0.0
 10
42.5144981463
 20
46.7974789013
 30
0.0
  0
SPLINE
  5
4AE
100
AcDbEntity
  8
0
100
AcDbSpline
 62
7
  6
BYLAYER
 70
0
 71
3
 72
11
 73
7
 74
0
 42
0.0000001
 43
0.0000001
 44
0.0000000001
 40
0.0
 40
0.0
 40
0.0
 40
0.0
 40
0.3070706355
 40
0.5849787224
 40
0.81363115
 40
1.0
 40
1.0
 40
1.0
 40
1.0
 10
42.3109439082
 20
57.7645746492
 30
0.0
 10
42.3013257733
 20
57.781233655
 30
0.0
 10
42.286443404
 20
57.8151348274
 30
0.0
 10
42.2773764411
 20
57.8658397352
 30
0.0
 10
42.283472795
 20
57.909974501
 30
0.0
 10
42.3008331991
 20
57.9319433805
 30
0.0
 10
42.3109439082
 20
57.937780968
 30
0.0
  0
SPLINE
  5
4AF
100
AcDbEntity
  8
0
100
AcDbSpline
 62
7
  6
BYLAYER
 70
0
 71
3
 72
11
 73
7
 74
0
 42
0.0000001
 43
0.0000001
 44
0.0000000001
 40
0.0
 40
0.0
 40
0.0
 40
0.0
 40
0.3070706355
 40
0.5849787224
 40
0.81363115
 40
1.0
 40
1.0
 40
1.0
 40
1.0
 10
42.3109439082
 20
46.3335408094
 30
0.0
 10
42.3013257733
 20
46.3501998152
 30
0.0
 10
42.286443404
 20
46.3841009876
 30
0.0
 10
42.2773764411
 20
46.4348058953
 30
0.0
 10
42.283472795
 20
46.4789406612
 30
0.0
 10
42.3008331991
 20
46.5009095407
 30
0.0
 10
42.3109439082
 20
46.5067471282
 30
0.0
  0
SPLINE
  5
4B0
100
AcDbEntity
  8
0
100
AcDbSpline
 62
7
  6
BYLAYER
 70
0
 71
3
 72
11
 73
7
 74
0
 42
0.0000001
 43
0.0000001
 44
0.0000000001
 40
0.0
 40
0.0
 40
0.0
 40
0.0
 40
0.1863673369
 40
0.4150179814
 40
0.6929276535
 40
1.0
 40
1.0
 40
1.0
 40
1.0
 10
42.5144981463
 20
45.8077701654
 30
0.0
 10
42.5246087763
 20
45.8136077072
 30
0.0
 10
42.541969297
 20
45.8355761919
 30
0.0
 10
42.5480656024
 20
45.8797109533
 30
0.0
 10
42.5389986381
 20
45.9304159253
 30
0.0
 10
42.5241163376
 20
45.9643173805
 30
0.0
 10
42.5144981463
 20
45.9809764842
 30
0.0
  0
SPLINE
  5
4B1
100
AcDbEntity
  8
0
100
AcDbSpline
 62
7
  6
BYLAYER
 70
0
 71
3
 72
11
 73
7
 74
0
 42
0.0000001
 43
0.0000001
 44
0.0000000001
 40
0.0
 40
0.0
 40
0.0
 40
0.0
 40
0.3070706355
 40
0.5849787224
 40
0.81363115
 40
1.0
 40
1.0
 40
1.0
 40
1.0
 10
42.3109439082
 20
45.5170383923
 30
0.0
 10
42.3013257733
 20
45.5336973981
 30
0.0
 10
42.286443404
 20
45.5675985704
 30
0.0
 10
42.2773764411
 20
45.6183034782
 30
0.0
 10
42.283472795
 20
45.6624382441
 30
0.0
 10
42.3008331991
 20
45.6844071236
 30
0.0
 10
42.3109439082
 20
45.6902447111
 30
0.0
  0
SPLINE
  5
4B2
100
AcDbEntity
  8
0
100
AcDbSpline
 62
7
  6
BYLAYER
 70
0
 71
3
 72
11
 73
7
 74
0
 42
0.0000001
 43
0.0000001
 44
0.0000000001
 40
0.0
 40
0.0
 40
0.0
 40
0.0
 40
0.1863673369
 40
0.4150179814
 40
0.6929276535
 40
1.0
 40
1.0
 40
1.0
 40
1.0
 10
42.5144981463
 20
44.9912677482
 30
0.0
 10
42.5246087763
 20
44.9971052901
 30
0.0
 10
42.541969297
 20
45.0190737748
 30
0.0
 10
42.5480656024
 20
45.0632085362
 30
0.0
 10
42.5389986381
 20
45.1139135082
 30
0.0
 10
42.5241163376
 20
45.1478149634
 30
0.0
 10
42.5144981463
 20
45.164474067
 30
0.0
  0
SPLINE
  5
4B3
100
AcDbEntity
  8
0
100
AcDbSpline
 62
7
  6
BYLAYER
 70
0
 71
3
 72
11
 73
7
 74
0
 42
0.0000001
 43
0.0000001
 44
0.0000000001
 40
0.0
 40
0.0
 40
0.0
 40
0.0
 40
0.1863673369
 40
0.4150179814
 40
0.6929276535
 40
1.0
 40
1.0
 40
1.0
 40
1.0
 10
42.5144981463
 20
57.2388040052
 30
0.0
 10
42.5246087763
 20
57.244641547
 30
0.0
 10
42.541969297
 20
57.2666100317
 30
0.0
 10
42.5480656024
 20
57.3107447931
 30
0.0
 10
42.5389986381
 20
57.3614497652
 30
0.0
 10
42.5241163376
 20
57.3953512203
 30
0.0
 10
42.5144981463
 20
57.412010324
 30
0.0
  0
SPLINE
  5
4B4
100
AcDbEntity
  8
0
100
AcDbSpline
 62
7
  6
BYLAYER
 70
0
 71
3
 72
11
 73
7
 74
0
 42
0.0000001
 43
0.0000001
 44
0.0000000001
 40
0.0
 40
0.0
 40
0.0
 40
0.0
 40
0.3070706355
 40
0.5849787224
 40
0.81363115
 40
1.0
 40
1.0
 40
1.0
 40
1.0
 10
42.3109439082
 20
44.7005359752
 30
0.0
 10
42.3013257733
 20
44.717194981
 30
0.0
 10
42.286443404
 20
44.7510961533
 30
0.0
 10
42.2773764411
 20
44.8018010611
 30
0.0
 10
42.283472795
 20
44.845935827
 30
0.0
 10
42.3008331991
 20
44.8679047064
 30
0.0
 10
42.3109439082
 20
44.873742294
 30
0.0
  0
SPLINE
  5
4B5
100
AcDbEntity
  8
0
100
AcDbSpline
 62
7
  6
BYLAYER
 70
0
 71
3
 72
11
 73
7
 74
0
 42
0.0000001
 43
0.0000001
 44
0.0000000001
 40
0.0
 40
0.0
 40
0.0
 40
0.0
 40
0.1863673369
 40
0.4150179814
 40
0.6929276535
 40
1.0
 40
1.0
 40
1.0
 40
1.0
 10
42.5144981463
 20
44.1747653311
 30
0.0
 10
42.5246087763
 20
44.180602873
 30
0.0
 10
42.541969297
 20
44.2025713576
 30
0.0
 10
42.5480656024
 20
44.246706119
 30
0.0
 10
42.5389986381
 20
44.2974110911
 30
0.0
 10
42.5241163376
 20
44.3313125463
 30
0.0
 10
42.5144981463
 20
44.3479716499
 30
0.0
  0
SPLINE
  5
4B6
100
AcDbEntity
  8
0
100
AcDbSpline
 62
7
  6
BYLAYER
 70
0
 71
3
 72
11
 73
7
 74
0
 42
0.0000001
 43
0.0000001
 44
0.0000000001
 40
0.0
 40
0.0
 40
0.0
 40
0.0
 40
0.3070706355
 40
0.5849787224
 40
0.81363115
 40
1.0
 40
1.0
 40
1.0
 40
1.0
 10
42.3109439082
 20
43.884033558
 30
0.0
 10
42.3013257733
 20
43.9006925638
 30
0.0
 10
42.286443404
 20
43.9345937362
 30
0.0
 10
42.2773764411
 20
43.985298644
 30
0.0
 10
42.283472795
 20
44.0294334098
 30
0.0
 10
42.3008331991
 20
44.0514022893
 30
0.0
 10
42.3109439082
 20
44.0572398768
 30
0.0
  0
SPLINE
  5
4B7
100
AcDbEntity
  8
0
100
AcDbSpline
 62
7
  6
BYLAYER
 70
0
 71
3
 72
11
 73
7
 74
0
 42
0.0000001
 43
0.0000001
 44
0.0000000001
 40
0.0
 40
0.0
 40
0.0
 40
0.0
 40
0.1863673369
 40
0.4150179814
 40
0.6929276535
 40
1.0
 40
1.0
 40
1.0
 40
1.0
 10
42.5144981463
 20
43.358262914
 30
0.0
 10
42.5246087763
 20
43.3641004558
 30
0.0
 10
42.541969297
 20
43.3860689405
 30
0.0
 10
42.5480656024
 20
43.4302037019
 30
0.0
 10
42.5389986381
 20
43.480908674
 30
0.0
 10
42.5241163376
 20
43.5148101291
 30
0.0
 10
42.5144981463
 20
43.5314692328
 30
0.0
  0
SPLINE
  5
4B8
100
AcDbEntity
  8
0
100
AcDbSpline
 62
7
  6
BYLAYER
 70
0
 71
3
 72
11
 73
7
 74
0
 42
0.0000001
 43
0.0000001
 44
0.0000000001
 40
0.0
 40
0.0
 40
0.0
 40
0.0
 40
0.3070706355
 40
0.5849787224
 40
0.81363115
 40
1.0
 40
1.0
 40
1.0
 40
1.0
 10
42.3109439082
 20
56.9480722321
 30
0.0
 10
42.3013257733
 20
56.9647312379
 30
0.0
 10
42.286443404
 20
56.9986324103
 30
0.0
 10
42.2773764411
 20
57.049337318
 30
0.0
 10
42.283472795
 20
57.0934720839
 30
0.0
 10
42.3008331991
 20
57.1154409634
 30
0.0
 10
42.3109439082
 20
57.1212785509
 30
0.0
  0
SPLINE
  5
4B9
100
AcDbEntity
  8
0
100
AcDbSpline
 62
7
  6
BYLAYER
 70
0
 71
3
 72
11
 73
7
 74
0
 42
0.0000001
 43
0.0000001
 44
0.0000000001
 40
0.0
 40
0.0
 40
0.0
 40
0.0
 40
0.3070706355
 40
0.5849787224
 40
0.81363115
 40
1.0
 40
1.0
 40
1.0
 40
1.0
 10
42.3109439082
 20
43.0675311409
 30
0.0
 10
42.3013257733
 20
43.0841901467
 30
0.0
 10
42.286443404
 20
43.1180913191
 30
0.0
 10
42.2773764411
 20
43.1687962268
 30
0.0
 10
42.283472795
 20
43.2129309927
 30
0.0
 10
42.3008331991
 20
43.2348998722
 30
0.0
 10
42.3109439082
 20
43.2407374597
 30
0.0
  0
SPLINE
  5
4BA
100
AcDbEntity
  8
0
100
AcDbSpline
 62
7
  6
BYLAYER
 70
0
 71
3
 72
11
 73
7
 74
0
 42
0.0000001
 43
0.0000001
 44
0.0000000001
 40
0.0
 40
0.0
 40
0.0
 40
0.0
 40
0.1863673369
 40
0.4150179814
 40
0.6929276535
 40
1.0
 40
1.0
 40
1.0
 40
1.0
 10
42.5144981463
 20
42.5417604968
 30
0.0
 10
42.5246087763
 20
42.5475980387
 30
0.0
 10
42.541969297
 20
42.5695665234
 30
0.0
 10
42.5480656024
 20
42.6137012848
 30
0.0
 10
42.5389986381
 20
42.6644062568
 30
0.0
 10
42.5241163376
 20
42.698307712
 30
0.0
 10
42.5144981463
 20
42.7149668156
 30
0.0
  0
SPLINE
  5
4BB
100
AcDbEntity
  8
0
100
AcDbSpline
 62
7
  6
BYLAYER
 70
0
 71
3
 72
11
 73
7
 74
0
 42
0.0000001
 43
0.0000001
 44
0.0000000001
 40
0.0
 40
0.0
 40
0.0
 40
0.0
 40
0.231477706
 40
0.4711760477
 40
0.726030497
 40
1.0
 40
1.0
 40
1.0
 40
1.0
 10
40.3894791478
 20
7.4696593379
 30
0.0
 10
40.4234227646
 20
7.4892410404
 30
0.0
 10
40.4879684452
 20
7.5375539949
 30
0.0
 10
40.5677016316
 20
7.6323235705
 30
0.0
 10
40.6296019551
 20
7.7476523869
 30
0.0
 10
40.6575377217
 20
7.8331944459
 30
0.0
 10
40.6686456027
 20
7.8782249903
 30
0.0
  0
SPLINE
  5
4BC
100
AcDbEntity
  8
0
100
AcDbSpline
 62
7
  6
BYLAYER
 70
0
 71
3
 72
11
 73
7
 74
0
 42
0.0000001
 43
0.0000001
 44
0.0000000001
 40
0.0
 40
0.0
 40
0.0
 40
0.0
 40
0.3070706355
 40
0.5849787224
 40
0.81363115
 40
1.0
 40
1.0
 40
1.0
 40
1.0
 10
42.3109439082
 20
42.2510287238
 30
0.0
 10
42.3013257733
 20
42.2676877296
 30
0.0
 10
42.286443404
 20
42.3015889019
 30
0.0
 10
42.2773764411
 20
42.3522938097
 30
0.0
 10
42.283472795
 20
42.3964285756
 30
0.0
 10
42.3008331991
 20
42.418397455
 30
0.0
 10
42.3109439082
 20
42.4242350426
 30
0.0
  0
SPLINE
  5
4BD
100
AcDbEntity
  8
0
100
AcDbSpline
 62
7
  6
BYLAYER
 70
0
 71
3
 72
11
 73
7
 74
0
 42
0.0000001
 43
0.0000001
 44
0.0000000001
 40
0.0
 40
0.0
 40
0.0
 40
0.0
 40
0.1863673369
 40
0.4150179814
 40
0.6929276535
 40
1.0
 40
1.0
 40
1.0
 40
1.0
 10
42.5144981463
 20
41.7252580797
 30
0.0
 10
42.5246087763
 20
41.7310956216
 30
0.0
 10
42.541969297
 20
41.7530641062
 30
0.0
 10
42.5480656024
 20
41.7971988676
 30
0.0
 10
42.5389986381
 20
41.8479038397
 30
0.0
 10
42.5241163376
 20
41.8818052949
 30
0.0
 10
42.5144981463
 20
41.8984643985
 30
0.0
  0
SPLINE
  5
4BE
100
AcDbEntity
  8
0
100
AcDbSpline
 62
7
  6
BYLAYER
 70
0
 71
3
 72
11
 73
7
 74
0
 42
0.0000001
 43
0.0000001
 44
0.0000000001
 40
0.0
 40
0.0
 40
0.0
 40
0.0
 40
0.1863673369
 40
0.4150179814
 40
0.6929276535
 40
1.0
 40
1.0
 40
1.0
 40
1.0
 10
42.5144981463
 20
56.422301588
 30
0.0
 10
42.5246087763
 20
56.4281391299
 30
0.0
 10
42.541969297
 20
56.4501076146
 30
0.0
 10
42.5480656024
 20
56.494242376
 30
0.0
 10
42.5389986381
 20
56.544947348
 30
0.0
 10
42.5241163376
 20
56.5788488032
 30
0.0
 10
42.5144981463
 20
56.5955079068
 30
0.0
  0
SPLINE
  5
4BF
100
AcDbEntity
  8
0
100
AcDbSpline
 62
7
  6
BYLAYER
 70
0
 71
3
 72
11
 73
7
 74
0
 42
0.0000001
 43
0.0000001
 44
0.0000000001
 40
0.0
 40
0.0
 40
0.0
 40
0.0
 40
0.3070706355
 40
0.5849787224
 40
0.81363115
 40
1.0
 40
1.0
 40
1.0
 40
1.0
 10
42.3109439082
 20
41.4345263066
 30
0.0
 10
42.3013257733
 20
41.4511853124
 30
0.0
 10
42.286443404
 20
41.4850864848
 30
0.0
 10
42.2773764411
 20
41.5357913926
 30
0.0
 10
42.283472795
 20
41.5799261585
 30
0.0
 10
42.3008331991
 20
41.6018950379
 30
0.0
 10
42.3109439082
 20
41.6077326254
 30
0.0
  0
SPLINE
  5
4C0
100
AcDbEntity
  8
0
100
AcDbSpline
 62
7
  6
BYLAYER
 70
0
 71
3
 72
11
 73
7
 74
0
 42
0.0000001
 43
0.0000001
 44
0.0000000001
 40
0.0
 40
0.0
 40
0.0
 40
0.0
 40
0.1863673369
 40
0.4150179814
 40
0.6929276535
 40
1.0
 40
1.0
 40
1.0
 40
1.0
 10
42.5144981463
 20
40.9087556626
 30
0.0
 10
42.5246087763
 20
40.9145932045
 30
0.0
 10
42.541969297
 20
40.9365616891
 30
0.0
 10
42.5480656024
 20
40.9806964505
 30
0.0
 10
42.5389986381
 20
41.0314014226
 30
0.0
 10
42.5241163376
 20
41.0653028777
 30
0.0
 10
42.5144981463
 20
41.0819619814
 30
0.0
  0
SPLINE
  5
4C1
100
AcDbEntity
  8
0
100
AcDbSpline
 62
7
  6
BYLAYER
 70
0
 71
3
 72
11
 73
7
 74
0
 42
0.0000001
 43
0.0000001
 44
0.0000000001
 40
0.0
 40
0.0
 40
0.0
 40
0.0
 40
0.3070706355
 40
0.5849787224
 40
0.81363115
 40
1.0
 40
1.0
 40
1.0
 40
1.0
 10
42.3109439082
 20
60.2140819006
 30
0.0
 10
42.3013257733
 20
60.2307409064
 30
0.0
 10
42.286443404
 20
60.2646420788
 30
0.0
 10
42.2773764411
 20
60.3153469865
 30
0.0
 10
42.283472795
 20
60.3594817524
 30
0.0
 10
42.3008331991
 20
60.3814506319
 30
0.0
 10
42.3109439082
 20
60.3872882194
 30
0.0
  0
SPLINE
  5
4C2
100
AcDbEntity
  8
0
100
AcDbSpline
 62
7
  6
BYLAYER
 70
0
 71
3
 72
11
 73
7
 74
0
 42
0.0000001
 43
0.0000001
 44
0.0000000001
 40
0.0
 40
0.0
 40
0.0
 40
0.0
 40
0.3070706355
 40
0.5849787224
 40
0.81363115
 40
1.0
 40
1.0
 40
1.0
 40
1.0
 10
42.3109439082
 20
40.6180238895
 30
0.0
 10
42.3013257733
 20
40.6346828953
 30
0.0
 10
42.286443404
 20
40.6685840677
 30
0.0
 10
42.2773764411
 20
40.7192889754
 30
0.0
 10
42.283472795
 20
40.7634237413
 30
0.0
 10
42.3008331991
 20
40.7853926208
 30
0.0
 10
42.3109439082
 20
40.7912302083
 30
0.0
  0
SPLINE
  5
4C3
100
AcDbEntity
  8
0
100
AcDbSpline
 62
7
  6
BYLAYER
 70
0
 71
3
 72
11
 73
7
 74
0
 42
0.0000001
 43
0.0000001
 44
0.0000000001
 40
0.0
 40
0.0
 40
0.0
 40
0.0
 40
0.1863673369
 40
0.4150179814
 40
0.6929276535
 40
1.0
 40
1.0
 40
1.0
 40
1.0
 10
42.5144981463
 20
40.0922532454
 30
0.0
 10
42.5246087763
 20
40.0980907873
 30
0.0
 10
42.541969297
 20
40.120059272
 30
0.0
 10
42.5480656024
 20
40.1641940334
 30
0.0
 10
42.5389986381
 20
40.2148990054
 30
0.0
 10
42.5241163376
 20
40.2488004606
 30
0.0
 10
42.5144981463
 20
40.2654595642
 30
0.0
  0
SPLINE
  5
4C4
100
AcDbEntity
  8
0
100
AcDbSpline
 62
7
  6
BYLAYER
 70
0
 71
3
 72
11
 73
7
 74
0
 42
0.0000001
 43
0.0000001
 44
0.0000000001
 40
0.0
 40
0.0
 40
0.0
 40
0.0
 40
0.3070706355
 40
0.5849787224
 40
0.81363115
 40
1.0
 40
1.0
 40
1.0
 40
1.0
 10
42.3109439082
 20
56.131569815
 30
0.0
 10
42.3013257733
 20
56.1482288208
 30
0.0
 10
42.286443404
 20
56.1821299931
 30
0.0
 10
42.2773764411
 20
56.2328349009
 30
0.0
 10
42.283472795
 20
56.2769696668
 30
0.0
 10
42.3008331991
 20
56.2989385462
 30
0.0
 10
42.3109439082
 20
56.3047761338
 30
0.0
  0
SPLINE
  5
4C5
100
AcDbEntity
  8
0
100
AcDbSpline
 62
7
  6
BYLAYER
 70
0
 71
3
 72
11
 73
7
 74
0
 42
0.0000001
 43
0.0000001
 44
0.0000000001
 40
0.0
 40
0.0
 40
0.0
 40
0.0
 40
0.3070706355
 40
0.5849787224
 40
0.81363115
 40
1.0
 40
1.0
 40
1.0
 40
1.0
 10
42.3109439082
 20
39.8015214724
 30
0.0
 10
42.3013257733
 20
39.8181804782
 30
0.0
 10
42.286443404
 20
39.8520816505
 30
0.0
 10
42.2773764411
 20
39.9027865583
 30
0.0
 10
42.283472795
 20
39.9469213242
 30
0.0
 10
42.3008331991
 20
39.9688902037
 30
0.0
 10
42.3109439082
 20
39.9747277912
 30
0.0
  0
SPLINE
  5
4C6
100
AcDbEntity
  8
0
100
AcDbSpline
 62
7
  6
BYLAYER
 70
0
 71
3
 72
11
 73
7
 74
0
 42
0.0000001
 43
0.0000001
 44
0.0000000001
 40
0.0
 40
0.0
 40
0.0
 40
0.0
 40
0.1863673369
 40
0.4150179814
 40
0.6929276535
 40
1.0
 40
1.0
 40
1.0
 40
1.0
 10
42.5144981463
 20
39.2757508283
 30
0.0
 10
42.5246087763
 20
39.2815883702
 30
0.0
 10
42.541969297
 20
39.3035568548
 30
0.0
 10
42.5480656024
 20
39.3476916163
 30
0.0
 10
42.5389986381
 20
39.3983965883
 30
0.0
 10
42.5241163376
 20
39.4322980435
 30
0.0
 10
42.5144981463
 20
39.4489571471
 30
0.0
  0
SPLINE
  5
4C7
100
AcDbEntity
  8
0
100
AcDbSpline
 62
7
  6
BYLAYER
 70
0
 71
3
 72
11
 73
7
 74
0
 42
0.0000001
 43
0.0000001
 44
0.0000000001
 40
0.0
 40
0.0
 40
0.0
 40
0.0
 40
0.3070706355
 40
0.5849787224
 40
0.81363115
 40
1.0
 40
1.0
 40
1.0
 40
1.0
 10
42.3109439082
 20
38.9850190552
 30
0.0
 10
42.3013257733
 20
39.0016780611
 30
0.0
 10
42.286443404
 20
39.0355792334
 30
0.0
 10
42.2773764411
 20
39.0862841412
 30
0.0
 10
42.283472795
 20
39.1304189071
 30
0.0
 10
42.3008331991
 20
39.1523877865
 30
0.0
 10
42.3109439082
 20
39.158225374
 30
0.0
  0
SPLINE
  5
4C8
100
AcDbEntity
  8
0
100
AcDbSpline
 62
7
  6
BYLAYER
 70
0
 71
3
 72
11
 73
7
 74
0
 42
0.0000001
 43
0.0000001
 44
0.0000000001
 40
0.0
 40
0.0
 40
0.0
 40
0.0
 40
0.1863673369
 40
0.4150179814
 40
0.6929276535
 40
1.0
 40
1.0
 40
1.0
 40
1.0
 10
42.5144981463
 20
38.4592484112
 30
0.0
 10
42.5246087763
 20
38.4650859531
 30
0.0
 10
42.541969297
 20
38.4870544377
 30
0.0
 10
42.5480656024
 20
38.5311891991
 30
0.0
 10
42.5389986381
 20
38.5818941712
 30
0.0
 10
42.5241163376
 20
38.6157956264
 30
0.0
 10
42.5144981463
 20
38.63245473
 30
0.0
  0
SPLINE
  5
4C9
100
AcDbEntity
  8
0
100
AcDbSpline
 62
7
  6
BYLAYER
 70
0
 71
3
 72
11
 73
7
 74
0
 42
0.0000001
 43
0.0000001
 44
0.0000000001
 40
0.0
 40
0.0
 40
0.0
 40
0.0
 40
0.1863673369
 40
0.4150179814
 40
0.6929276535
 40
1.0
 40
1.0
 40
1.0
 40
1.0
 10
42.5144981463
 20
55.6057991709
 30
0.0
 10
42.5246087763
 20
55.6116367128
 30
0.0
 10
42.541969297
 20
55.6336051974
 30
0.0
 10
42.5480656024
 20
55.6777399588
 30
0.0
 10
42.5389986381
 20
55.7284449309
 30
0.0
 10
42.5241163376
 20
55.7623463861
 30
0.0
 10
42.5144981463
 20
55.7790054897
 30
0.0
  0
SPLINE
  5
4CA
100
AcDbEntity
  8
0
100
AcDbSpline
 62
7
  6
BYLAYER
 70
0
 71
3
 72
11
 73
7
 74
0
 42
0.0000001
 43
0.0000001
 44
0.0000000001
 40
0.0
 40
0.0
 40
0.0
 40
0.0
 40
0.3070706355
 40
0.5849787224
 40
0.81363115
 40
1.0
 40
1.0
 40
1.0
 40
1.0
 10
42.3109439082
 20
38.1685166381
 30
0.0
 10
42.3013257733
 20
38.1851756439
 30
0.0
 10
42.286443404
 20
38.2190768163
 30
0.0
 10
42.2773764411
 20
38.2697817241
 30
0.0
 10
42.283472795
 20
38.3139164899
 30
0.0
 10
42.3008331991
 20
38.3358853694
 30
0.0
 10
42.3109439082
 20
38.3417229569
 30
0.0
  0
SPLINE
  5
4CB
100
AcDbEntity
  8
0
100
AcDbSpline
 62
7
  6
BYLAYER
 70
0
 71
3
 72
11
 73
7
 74
0
 42
0.0000001
 43
0.0000001
 44
0.0000000001
 40
0.0
 40
0.0
 40
0.0
 40
0.0
 40
0.1863673369
 40
0.4150179814
 40
0.6929276535
 40
1.0
 40
1.0
 40
1.0
 40
1.0
 10
42.5144981463
 20
37.6427459941
 30
0.0
 10
42.5246087763
 20
37.6485835359
 30
0.0
 10
42.541969297
 20
37.6705520206
 30
0.0
 10
42.5480656024
 20
37.714686782
 30
0.0
 10
42.5389986381
 20
37.765391754
 30
0.0
 10
42.5241163376
 20
37.7992932092
 30
0.0
 10
42.5144981463
 20
37.8159523129
 30
0.0
  0
SPLINE
  5
4CC
100
AcDbEntity
  8
0
100
AcDbSpline
 62
7
  6
BYLAYER
 70
0
 71
3
 72
11
 73
7
 74
0
 42
0.0000001
 43
0.0000001
 44
0.0000000001
 40
0.0
 40
0.0
 40
0.0
 40
0.0
 40
0.3070706355
 40
0.5849787224
 40
0.81363115
 40
1.0
 40
1.0
 40
1.0
 40
1.0
 10
42.3109439082
 20
37.352014221
 30
0.0
 10
42.3013257733
 20
37.3686732268
 30
0.0
 10
42.286443404
 20
37.4025743991
 30
0.0
 10
42.2773764411
 20
37.4532793069
 30
0.0
 10
42.283472795
 20
37.4974140728
 30
0.0
 10
42.3008331991
 20
37.5193829523
 30
0.0
 10
42.3109439082
 20
37.5252205398
 30
0.0
  0
SPLINE
  5
4CD
100
AcDbEntity
  8
0
100
AcDbSpline
 62
7
  6
BYLAYER
 70
0
 71
3
 72
11
 73
7
 74
0
 42
0.0000001
 43
0.0000001
 44
0.0000000001
 40
0.0
 40
0.0
 40
0.0
 40
0.0
 40
0.1863673369
 40
0.4150179814
 40
0.6929276535
 40
1.0
 40
1.0
 40
1.0
 40
1.0
 10
42.5144981463
 20
36.8262435769
 30
0.0
 10
42.5246087763
 20
36.8320811188
 30
0.0
 10
42.541969297
 20
36.8540496035
 30
0.0
 10
42.5480656024
 20
36.8981843649
 30
0.0
 10
42.5389986381
 20
36.9488893369
 30
0.0
 10
42.5241163376
 20
36.9827907921
 30
0.0
 10
42.5144981463
 20
36.9994498957
 30
0.0
  0
SPLINE
  5
4CE
100
AcDbEntity
  8
0
100
AcDbSpline
 62
7
  6
BYLAYER
 70
0
 71
3
 72
11
 73
7
 74
0
 42
0.0000001
 43
0.0000001
 44
0.0000000001
 40
0.0
 40
0.0
 40
0.0
 40
0.0
 40
0.3070706355
 40
0.5849787224
 40
0.81363115
 40
1.0
 40
1.0
 40
1.0
 40
1.0
 10
42.3109439082
 20
55.3150673978
 30
0.0
 10
42.3013257733
 20
55.3317264036
 30
0.0
 10
42.286443404
 20
55.365627576
 30
0.0
 10
42.2773764411
 20
55.4163324838
 30
0.0
 10
42.283472795
 20
55.4604672497
 30
0.0
 10
42.3008331991
 20
55.4824361291
 30
0.0
 10
42.3109439082
 20
55.4882737166
 30
0.0
  0
SPLINE
  5
4CF
100
AcDbEntity
  8
0
100
AcDbSpline
 62
7
  6
BYLAYER
 70
0
 71
3
 72
11
 73
7
 74
0
 42
0.0000001
 43
0.0000001
 44
0.0000000001
 40
0.0
 40
0.0
 40
0.0
 40
0.0
 40
0.3070706355
 40
0.5849787224
 40
0.81363115
 40
1.0
 40
1.0
 40
1.0
 40
1.0
 10
42.3109439082
 20
36.5355118039
 30
0.0
 10
42.3013257733
 20
36.5521708097
 30
0.0
 10
42.286443404
 20
36.586071982
 30
0.0
 10
42.2773764411
 20
36.6367768898
 30
0.0
 10
42.283472795
 20
36.6809116557
 30
0.0
 10
42.3008331991
 20
36.7028805351
 30
0.0
 10
42.3109439082
 20
36.7087181227
 30
0.0
  0
SPLINE
  5
4D0
100
AcDbEntity
  8
0
100
AcDbSpline
 62
7
  6
BYLAYER
 70
0
 71
3
 72
11
 73
7
 74
0
 42
0.0000001
 43
0.0000001
 44
0.0000000001
 40
0.0
 40
0.0
 40
0.0
 40
0.0
 40
0.1863673369
 40
0.4150179814
 40
0.6929276535
 40
1.0
 40
1.0
 40
1.0
 40
1.0
 10
42.5144981463
 20
36.0097411598
 30
0.0
 10
42.5246087763
 20
36.0155787017
 30
0.0
 10
42.541969297
 20
36.0375471863
 30
0.0
 10
42.5480656024
 20
36.0816819477
 30
0.0
 10
42.5389986381
 20
36.1323869198
 30
0.0
 10
42.5241163376
 20
36.166288375
 30
0.0
 10
42.5144981463
 20
36.1829474786
 30
0.0
  0
SPLINE
  5
4D1
100
AcDbEntity
  8
0
100
AcDbSpline
 62
7
  6
BYLAYER
 70
0
 71
3
 72
11
 73
7
 74
0
 42
0.0000001
 43
0.0000001
 44
0.0000000001
 40
0.0
 40
0.0
 40
0.0
 40
0.0
 40
0.3070706355
 40
0.5849787224
 40
0.81363115
 40
1.0
 40
1.0
 40
1.0
 40
1.0
 10
42.3109439082
 20
35.7190093867
 30
0.0
 10
42.3013257733
 20
35.7356683925
 30
0.0
 10
42.286443404
 20
35.7695695649
 30
0.0
 10
42.2773764411
 20
35.8202744727
 30
0.0
 10
42.283472795
 20
35.8644092385
 30
0.0
 10
42.3008331991
 20
35.886378118
 30
0.0
 10
42.3109439082
 20
35.8922157055
 30
0.0
  0
SPLINE
  5
4D2
100
AcDbEntity
  8
0
100
AcDbSpline
 62
7
  6
BYLAYER
 70
0
 71
3
 72
11
 73
7
 74
0
 42
0.0000001
 43
0.0000001
 44
0.0000000001
 40
0.0
 40
0.0
 40
0.0
 40
0.0
 40
0.1863673369
 40
0.4150179814
 40
0.6929276535
 40
1.0
 40
1.0
 40
1.0
 40
1.0
 10
42.5144981463
 20
35.1932387427
 30
0.0
 10
42.5246087763
 20
35.1990762845
 30
0.0
 10
42.541969297
 20
35.2210447692
 30
0.0
 10
42.5480656024
 20
35.2651795306
 30
0.0
 10
42.5389986381
 20
35.3158845027
 30
0.0
 10
42.5241163376
 20
35.3497859578
 30
0.0
 10
42.5144981463
 20
35.3664450615
 30
0.0
  0
SPLINE
  5
4D3
100
AcDbEntity
  8
0
100
AcDbSpline
 62
7
  6
BYLAYER
 70
0
 71
3
 72
11
 73
7
 74
0
 42
0.0000001
 43
0.0000001
 44
0.0000000001
 40
0.0
 40
0.0
 40
0.0
 40
0.0
 40
0.1863673369
 40
0.4150179814
 40
0.6929276535
 40
1.0
 40
1.0
 40
1.0
 40
1.0
 10
42.5144981463
 20
54.7892967538
 30
0.0
 10
42.5246087763
 20
54.7951342957
 30
0.0
 10
42.541969297
 20
54.8171027803
 30
0.0
 10
42.5480656024
 20
54.8612375417
 30
0.0
 10
42.5389986381
 20
54.9119425138
 30
0.0
 10
42.5241163376
 20
54.9458439689
 30
0.0
 10
42.5144981463
 20
54.9625030726
 30
0.0
  0
SPLINE
  5
4D4
100
AcDbEntity
  8
0
100
AcDbSpline
 62
7
  6
BYLAYER
 70
0
 71
3
 72
11
 73
7
 74
0
 42
0.0000001
 43
0.0000001
 44
0.0000000001
 40
0.0
 40
0.0
 40
0.0
 40
0.0
 40
0.3070706355
 40
0.5849787224
 40
0.81363115
 40
1.0
 40
1.0
 40
1.0
 40
1.0
 10
42.3109439082
 20
34.9025069696
 30
0.0
 10
42.3013257733
 20
34.9191659754
 30
0.0
 10
42.286443404
 20
34.9530671478
 30
0.0
 10
42.2773764411
 20
35.0037720555
 30
0.0
 10
42.283472795
 20
35.0479068214
 30
0.0
 10
42.3008331991
 20
35.0698757009
 30
0.0
 10
42.3109439082
 20
35.0757132884
 30
0.0
  0
SPLINE
  5
4D5
100
AcDbEntity
  8
0
100
AcDbSpline
 62
7
  6
BYLAYER
 70
0
 71
3
 72
11
 73
7
 74
0
 42
0.0000001
 43
0.0000001
 44
0.0000000001
 40
0.0
 40
0.0
 40
0.0
 40
0.0
 40
0.1863673369
 40
0.4150179814
 40
0.6929276535
 40
1.0
 40
1.0
 40
1.0
 40
1.0
 10
42.5144981463
 20
34.3767363255
 30
0.0
 10
42.5246087763
 20
34.3825738674
 30
0.0
 10
42.541969297
 20
34.4045423521
 30
0.0
 10
42.5480656024
 20
34.4486771135
 30
0.0
 10
42.5389986381
 20
34.4993820855
 30
0.0
 10
42.5241163376
 20
34.5332835407
 30
0.0
 10
42.5144981463
 20
34.5499426443
 30
0.0
  0
SPLINE
  5
4D6
100
AcDbEntity
  8
0
100
AcDbSpline
 62
7
  6
BYLAYER
 70
0
 71
3
 72
11
 73
7
 74
0
 42
0.0000001
 43
0.0000001
 44
0.0000000001
 40
0.0
 40
0.0
 40
0.0
 40
0.0
 40
0.1863673369
 40
0.4150179814
 40
0.6929276535
 40
1.0
 40
1.0
 40
1.0
 40
1.0
 10
42.5144981463
 20
59.6883112566
 30
0.0
 10
42.5246087763
 20
59.6941487984
 30
0.0
 10
42.541969297
 20
59.7161172831
 30
0.0
 10
42.5480656024
 20
59.7602520445
 30
0.0
 10
42.5389986381
 20
59.8109570165
 30
0.0
 10
42.5241163376
 20
59.8448584717
 30
0.0
 10
42.5144981463
 20
59.8615175754
 30
0.0
  0
SPLINE
  5
4D7
100
AcDbEntity
  8
0
100
AcDbSpline
 62
7
  6
BYLAYER
 70
0
 71
3
 72
11
 73
7
 74
0
 42
0.0000001
 43
0.0000001
 44
0.0000000001
 40
0.0
 40
0.0
 40
0.0
 40
0.0
 40
0.3070706355
 40
0.5849787224
 40
0.81363115
 40
1.0
 40
1.0
 40
1.0
 40
1.0
 10
42.3109439082
 20
34.0860045525
 30
0.0
 10
42.3013257733
 20
34.1026635583
 30
0.0
 10
42.286443404
 20
34.1365647306
 30
0.0
 10
42.2773764411
 20
34.1872696384
 30
0.0
 10
42.283472795
 20
34.2314044043
 30
0.0
 10
42.3008331991
 20
34.2533732837
 30
0.0
 10
42.3109439082
 20
34.2592108713
 30
0.0
  0
SPLINE
  5
4D8
100
AcDbEntity
  8
0
100
AcDbSpline
 62
7
  6
BYLAYER
 70
0
 71
3
 72
11
 73
7
 74
0
 42
0.0000001
 43
0.0000001
 44
0.0000000001
 40
0.0
 40
0.0
 40
0.0
 40
0.0
 40
0.1863673369
 40
0.4150179814
 40
0.6929276535
 40
1.0
 40
1.0
 40
1.0
 40
1.0
 10
42.5144981463
 20
33.5602339084
 30
0.0
 10
42.5246087763
 20
33.5660714503
 30
0.0
 10
42.541969297
 20
33.5880399349
 30
0.0
 10
42.5480656024
 20
33.6321746963
 30
0.0
 10
42.5389986381
 20
33.6828796684
 30
0.0
 10
42.5241163376
 20
33.7167811236
 30
0.0
 10
42.5144981463
 20
33.7334402272
 30
0.0
  0
SPLINE
  5
4D9
100
AcDbEntity
  8
0
100
AcDbSpline
 62
7
  6
BYLAYER
 70
0
 71
3
 72
11
 73
7
 74
0
 42
0.0000001
 43
0.0000001
 44
0.0000000001
 40
0.0
 40
0.0
 40
0.0
 40
0.0
 40
0.3070706355
 40
0.5849787224
 40
0.81363115
 40
1.0
 40
1.0
 40
1.0
 40
1.0
 10
42.3109439082
 20
54.4985649807
 30
0.0
 10
42.3013257733
 20
54.5152239865
 30
0.0
 10
42.286443404
 20
54.5491251589
 30
0.0
 10
42.2773764411
 20
54.5998300666
 30
0.0
 10
42.283472795
 20
54.6439648325
 30
0.0
 10
42.3008331991
 20
54.665933712
 30
0.0
 10
42.3109439082
 20
54.6717712995
 30
0.0
  0
SPLINE
  5
4DA
100
AcDbEntity
  8
0
100
AcDbSpline
 62
7
  6
BYLAYER
 70
0
 71
3
 72
11
 73
7
 74
0
 42
0.0000001
 43
0.0000001
 44
0.0000000001
 40
0.0
 40
0.0
 40
0.0
 40
0.0
 40
0.3070706355
 40
0.5849787224
 40
0.81363115
 40
1.0
 40
1.0
 40
1.0
 40
1.0
 10
42.3109439082
 20
33.2695021353
 30
0.0
 10
42.3013257733
 20
33.2861611412
 30
0.0
 10
42.286443404
 20
33.3200623135
 30
0.0
 10
42.2773764411
 20
33.3707672213
 30
0.0
 10
42.283472795
 20
33.4149019872
 30
0.0
 10
42.3008331991
 20
33.4368708666
 30
0.0
 10
42.3109439082
 20
33.4427084541
 30
0.0
  0
SPLINE
  5
4DB
100
AcDbEntity
  8
0
100
AcDbSpline
 62
7
  6
BYLAYER
 70
0
 71
3
 72
11
 73
7
 74
0
 42
0.0000001
 43
0.0000001
 44
0.0000000001
 40
0.0
 40
0.0
 40
0.0
 40
0.0
 40
0.1863673369
 40
0.4150179814
 40
0.6929276535
 40
1.0
 40
1.0
 40
1.0
 40
1.0
 10
42.5144981463
 20
32.7437314913
 30
0.0
 10
42.5246087763
 20
32.7495690332
 30
0.0
 10
42.541969297
 20
32.7715375178
 30
0.0
 10
42.5480656024
 20
32.8156722792
 30
0.0
 10
42.5389986381
 20
32.8663772513
 30
0.0
 10
42.5241163376
 20
32.9002787065
 30
0.0
 10
42.5144981463
 20
32.9169378101
 30
0.0
  0
SPLINE
  5
4DC
100
AcDbEntity
  8
0
100
AcDbSpline
 62
7
  6
BYLAYER
 70
0
 71
3
 72
11
 73
7
 74
0
 42
0.0000001
 43
0.0000001
 44
0.0000000001
 40
0.0
 40
0.0
 40
0.0
 40
0.0
 40
0.3070706355
 40
0.5849787224
 40
0.81363115
 40
1.0
 40
1.0
 40
1.0
 40
1.0
 10
42.3109439082
 20
32.4529997182
 30
0.0
 10
42.3013257733
 20
32.469658724
 30
0.0
 10
42.286443404
 20
32.5035598964
 30
0.0
 10
42.2773764411
 20
32.5542648041
 30
0.0
 10
42.283472795
 20
32.59839957
 30
0.0
 10
42.3008331991
 20
32.6203684495
 30
0.0
 10
42.3109439082
 20
32.626206037
 30
0.0
  0
SPLINE
  5
4DD
100
AcDbEntity
  8
0
100
AcDbSpline
 62
7
  6
BYLAYER
 70
0
 71
3
 72
11
 73
7
 74
0
 42
0.0000001
 43
0.0000001
 44
0.0000000001
 40
0.0
 40
0.0
 40
0.0
 40
0.0
 40
0.1863673369
 40
0.4150179814
 40
0.6929276535
 40
1.0
 40
1.0
 40
1.0
 40
1.0
 10
42.5144981463
 20
31.9272290741
 30
0.0
 10
42.5246087763
 20
31.933066616
 30
0.0
 10
42.541969297
 20
31.9550351007
 30
0.0
 10
42.5480656024
 20
31.9991698621
 30
0.0
 10
42.5389986381
 20
32.0498748341
 30
0.0
 10
42.5241163376
 20
32.0837762893
 30
0.0
 10
42.5144981463
 20
32.100435393
 30
0.0
  0
SPLINE
  5
4DE
100
AcDbEntity
  8
0
100
AcDbSpline
 62
7
  6
BYLAYER
 70
0
 71
3
 72
11
 73
7
 74
0
 42
0.0000001
 43
0.0000001
 44
0.0000000001
 40
0.0
 40
0.0
 40
0.0
 40
0.0
 40
0.1863673369
 40
0.4150179814
 40
0.6929276535
 40
1.0
 40
1.0
 40
1.0
 40
1.0
 10
42.5144981463
 20
53.9727943366
 30
0.0
 10
42.5246087763
 20
53.9786318785
 30
0.0
 10
42.541969297
 20
54.0006003632
 30
0.0
 10
42.5480656024
 20
54.0447351246
 30
0.0
 10
42.5389986381
 20
54.0954400966
 30
0.0
 10
42.5241163376
 20
54.1293415518
 30
0.0
 10
42.5144981463
 20
54.1460006554
 30
0.0
  0
SPLINE
  5
4DF
100
AcDbEntity
  8
0
100
AcDbSpline
 62
7
  6
BYLAYER
 70
0
 71
3
 72
11
 73
7
 74
0
 42
0.0000001
 43
0.0000001
 44
0.0000000001
 40
0.0
 40
0.0
 40
0.0
 40
0.0
 40
0.3070706355
 40
0.5849787224
 40
0.81363115
 40
1.0
 40
1.0
 40
1.0
 40
1.0
 10
42.3109439082
 20
31.6364973011
 30
0.0
 10
42.3013257733
 20
31.6531563069
 30
0.0
 10
42.286443404
 20
31.6870574792
 30
0.0
 10
42.2773764411
 20
31.737762387
 30
0.0
 10
42.283472795
 20
31.7818971529
 30
0.0
 10
42.3008331991
 20
31.8038660324
 30
0.0
 10
42.3109439082
 20
31.8097036199
 30
0.0
  0
SPLINE
  5
4E0
100
AcDbEntity
  8
0
100
AcDbSpline
 62
7
  6
BYLAYER
 70
0
 71
3
 72
11
 73
7
 74
0
 42
0.0000001
 43
0.0000001
 44
0.0000000001
 40
0.0
 40
0.0
 40
0.0
 40
0.0
 40
0.1863673369
 40
0.4150179814
 40
0.6929276535
 40
1.0
 40
1.0
 40
1.0
 40
1.0
 10
42.5144981463
 20
31.110726657
 30
0.0
 10
42.5246087763
 20
31.1165641989
 30
0.0
 10
42.541969297
 20
31.1385326835
 30
0.0
 10
42.5480656024
 20
31.182667445
 30
0.0
 10
42.5389986381
 20
31.233372417
 30
0.0
 10
42.5241163376
 20
31.2672738722
 30
0.0
 10
42.5144981463
 20
31.2839329758
 30
0.0
  0
SPLINE
  5
4E1
100
AcDbEntity
  8
0
100
AcDbSpline
 62
7
  6
BYLAYER
 70
0
 71
3
 72
11
 73
7
 74
0
 42
0.0000001
 43
0.0000001
 44
0.0000000001
 40
0.0
 40
0.0
 40
0.0
 40
0.0
 40
0.3070706355
 40
0.5849787224
 40
0.81363115
 40
1.0
 40
1.0
 40
1.0
 40
1.0
 10
42.3109439082
 20
30.819994884
 30
0.0
 10
42.3013257733
 20
30.8366538898
 30
0.0
 10
42.286443404
 20
30.8705550621
 30
0.0
 10
42.2773764411
 20
30.9212599699
 30
0.0
 10
42.283472795
 20
30.9653947358
 30
0.0
 10
42.3008331991
 20
30.9873636152
 30
0.0
 10
42.3109439082
 20
30.9932012028
 30
0.0
  0
SPLINE
  5
4E2
100
AcDbEntity
  8
0
100
AcDbSpline
 62
7
  6
BYLAYER
 70
0
 71
3
 72
11
 73
7
 74
0
 42
0.0000001
 43
0.0000001
 44
0.0000000001
 40
0.0
 40
0.0
 40
0.0
 40
0.0
 40
0.1863673369
 40
0.4150179814
 40
0.6929276535
 40
1.0
 40
1.0
 40
1.0
 40
1.0
 10
42.5144981463
 20
30.2942242399
 30
0.0
 10
42.5246087763
 20
30.3000617818
 30
0.0
 10
42.541969297
 20
30.3220302664
 30
0.0
 10
42.5480656024
 20
30.3661650278
 30
0.0
 10
42.5389986381
 20
30.4168699999
 30
0.0
 10
42.5241163376
 20
30.4507714551
 30
0.0
 10
42.5144981463
 20
30.4674305587
 30
0.0
  0
SPLINE
  5
4E3
100
AcDbEntity
  8
0
100
AcDbSpline
 62
7
  6
BYLAYER
 70
0
 71
3
 72
11
 73
7
 74
0
 42
0.0000001
 43
0.0000001
 44
0.0000000001
 40
0.0
 40
0.0
 40
0.0
 40
0.0
 40
0.3070706355
 40
0.5849787224
 40
0.81363115
 40
1.0
 40
1.0
 40
1.0
 40
1.0
 10
42.3109439082
 20
53.6820625636
 30
0.0
 10
42.3013257733
 20
53.6987215694
 30
0.0
 10
42.286443404
 20
53.7326227417
 30
0.0
 10
42.2773764411
 20
53.7833276495
 30
0.0
 10
42.283472795
 20
53.8274624154
 30
0.0
 10
42.3008331991
 20
53.8494312949
 30
0.0
 10
42.3109439082
 20
53.8552688824
 30
0.0
  0
SPLINE
  5
4E4
100
AcDbEntity
  8
0
100
AcDbSpline
 62
7
  6
BYLAYER
 70
0
 71
3
 72
11
 73
7
 74
0
 42
0.0000001
 43
0.0000001
 44
0.0000000001
 40
0.0
 40
0.0
 40
0.0
 40
0.0
 40
0.3070706355
 40
0.5849787224
 40
0.81363115
 40
1.0
 40
1.0
 40
1.0
 40
1.0
 10
42.3109439082
 20
30.0034924668
 30
0.0
 10
42.3013257733
 20
30.0201514726
 30
0.0
 10
42.286443404
 20
30.054052645
 30
0.0
 10
42.2773764411
 20
30.1047575528
 30
0.0
 10
42.283472795
 20
30.1488923186
 30
0.0
 10
42.3008331991
 20
30.1708611981
 30
0.0
 10
42.3109439082
 20
30.1766987856
 30
0.0
  0
SPLINE
  5
4E5
100
AcDbEntity
  8
0
100
AcDbSpline
 62
7
  6
BYLAYER
 70
0
 71
3
 72
11
 73
7
 74
0
 42
0.0000001
 43
0.0000001
 44
0.0000000001
 40
0.0
 40
0.0
 40
0.0
 40
0.0
 40
0.1863673369
 40
0.4150179814
 40
0.6929276535
 40
1.0
 40
1.0
 40
1.0
 40
1.0
 10
42.5144981463
 20
29.4777218228
 30
0.0
 10
42.5246087763
 20
29.4835593646
 30
0.0
 10
42.541969297
 20
29.5055278493
 30
0.0
 10
42.5480656024
 20
29.5496626107
 30
0.0
 10
42.5389986381
 20
29.6003675828
 30
0.0
 10
42.5241163376
 20
29.6342690379
 30
0.0
 10
42.5144981463
 20
29.6509281416
 30
0.0
  0
SPLINE
  5
4E6
100
AcDbEntity
  8
0
100
AcDbSpline
 62
7
  6
BYLAYER
 70
0
 71
3
 72
11
 73
7
 74
0
 42
0.0000001
 43
0.0000001
 44
0.0000000001
 40
0.0
 40
0.0
 40
0.0
 40
0.0
 40
0.3070706355
 40
0.5849787224
 40
0.81363115
 40
1.0
 40
1.0
 40
1.0
 40
1.0
 10
42.3109439082
 20
29.1869900497
 30
0.0
 10
42.3013257733
 20
29.2036490555
 30
0.0
 10
42.286443404
 20
29.2375502278
 30
0.0
 10
42.2773764411
 20
29.2882551356
 30
0.0
 10
42.283472795
 20
29.3323899015
 30
0.0
 10
42.3008331991
 20
29.354358781
 30
0.0
 10
42.3109439082
 20
29.3601963685
 30
0.0
  0
SPLINE
  5
4E7
100
AcDbEntity
  8
0
100
AcDbSpline
 62
7
  6
BYLAYER
 70
0
 71
3
 72
11
 73
7
 74
0
 42
0.0000001
 43
0.0000001
 44
0.0000000001
 40
0.0
 40
0.0
 40
0.0
 40
0.0
 40
0.1863673369
 40
0.4150179814
 40
0.6929276535
 40
1.0
 40
1.0
 40
1.0
 40
1.0
 10
42.5144981463
 20
28.6612194056
 30
0.0
 10
42.5246087763
 20
28.6670569475
 30
0.0
 10
42.541969297
 20
28.6890254322
 30
0.0
 10
42.5480656024
 20
28.7331601936
 30
0.0
 10
42.5389986381
 20
28.7838651656
 30
0.0
 10
42.5241163376
 20
28.8177666208
 30
0.0
 10
42.5144981463
 20
28.8344257244
 30
0.0
  0
SPLINE
  5
4E8
100
AcDbEntity
  8
0
100
AcDbSpline
 62
7
  6
BYLAYER
 70
0
 71
3
 72
11
 73
7
 74
0
 42
0.0000001
 43
0.0000001
 44
0.0000000001
 40
0.0
 40
0.0
 40
0.0
 40
0.0
 40
0.1863673369
 40
0.4150179814
 40
0.6929276535
 40
1.0
 40
1.0
 40
1.0
 40
1.0
 10
42.5144981463
 20
53.1562919195
 30
0.0
 10
42.5246087763
 20
53.1621294614
 30
0.0
 10
42.541969297
 20
53.184097946
 30
0.0
 10
42.5480656024
 20
53.2282327075
 30
0.0
 10
42.5389986381
 20
53.2789376795
 30
0.0
 10
42.5241163376
 20
53.3128391347
 30
0.0
 10
42.5144981463
 20
53.3294982383
 30
0.0
  0
SPLINE
  5
4E9
100
AcDbEntity
  8
0
100
AcDbSpline
 62
7
  6
BYLAYER
 70
0
 71
3
 72
11
 73
7
 74
0
 42
0.0000001
 43
0.0000001
 44
0.0000000001
 40
0.0
 40
0.0
 40
0.0
 40
0.0
 40
0.3070706355
 40
0.5849787224
 40
0.81363115
 40
1.0
 40
1.0
 40
1.0
 40
1.0
 10
42.3109439082
 20
28.3704876326
 30
0.0
 10
42.3013257733
 20
28.3871466384
 30
0.0
 10
42.286443404
 20
28.4210478107
 30
0.0
 10
42.2773764411
 20
28.4717527185
 30
0.0
 10
42.283472795
 20
28.5158874844
 30
0.0
 10
42.3008331991
 20
28.5378563638
 30
0.0
 10
42.3109439082
 20
28.5436939514
 30
0.0
  0
SPLINE
  5
4EA
100
AcDbEntity
  8
0
100
AcDbSpline
 62
7
  6
BYLAYER
 70
0
 71
3
 72
11
 73
7
 74
0
 42
0.0000001
 43
0.0000001
 44
0.0000000001
 40
0.0
 40
0.0
 40
0.0
 40
0.0
 40
0.1863673369
 40
0.4150179814
 40
0.6929276535
 40
1.0
 40
1.0
 40
1.0
 40
1.0
 10
42.5144981463
 20
27.8447169885
 30
0.0
 10
42.5246087763
 20
27.8505545304
 30
0.0
 10
42.541969297
 20
27.872523015
 30
0.0
 10
42.5480656024
 20
27.9166577764
 30
0.0
 10
42.5389986381
 20
27.9673627485
 30
0.0
 10
42.5241163376
 20
28.0012642037
 30
0.0
 10
42.5144981463
 20
28.0179233073
 30
0.0
  0
SPLINE
  5
4EB
100
AcDbEntity
  8
0
100
AcDbSpline
 62
7
  6
BYLAYER
 70
0
 71
3
 72
11
 73
7
 74
0
 42
0.0000001
 43
0.0000001
 44
0.0000000001
 40
0.0
 40
0.0
 40
0.0
 40
0.0
 40
0.3070706355
 40
0.5849787224
 40
0.81363115
 40
1.0
 40
1.0
 40
1.0
 40
1.0
 10
42.3109439082
 20
59.3975794835
 30
0.0
 10
42.3013257733
 20
59.4142384893
 30
0.0
 10
42.286443404
 20
59.4481396616
 30
0.0
 10
42.2773764411
 20
59.4988445694
 30
0.0
 10
42.283472795
 20
59.5429793353
 30
0.0
 10
42.3008331991
 20
59.5649482148
 30
0.0
 10
42.3109439082
 20
59.5707858023
 30
0.0
  0
SPLINE
  5
4EC
100
AcDbEntity
  8
0
100
AcDbSpline
 62
7
  6
BYLAYER
 70
0
 71
3
 72
11
 73
7
 74
0
 42
0.0000001
 43
0.0000001
 44
0.0000000001
 40
0.0
 40
0.0
 40
0.0
 40
0.0
 40
0.3070706355
 40
0.5849787224
 40
0.81363115
 40
1.0
 40
1.0
 40
1.0
 40
1.0
 10
42.3109439082
 20
27.5539852154
 30
0.0
 10
42.3013257733
 20
27.5706442212
 30
0.0
 10
42.286443404
 20
27.6045453936
 30
0.0
 10
42.2773764411
 20
27.6552503014
 30
0.0
 10
42.283472795
 20
27.6993850672
 30
0.0
 10
42.3008331991
 20
27.7213539467
 30
0.0
 10
42.3109439082
 20
27.7271915342
 30
0.0
  0
SPLINE
  5
4ED
100
AcDbEntity
  8
0
100
AcDbSpline
 62
7
  6
BYLAYER
 70
0
 71
3
 72
11
 73
7
 74
0
 42
0.0000001
 43
0.0000001
 44
0.0000000001
 40
0.0
 40
0.0
 40
0.0
 40
0.0
 40
0.1863673369
 40
0.4150179814
 40
0.6929276535
 40
1.0
 40
1.0
 40
1.0
 40
1.0
 10
42.5144981463
 20
27.0282145714
 30
0.0
 10
42.5246087763
 20
27.0340521133
 30
0.0
 10
42.541969297
 20
27.0560205979
 30
0.0
 10
42.5480656024
 20
27.1001553593
 30
0.0
 10
42.5389986381
 20
27.1508603314
 30
0.0
 10
42.5241163376
 20
27.1847617865
 30
0.0
 10
42.5144981463
 20
27.2014208902
 30
0.0
  0
SPLINE
  5
4EE
100
AcDbEntity
  8
0
100
AcDbSpline
 62
7
  6
BYLAYER
 70
0
 71
3
 72
11
 73
7
 74
0
 42
0.0000001
 43
0.0000001
 44
0.0000000001
 40
0.0
 40
0.0
 40
0.0
 40
0.0
 40
0.3070706355
 40
0.5849787224
 40
0.81363115
 40
1.0
 40
1.0
 40
1.0
 40
1.0
 10
42.3109439082
 20
52.8655601464
 30
0.0
 10
42.3013257733
 20
52.8822191523
 30
0.0
 10
42.286443404
 20
52.9161203246
 30
0.0
 10
42.2773764411
 20
52.9668252324
 30
0.0
 10
42.283472795
 20
53.0109599983
 30
0.0
 10
42.3008331991
 20
53.0329288777
 30
0.0
 10
42.3109439082
 20
53.0387664653
 30
0.0
  0
SPLINE
  5
4EF
100
AcDbEntity
  8
0
100
AcDbSpline
 62
7
  6
BYLAYER
 70
0
 71
3
 72
11
 73
7
 74
0
 42
0.0000001
 43
0.0000001
 44
0.0000000001
 40
0.0
 40
0.0
 40
0.0
 40
0.0
 40
0.3070706355
 40
0.5849787224
 40
0.81363115
 40
1.0
 40
1.0
 40
1.0
 40
1.0
 10
42.3109439082
 20
26.7374827983
 30
0.0
 10
42.3013257733
 20
26.7541418041
 30
0.0
 10
42.286443404
 20
26.7880429765
 30
0.0
 10
42.2773764411
 20
26.8387478842
 30
0.0
 10
42.283472795
 20
26.8828826501
 30
0.0
 10
42.3008331991
 20
26.9048515296
 30
0.0
 10
42.3109439082
 20
26.9106891171
 30
0.0
  0
SPLINE
  5
4F0
100
AcDbEntity
  8
0
100
AcDbSpline
 62
7
  6
BYLAYER
 70
0
 71
3
 72
11
 73
7
 74
0
 42
0.0000001
 43
0.0000001
 44
0.0000000001
 40
0.0
 40
0.0
 40
0.0
 40
0.0
 40
0.1863673369
 40
0.4150179814
 40
0.6929276535
 40
1.0
 40
1.0
 40
1.0
 40
1.0
 10
42.5144981463
 20
26.2117121542
 30
0.0
 10
42.5246087763
 20
26.2175496961
 30
0.0
 10
42.541969297
 20
26.2395181808
 30
0.0
 10
42.5480656024
 20
26.2836529422
 30
0.0
 10
42.5389986381
 20
26.3343579142
 30
0.0
 10
42.5241163376
 20
26.3682593694
 30
0.0
 10
42.5144981463
 20
26.384918473
 30
0.0
  0
SPLINE
  5
4F1
100
AcDbEntity
  8
0
100
AcDbSpline
 62
7
  6
BYLAYER
 70
0
 71
3
 72
11
 73
7
 74
0
 42
0.0000001
 43
0.0000001
 44
0.0000000001
 40
0.0
 40
0.0
 40
0.0
 40
0.0
 40
0.3070706355
 40
0.5849787224
 40
0.81363115
 40
1.0
 40
1.0
 40
1.0
 40
1.0
 10
42.3109439082
 20
25.9209803812
 30
0.0
 10
42.3013257733
 20
25.937639387
 30
0.0
 10
42.286443404
 20
25.9715405593
 30
0.0
 10
42.2773764411
 20
26.0222454671
 30
0.0
 10
42.283472795
 20
26.066380233
 30
0.0
 10
42.3008331991
 20
26.0883491124
 30
0.0
 10
42.3109439082
 20
26.0941867
 30
0.0
  0
SPLINE
  5
4F2
100
AcDbEntity
  8
0
100
AcDbSpline
 62
7
  6
BYLAYER
 70
0
 71
3
 72
11
 73
7
 74
0
 42
0.0000001
 43
0.0000001
 44
0.0000000001
 40
0.0
 40
0.0
 40
0.0
 40
0.0
 40
0.1863673369
 40
0.4150179814
 40
0.6929276535
 40
1.0
 40
1.0
 40
1.0
 40
1.0
 10
42.5144981463
 20
25.3952097371
 30
0.0
 10
42.5246087763
 20
25.401047279
 30
0.0
 10
42.541969297
 20
25.4230157636
 30
0.0
 10
42.5480656024
 20
25.467150525
 30
0.0
 10
42.5389986381
 20
25.5178554971
 30
0.0
 10
42.5241163376
 20
25.5517569523
 30
0.0
 10
42.5144981463
 20
25.5684160559
 30
0.0
  0
SPLINE
  5
4F3
100
AcDbEntity
  8
0
100
AcDbSpline
 62
7
  6
BYLAYER
 70
0
 71
3
 72
11
 73
7
 74
0
 42
0.0000001
 43
0.0000001
 44
0.0000000001
 40
0.0
 40
0.0
 40
0.0
 40
0.0
 40
0.1863673369
 40
0.4150179814
 40
0.6929276535
 40
1.0
 40
1.0
 40
1.0
 40
1.0
 10
42.5144981463
 20
52.3397895024
 30
0.0
 10
42.5246087763
 20
52.3456270443
 30
0.0
 10
42.541969297
 20
52.3675955289
 30
0.0
 10
42.5480656024
 20
52.4117302903
 30
0.0
 10
42.5389986381
 20
52.4624352624
 30
0.0
 10
42.5241163376
 20
52.4963367176
 30
0.0
 10
42.5144981463
 20
52.5129958212
 30
0.0
  0
SPLINE
  5
4F4
100
AcDbEntity
  8
0
100
AcDbSpline
 62
7
  6
BYLAYER
 70
0
 71
3
 72
11
 73
7
 74
0
 42
0.0000001
 43
0.0000001
 44
0.0000000001
 40
0.0
 40
0.0
 40
0.0
 40
0.0
 40
0.3070706355
 40
0.5849787224
 40
0.81363115
 40
1.0
 40
1.0
 40
1.0
 40
1.0
 10
42.3109439082
 20
25.104477964
 30
0.0
 10
42.3013257733
 20
25.1211369699
 30
0.0
 10
42.286443404
 20
25.1550381422
 30
0.0
 10
42.2773764411
 20
25.20574305
 30
0.0
 10
42.283472795
 20
25.2498778159
 30
0.0
 10
42.3008331991
 20
25.2718466953
 30
0.0
 10
42.3109439082
 20
25.2776842828
 30
0.0
  0
SPLINE
  5
4F5
100
AcDbEntity
  8
0
100
AcDbSpline
 62
7
  6
BYLAYER
 70
0
 71
3
 72
11
 73
7
 74
0
 42
0.0000001
 43
0.0000001
 44
0.0000000001
 40
0.0
 40
0.0
 40
0.0
 40
0.0
 40
0.1863673369
 40
0.4150179814
 40
0.6929276535
 40
1.0
 40
1.0
 40
1.0
 40
1.0
 10
42.5144981463
 20
24.57870732
 30
0.0
 10
42.5246087763
 20
24.5845448619
 30
0.0
 10
42.541969297
 20
24.6065133465
 30
0.0
 10
42.5480656024
 20
24.6506481079
 30
0.0
 10
42.5389986381
 20
24.70135308
 30
0.0
 10
42.5241163376
 20
24.7352545352
 30
0.0
 10
42.5144981463
 20
24.7519136388
 30
0.0
  0
SPLINE
  5
4F6
100
AcDbEntity
  8
0
100
AcDbSpline
 62
7
  6
BYLAYER
 70
0
 71
3
 72
11
 73
7
 74
0
 42
0.0000001
 43
0.0000001
 44
0.0000000001
 40
0.0
 40
0.0
 40
0.0
 40
0.0
 40
0.3070706355
 40
0.5849787224
 40
0.81363115
 40
1.0
 40
1.0
 40
1.0
 40
1.0
 10
42.3109439082
 20
24.2879755469
 30
0.0
 10
42.3013257733
 20
24.3046345527
 30
0.0
 10
42.286443404
 20
24.3385357251
 30
0.0
 10
42.2773764411
 20
24.3892406328
 30
0.0
 10
42.283472795
 20
24.4333753987
 30
0.0
 10
42.3008331991
 20
24.4553442782
 30
0.0
 10
42.3109439082
 20
24.4611818657
 30
0.0
  0
SPLINE
  5
4F7
100
AcDbEntity
  8
0
100
AcDbSpline
 62
7
  6
BYLAYER
 70
0
 71
3
 72
11
 73
7
 74
0
 42
0.0000001
 43
0.0000001
 44
0.0000000001
 40
0.0
 40
0.0
 40
0.0
 40
0.0
 40
0.1863673369
 40
0.4150179814
 40
0.6929276535
 40
1.0
 40
1.0
 40
1.0
 40
1.0
 10
42.5144981463
 20
23.7622049029
 30
0.0
 10
42.5246087763
 20
23.7680424447
 30
0.0
 10
42.541969297
 20
23.7900109294
 30
0.0
 10
42.5480656024
 20
23.8341456908
 30
0.0
 10
42.5389986381
 20
23.8848506628
 30
0.0
 10
42.5241163376
 20
23.918752118
 30
0.0
 10
42.5144981463
 20
23.9354112217
 30
0.0
  0
SPLINE
  5
4F8
100
AcDbEntity
  8
0
100
AcDbSpline
 62
7
  6
BYLAYER
 70
0
 71
3
 72
11
 73
7
 74
0
 42
0.0000001
 43
0.0000001
 44
0.0000000001
 40
0.0
 40
0.0
 40
0.0
 40
0.0
 40
0.3070706355
 40
0.5849787224
 40
0.81363115
 40
1.0
 40
1.0
 40
1.0
 40
1.0
 10
42.3109439082
 20
52.0490577293
 30
0.0
 10
42.3013257733
 20
52.0657167351
 30
0.0
 10
42.286443404
 20
52.0996179075
 30
0.0
 10
42.2773764411
 20
52.1503228153
 30
0.0
 10
42.283472795
 20
52.1944575811
 30
0.0
 10
42.3008331991
 20
52.2164264606
 30
0.0
 10
42.3109439082
 20
52.2222640481
 30
0.0
  0
SPLINE
  5
4F9
100
AcDbEntity
  8
0
100
AcDbSpline
 62
7
  6
BYLAYER
 70
0
 71
3
 72
11
 73
7
 74
0
 42
0.0000001
 43
0.0000001
 44
0.0000000001
 40
0.0
 40
0.0
 40
0.0
 40
0.0
 40
0.3070706355
 40
0.5849787224
 40
0.81363115
 40
1.0
 40
1.0
 40
1.0
 40
1.0
 10
42.3109439082
 20
23.4714731298
 30
0.0
 10
42.3013257733
 20
23.4881321356
 30
0.0
 10
42.286443404
 20
23.5220333079
 30
0.0
 10
42.2773764411
 20
23.5727382157
 30
0.0
 10
42.283472795
 20
23.6168729816
 30
0.0
 10
42.3008331991
 20
23.6388418611
 30
0.0
 10
42.3109439082
 20
23.6446794486
 30
0.0
  0
SPLINE
  5
4FA
100
AcDbEntity
  8
0
100
AcDbSpline
 62
7
  6
BYLAYER
 70
0
 71
3
 72
11
 73
7
 74
0
 42
0.0000001
 43
0.0000001
 44
0.0000000001
 40
0.0
 40
0.0
 40
0.0
 40
0.0
 40
0.1863673369
 40
0.4150179814
 40
0.6929276535
 40
1.0
 40
1.0
 40
1.0
 40
1.0
 10
42.5144981463
 20
22.9457024857
 30
0.0
 10
42.5246087763
 20
22.9515400276
 30
0.0
 10
42.541969297
 20
22.9735085123
 30
0.0
 10
42.5480656024
 20
23.0176432737
 30
0.0
 10
42.5389986381
 20
23.0683482457
 30
0.0
 10
42.5241163376
 20
23.1022497009
 30
0.0
 10
42.5144981463
 20
23.1189088045
 30
0.0
  0
SPLINE
  5
4FB
100
AcDbEntity
  8
0
100
AcDbSpline
 62
7
  6
BYLAYER
 70
0
 71
3
 72
11
 73
7
 74
0
 42
0.0000001
 43
0.0000001
 44
0.0000000001
 40
0.0
 40
0.0
 40
0.0
 40
0.0
 40
0.3070706355
 40
0.5849787224
 40
0.81363115
 40
1.0
 40
1.0
 40
1.0
 40
1.0
 10
42.3109439082
 20
22.6549707127
 30
0.0
 10
42.3013257733
 20
22.6716297185
 30
0.0
 10
42.286443404
 20
22.7055308908
 30
0.0
 10
42.2773764411
 20
22.7562357986
 30
0.0
 10
42.283472795
 20
22.8003705645
 30
0.0
 10
42.3008331991
 20
22.8223394439
 30
0.0
 10
42.3109439082
 20
22.8281770315
 30
0.0
  0
SPLINE
  5
4FC
100
AcDbEntity
  8
0
100
AcDbSpline
 62
7
  6
BYLAYER
 70
0
 71
3
 72
11
 73
7
 74
0
 42
0.0000001
 43
0.0000001
 44
0.0000000001
 40
0.0
 40
0.0
 40
0.0
 40
0.0
 40
0.1863673369
 40
0.4150179814
 40
0.6929276535
 40
1.0
 40
1.0
 40
1.0
 40
1.0
 10
42.5144981463
 20
22.1292000686
 30
0.0
 10
42.5246087763
 20
22.1350376105
 30
0.0
 10
42.541969297
 20
22.1570060951
 30
0.0
 10
42.5480656024
 20
22.2011408565
 30
0.0
 10
42.5389986381
 20
22.2518458286
 30
0.0
 10
42.5241163376
 20
22.2857472838
 30
0.0
 10
42.5144981463
 20
22.3024063874
 30
0.0
  0
SPLINE
  5
4FD
100
AcDbEntity
  8
0
100
AcDbSpline
 62
7
  6
BYLAYER
 70
0
 71
3
 72
11
 73
7
 74
0
 42
0.0000001
 43
0.0000001
 44
0.0000000001
 40
0.0
 40
0.0
 40
0.0
 40
0.0
 40
0.1863673369
 40
0.4150179814
 40
0.6929276535
 40
1.0
 40
1.0
 40
1.0
 40
1.0
 10
42.5144981463
 20
51.5232870853
 30
0.0
 10
42.5246087763
 20
51.5291246271
 30
0.0
 10
42.541969297
 20
51.5510931118
 30
0.0
 10
42.5480656024
 20
51.5952278732
 30
0.0
 10
42.5389986381
 20
51.6459328453
 30
0.0
 10
42.5241163376
 20
51.6798343004
 30
0.0
 10
42.5144981463
 20
51.6964934041
 30
0.0
  0
SPLINE
  5
4FE
100
AcDbEntity
  8
0
100
AcDbSpline
 62
7
  6
BYLAYER
 70
0
 71
3
 72
11
 73
7
 74
0
 42
0.0000001
 43
0.0000001
 44
0.0000000001
 40
0.0
 40
0.0
 40
0.0
 40
0.0
 40
0.3070706355
 40
0.5849787224
 40
0.81363115
 40
1.0
 40
1.0
 40
1.0
 40
1.0
 10
42.3109439082
 20
21.8384682955
 30
0.0
 10
42.3013257733
 20
21.8551273013
 30
0.0
 10
42.286443404
 20
21.8890284737
 30
0.0
 10
42.2773764411
 20
21.9397333815
 30
0.0
 10
42.283472795
 20
21.9838681473
 30
0.0
 10
42.3008331991
 20
22.0058370268
 30
0.0
 10
42.3109439082
 20
22.0116746143
 30
0.0
  0
SPLINE
  5
4FF
100
AcDbEntity
  8
0
100
AcDbSpline
 62
7
  6
BYLAYER
 70
0
 71
3
 72
11
 73
7
 74
0
 42
0.0000001
 43
0.0000001
 44
0.0000000001
 40
0.0
 40
0.0
 40
0.0
 40
0.0
 40
0.1863673369
 40
0.4150179814
 40
0.6929276535
 40
1.0
 40
1.0
 40
1.0
 40
1.0
 10
42.5144981463
 20
21.3126976515
 30
0.0
 10
42.5246087763
 20
21.3185351933
 30
0.0
 10
42.541969297
 20
21.340503678
 30
0.0
 10
42.5480656024
 20
21.3846384394
 30
0.0
 10
42.5389986381
 20
21.4353434115
 30
0.0
 10
42.5241163376
 20
21.4692448666
 30
0.0
 10
42.5144981463
 20
21.4859039703
 30
0.0
  0
SPLINE
  5
500
100
AcDbEntity
  8
0
100
AcDbSpline
 62
7
  6
BYLAYER
 70
0
 71
3
 72
11
 73
7
 74
0
 42
0.0000001
 43
0.0000001
 44
0.0000000001
 40
0.0
 40
0.0
 40
0.0
 40
0.0
 40
0.1863673369
 40
0.4150179814
 40
0.6929276535
 40
1.0
 40
1.0
 40
1.0
 40
1.0
 10
42.5144981463
 20
58.8718088394
 30
0.0
 10
42.5246087763
 20
58.8776463813
 30
0.0
 10
42.541969297
 20
58.899614866
 30
0.0
 10
42.5480656024
 20
58.9437496274
 30
0.0
 10
42.5389986381
 20
58.9944545994
 30
0.0
 10
42.5241163376
 20
59.0283560546
 30
0.0
 10
42.5144981463
 20
59.0450151582
 30
0.0
  0
SPLINE
  5
501
100
AcDbEntity
  8
0
100
AcDbSpline
 62
7
  6
BYLAYER
 70
0
 71
3
 72
11
 73
7
 74
0
 42
0.0000001
 43
0.0000001
 44
0.0000000001
 40
0.0
 40
0.0
 40
0.0
 40
0.0
 40
0.3070706355
 40
0.5849787224
 40
0.81363115
 40
1.0
 40
1.0
 40
1.0
 40
1.0
 10
42.3109439082
 20
21.0219658784
 30
0.0
 10
42.3013257733
 20
21.0386248842
 30
0.0
 10
42.286443404
 20
21.0725260566
 30
0.0
 10
42.2773764411
 20
21.1232309643
 30
0.0
 10
42.283472795
 20
21.1673657302
 30
0.0
 10
42.3008331991
 20
21.1893346097
 30
0.0
 10
42.3109439082
 20
21.1951721972
 30
0.0
  0
SPLINE
  5
502
100
AcDbEntity
  8
0
100
AcDbSpline
 62
7
  6
BYLAYER
 70
0
 71
3
 72
11
 73
7
 74
0
 42
0.0000001
 43
0.0000001
 44
0.0000000001
 40
0.0
 40
0.0
 40
0.0
 40
0.0
 40
0.1863673369
 40
0.4150179814
 40
0.6929276535
 40
1.0
 40
1.0
 40
1.0
 40
1.0
 10
42.5144981463
 20
20.4961952343
 30
0.0
 10
42.5246087763
 20
20.5020327762
 30
0.0
 10
42.541969297
 20
20.5240012609
 30
0.0
 10
42.5480656024
 20
20.5681360223
 30
0.0
 10
42.5389986381
 20
20.6188409943
 30
0.0
 10
42.5241163376
 20
20.6527424495
 30
0.0
 10
42.5144981463
 20
20.6694015531
 30
0.0
  0
SPLINE
  5
503
100
AcDbEntity
  8
0
100
AcDbSpline
 62
7
  6
BYLAYER
 70
0
 71
3
 72
11
 73
7
 74
0
 42
0.0000001
 43
0.0000001
 44
0.0000000001
 40
0.0
 40
0.0
 40
0.0
 40
0.0
 40
0.3070706355
 40
0.5849787224
 40
0.81363115
 40
1.0
 40
1.0
 40
1.0
 40
1.0
 10
42.3109439082
 20
51.2325553122
 30
0.0
 10
42.3013257733
 20
51.249214318
 30
0.0
 10
42.286443404
 20
51.2831154903
 30
0.0
 10
42.2773764411
 20
51.3338203981
 30
0.0
 10
42.283472795
 20
51.377955164
 30
0.0
 10
42.3008331991
 20
51.3999240435
 30
0.0
 10
42.3109439082
 20
51.405761631
 30
0.0
  0
SPLINE
  5
504
100
AcDbEntity
  8
0
100
AcDbSpline
 62
7
  6
BYLAYER
 70
0
 71
3
 72
11
 73
7
 74
0
 42
0.0000001
 43
0.0000001
 44
0.0000000001
 40
0.0
 40
0.0
 40
0.0
 40
0.0
 40
0.3070706355
 40
0.5849787224
 40
0.81363115
 40
1.0
 40
1.0
 40
1.0
 40
1.0
 10
42.3109439082
 20
20.2054634613
 30
0.0
 10
42.3013257733
 20
20.2221224671
 30
0.0
 10
42.286443404
 20
20.2560236394
 30
0.0
 10
42.2773764411
 20
20.3067285472
 30
0.0
 10
42.283472795
 20
20.3508633131
 30
0.0
 10
42.3008331991
 20
20.3728321925
 30
0.0
 10
42.3109439082
 20
20.3786697801
 30
0.0
  0
SPLINE
  5
505
100
AcDbEntity
  8
0
100
AcDbSpline
 62
7
  6
BYLAYER
 70
0
 71
3
 72
11
 73
7
 74
0
 42
0.0000001
 43
0.0000001
 44
0.0000000001
 40
0.0
 40
0.0
 40
0.0
 40
0.0
 40
0.1863673369
 40
0.4150179814
 40
0.6929276535
 40
1.0
 40
1.0
 40
1.0
 40
1.0
 10
42.5144981463
 20
19.6796928172
 30
0.0
 10
42.5246087763
 20
19.6855303591
 30
0.0
 10
42.541969297
 20
19.7074988437
 30
0.0
 10
42.5480656024
 20
19.7516336051
 30
0.0
 10
42.5389986381
 20
19.8023385772
 30
0.0
 10
42.5241163376
 20
19.8362400324
 30
0.0
 10
42.5144981463
 20
19.852899136
 30
0.0
  0
SPLINE
  5
506
100
AcDbEntity
  8
0
100
AcDbSpline
 62
7
  6
BYLAYER
 70
0
 71
3
 72
11
 73
7
 74
0
 42
0.0000001
 43
0.0000001
 44
0.0000000001
 40
0.0
 40
0.0
 40
0.0
 40
0.0
 40
0.3070706355
 40
0.5849787224
 40
0.81363115
 40
1.0
 40
1.0
 40
1.0
 40
1.0
 10
42.3109439082
 20
19.3889610441
 30
0.0
 10
42.3013257733
 20
19.4056200499
 30
0.0
 10
42.286443404
 20
19.4395212223
 30
0.0
 10
42.2773764411
 20
19.4902261301
 30
0.0
 10
42.283472795
 20
19.534360896
 30
0.0
 10
42.3008331991
 20
19.5563297754
 30
0.0
 10
42.3109439082
 20
19.5621673629
 30
0.0
  0
SPLINE
  5
507
100
AcDbEntity
  8
0
100
AcDbSpline
 62
7
  6
BYLAYER
 70
0
 71
3
 72
11
 73
7
 74
0
 42
0.0000001
 43
0.0000001
 44
0.0000000001
 40
0.0
 40
0.0
 40
0.0
 40
0.0
 40
0.1863673369
 40
0.4150179814
 40
0.6929276535
 40
1.0
 40
1.0
 40
1.0
 40
1.0
 10
42.5144981463
 20
18.8631904001
 30
0.0
 10
42.5246087763
 20
18.869027942
 30
0.0
 10
42.541969297
 20
18.8909964266
 30
0.0
 10
42.5480656024
 20
18.935131188
 30
0.0
 10
42.5389986381
 20
18.9858361601
 30
0.0
 10
42.5241163376
 20
19.0197376153
 30
0.0
 10
42.5144981463
 20
19.0363967189
 30
0.0
  0
SPLINE
  5
508
100
AcDbEntity
  8
0
100
AcDbSpline
 62
7
  6
BYLAYER
 70
0
 71
3
 72
11
 73
7
 74
0
 42
0.0000001
 43
0.0000001
 44
0.0000000001
 40
0.0
 40
0.0
 40
0.0
 40
0.0
 40
0.1863673369
 40
0.4150179814
 40
0.6929276535
 40
1.0
 40
1.0
 40
1.0
 40
1.0
 10
42.5144981463
 20
50.7067846681
 30
0.0
 10
42.5246087763
 20
50.71262221
 30
0.0
 10
42.541969297
 20
50.7345906947
 30
0.0
 10
42.5480656024
 20
50.7787254561
 30
0.0
 10
42.5389986381
 20
50.8294304281
 30
0.0
 10
42.5241163376
 20
50.8633318833
 30
0.0
 10
42.5144981463
 20
50.8799909869
 30
0.0
  0
SPLINE
  5
509
100
AcDbEntity
  8
0
100
AcDbSpline
 62
7
  6
BYLAYER
 70
0
 71
3
 72
11
 73
7
 74
0
 42
0.0000001
 43
0.0000001
 44
0.0000000001
 40
0.0
 40
0.0
 40
0.0
 40
0.0
 40
0.3070706355
 40
0.5849787224
 40
0.81363115
 40
1.0
 40
1.0
 40
1.0
 40
1.0
 10
42.3109439082
 20
18.572458627
 30
0.0
 10
42.3013257733
 20
18.5891176328
 30
0.0
 10
42.286443404
 20
18.6230188052
 30
0.0
 10
42.2773764411
 20
18.6737237129
 30
0.0
 10
42.283472795
 20
18.7178584788
 30
0.0
 10
42.3008331991
 20
18.7398273583
 30
0.0
 10
42.3109439082
 20
18.7456649458
 30
0.0
  0
SPLINE
  5
50A
100
AcDbEntity
  8
0
100
AcDbSpline
 62
7
  6
BYLAYER
 70
0
 71
3
 72
11
 73
7
 74
0
 42
0.0000001
 43
0.0000001
 44
0.0000000001
 40
0.0
 40
0.0
 40
0.0
 40
0.0
 40
0.1863673369
 40
0.4150179814
 40
0.6929276535
 40
1.0
 40
1.0
 40
1.0
 40
1.0
 10
42.5144981463
 20
18.0466879829
 30
0.0
 10
42.5246087763
 20
18.0525255248
 30
0.0
 10
42.541969297
 20
18.0744940095
 30
0.0
 10
42.5480656024
 20
18.1186287709
 30
0.0
 10
42.5389986381
 20
18.1693337429
 30
0.0
 10
42.5241163376
 20
18.2032351981
 30
0.0
 10
42.5144981463
 20
18.2198943017
 30
0.0
  0
SPLINE
  5
50B
100
AcDbEntity
  8
0
100
AcDbSpline
 62
7
  6
BYLAYER
 70
0
 71
3
 72
11
 73
7
 74
0
 42
0.0000001
 43
0.0000001
 44
0.0000000001
 40
0.0
 40
0.0
 40
0.0
 40
0.0
 40
0.3070706355
 40
0.5849787224
 40
0.81363115
 40
1.0
 40
1.0
 40
1.0
 40
1.0
 10
42.3109439082
 20
17.7559562099
 30
0.0
 10
42.3013257733
 20
17.7726152157
 30
0.0
 10
42.286443404
 20
17.806516388
 30
0.0
 10
42.2773764411
 20
17.8572212958
 30
0.0
 10
42.283472795
 20
17.9013560617
 30
0.0
 10
42.3008331991
 20
17.9233249412
 30
0.0
 10
42.3109439082
 20
17.9291625287
 30
0.0
  0
SPLINE
  5
50C
100
AcDbEntity
  8
0
100
AcDbSpline
 62
7
  6
BYLAYER
 70
0
 71
3
 72
11
 73
7
 74
0
 42
0.0000001
 43
0.0000001
 44
0.0000000001
 40
0.0
 40
0.0
 40
0.0
 40
0.0
 40
0.1863673369
 40
0.4150179814
 40
0.6929276535
 40
1.0
 40
1.0
 40
1.0
 40
1.0
 10
42.5144981463
 20
17.2301855658
 30
0.0
 10
42.5246087763
 20
17.2360231077
 30
0.0
 10
42.541969297
 20
17.2579915923
 30
0.0
 10
42.5480656024
 20
17.3021263538
 30
0.0
 10
42.5389986381
 20
17.3528313258
 30
0.0
 10
42.5241163376
 20
17.386732781
 30
0.0
 10
42.5144981463
 20
17.4033918846
 30
0.0
  0
SPLINE
  5
50D
100
AcDbEntity
  8
0
100
AcDbSpline
 62
7
  6
BYLAYER
 70
0
 71
3
 72
11
 73
7
 74
0
 42
0.0000001
 43
0.0000001
 44
0.0000000001
 40
0.0
 40
0.0
 40
0.0
 40
0.0
 40
0.3070706355
 40
0.5849787224
 40
0.81363115
 40
1.0
 40
1.0
 40
1.0
 40
1.0
 10
42.3109439082
 20
50.4160528951
 30
0.0
 10
42.3013257733
 20
50.4327119009
 30
0.0
 10
42.286443404
 20
50.4666130732
 30
0.0
 10
42.2773764411
 20
50.517317981
 30
0.0
 10
42.283472795
 20
50.5614527469
 30
0.0
 10
42.3008331991
 20
50.5834216263
 30
0.0
 10
42.3109439082
 20
50.5892592139
 30
0.0
  0
SPLINE
  5
50E
100
AcDbEntity
  8
0
100
AcDbSpline
 62
7
  6
BYLAYER
 70
0
 71
3
 72
11
 73
7
 74
0
 42
0.0000001
 43
0.0000001
 44
0.0000000001
 40
0.0
 40
0.0
 40
0.0
 40
0.0
 40
0.3070706355
 40
0.5849787224
 40
0.81363115
 40
1.0
 40
1.0
 40
1.0
 40
1.0
 10
42.3109439082
 20
16.9394537927
 30
0.0
 10
42.3013257733
 20
16.9561127986
 30
0.0
 10
42.286443404
 20
16.9900139709
 30
0.0
 10
42.2773764411
 20
17.0407188787
 30
0.0
 10
42.283472795
 20
17.0848536446
 30
0.0
 10
42.3008331991
 20
17.106822524
 30
0.0
 10
42.3109439082
 20
17.1126601115
 30
0.0
  0
SPLINE
  5
50F
100
AcDbEntity
  8
0
100
AcDbSpline
 62
7
  6
BYLAYER
 70
0
 71
3
 72
11
 73
7
 74
0
 42
0.0000001
 43
0.0000001
 44
0.0000000001
 40
0.0
 40
0.0
 40
0.0
 40
0.0
 40
0.1863673369
 40
0.4150179814
 40
0.6929276535
 40
1.0
 40
1.0
 40
1.0
 40
1.0
 10
42.5144981463
 20
16.4136831487
 30
0.0
 10
42.5246087763
 20
16.4195206906
 30
0.0
 10
42.541969297
 20
16.4414891752
 30
0.0
 10
42.5480656024
 20
16.4856239366
 30
0.0
 10
42.5389986381
 20
16.5363289087
 30
0.0
 10
42.5241163376
 20
16.5702303639
 30
0.0
 10
42.5144981463
 20
16.5868894675
 30
0.0
  0
SPLINE
  5
510
100
AcDbEntity
  8
0
100
AcDbSpline
 62
7
  6
BYLAYER
 70
0
 71
3
 72
11
 73
7
 74
0
 42
0.0000001
 43
0.0000001
 44
0.0000000001
 40
0.0
 40
0.0
 40
0.0
 40
0.0
 40
0.3070706355
 40
0.5849787224
 40
0.81363115
 40
1.0
 40
1.0
 40
1.0
 40
1.0
 10
42.3109439082
 20
16.1229513756
 30
0.0
 10
42.3013257733
 20
16.1396103814
 30
0.0
 10
42.286443404
 20
16.1735115538
 30
0.0
 10
42.2773764411
 20
16.2242164615
 30
0.0
 10
42.283472795
 20
16.2683512274
 30
0.0
 10
42.3008331991
 20
16.2903201069
 30
0.0
 10
42.3109439082
 20
16.2961576944
 30
0.0
  0
SPLINE
  5
511
100
AcDbEntity
  8
0
100
AcDbSpline
 62
7
  6
BYLAYER
 70
0
 71
3
 72
11
 73
7
 74
0
 42
0.0000001
 43
0.0000001
 44
0.0000000001
 40
0.0
 40
0.0
 40
0.0
 40
0.0
 40
0.1863673369
 40
0.4150179814
 40
0.6929276535
 40
1.0
 40
1.0
 40
1.0
 40
1.0
 10
42.5152204769
 20
15.5959296252
 30
0.0
 10
42.525331107
 20
15.601767167
 30
0.0
 10
42.5426916277
 20
15.6237356517
 30
0.0
 10
42.5487879331
 20
15.6678704131
 30
0.0
 10
42.5397209687
 20
15.7185753851
 30
0.0
 10
42.5248386683
 20
15.7524768403
 30
0.0
 10
42.5152204769
 20
15.7691359439
 30
0.0
  0
SPLINE
  5
512
100
AcDbEntity
  8
0
100
AcDbSpline
 62
7
  6
BYLAYER
 70
0
 71
3
 72
11
 73
7
 74
0
 42
0.0000001
 43
0.0000001
 44
0.0000000001
 40
0.0
 40
0.0
 40
0.0
 40
0.0
 40
0.1863673369
 40
0.4150179814
 40
0.6929276535
 40
1.0
 40
1.0
 40
1.0
 40
1.0
 10
42.5144981463
 20
49.890282251
 30
0.0
 10
42.5246087763
 20
49.8961197929
 30
0.0
 10
42.541969297
 20
49.9180882775
 30
0.0
 10
42.5480656024
 20
49.9622230389
 30
0.0
 10
42.5389986381
 20
50.012928011
 30
0.0
 10
42.5241163376
 20
50.0468294662
 30
0.0
 10
42.5144981463
 20
50.0634885698
 30
0.0
  0
SPLINE
  5
513
100
AcDbEntity
  8
0
100
AcDbSpline
 62
7
  6
BYLAYER
 70
0
 71
3
 72
11
 73
7
 74
0
 42
0.0000001
 43
0.0000001
 44
0.0000000001
 40
0.0
 40
0.0
 40
0.0
 40
0.0
 40
0.3070706355
 40
0.5849787224
 40
0.81363115
 40
1.0
 40
1.0
 40
1.0
 40
1.0
 10
42.3109439082
 20
58.5810770664
 30
0.0
 10
42.3013257733
 20
58.5977360722
 30
0.0
 10
42.286443404
 20
58.6316372445
 30
0.0
 10
42.2773764411
 20
58.6823421523
 30
0.0
 10
42.283472795
 20
58.7264769182
 30
0.0
 10
42.3008331991
 20
58.7484457976
 30
0.0
 10
42.3109439082
 20
58.7542833852
 30
0.0
  0
SPLINE
  5
514
100
AcDbEntity
  8
0
100
AcDbSpline
 62
7
  6
BYLAYER
 70
0
 71
3
 72
11
 73
7
 74
0
 42
0.0000001
 43
0.0000001
 44
0.0000000001
 40
0.0
 40
0.0
 40
0.0
 40
0.0
 40
0.3070706355
 40
0.5849787224
 40
0.81363115
 40
1.0
 40
1.0
 40
1.0
 40
1.0
 10
42.3109439082
 20
49.5995504779
 30
0.0
 10
42.3013257733
 20
49.6162094837
 30
0.0
 10
42.286443404
 20
49.6501106561
 30
0.0
 10
42.2773764411
 20
49.7008155639
 30
0.0
 10
42.283472795
 20
49.7449503297
 30
0.0
 10
42.3008331991
 20
49.7669192092
 30
0.0
 10
42.3109439082
 20
49.7727567967
 30
0.0
  0
SPLINE
  5
515
100
AcDbEntity
  8
0
100
AcDbSpline
 62
7
  6
BYLAYER
 70
0
 71
3
 72
11
 73
7
 74
0
 42
0.0000001
 43
0.0000001
 44
0.0000000001
 40
0.0
 40
0.0
 40
0.0
 40
0.0
 40
0.1863673369
 40
0.4150179814
 40
0.6929276535
 40
1.0
 40
1.0
 40
1.0
 40
1.0
 10
42.5144981463
 20
49.0737798339
 30
0.0
 10
42.5246087763
 20
49.0796173758
 30
0.0
 10
42.541969297
 20
49.1015858604
 30
0.0
 10
42.5480656024
 20
49.1457206218
 30
0.0
 10
42.5389986381
 20
49.1964255939
 30
0.0
 10
42.5241163376
 20
49.230327049
 30
0.0
 10
42.5144981463
 20
49.2469861527
 30
0.0
  0
SPLINE
  5
516
100
AcDbEntity
  8
0
100
AcDbSpline
 62
7
  6
BYLAYER
 70
0
 71
3
 72
11
 73
7
 74
0
 42
0.0000001
 43
0.0000001
 44
0.0000000001
 40
0.0
 40
0.0
 40
0.0
 40
0.0
 40
0.3070706355
 40
0.5849787224
 40
0.81363115
 40
1.0
 40
1.0
 40
1.0
 40
1.0
 10
42.3109439082
 20
48.7830480608
 30
0.0
 10
42.3013257733
 20
48.7997070666
 30
0.0
 10
42.286443404
 20
48.833608239
 30
0.0
 10
42.2773764411
 20
48.8843131467
 30
0.0
 10
42.283472795
 20
48.9284479126
 30
0.0
 10
42.3008331991
 20
48.9504167921
 30
0.0
 10
42.3109439082
 20
48.9562543796
 30
0.0
  0
SPLINE
  5
517
100
AcDbEntity
  8
0
100
AcDbSpline
 62
7
  6
BYLAYER
 70
0
 71
3
 72
11
 73
7
 74
0
 42
0.0000001
 43
0.0000001
 44
0.0000000001
 40
0.0
 40
0.0
 40
0.0
 40
0.0
 40
0.1863673369
 40
0.4150179814
 40
0.6929276535
 40
1.0
 40
1.0
 40
1.0
 40
1.0
 10
42.5144981463
 20
48.2572774167
 30
0.0
 10
42.5246087763
 20
48.2631149586
 30
0.0
 10
42.541969297
 20
48.2850834433
 30
0.0
 10
42.5480656024
 20
48.3292182047
 30
0.0
 10
42.5389986381
 20
48.3799231767
 30
0.0
 10
42.5241163376
 20
48.4138246319
 30
0.0
 10
42.5144981463
 20
48.4304837355
 30
0.0
  0
SPLINE
  5
518
100
AcDbEntity
  8
0
100
AcDbSpline
 62
7
  6
BYLAYER
 70
0
 71
3
 72
11
 73
7
 74
0
 42
0.0000001
 43
0.0000001
 44
0.0000000001
 40
0.0
 40
0.0
 40
0.0
 40
0.0
 40
0.1863673369
 40
0.4150179814
 40
0.6929276535
 40
1.0
 40
1.0
 40
1.0
 40
1.0
 10
42.5144981463
 20
58.0553064223
 30
0.0
 10
42.5246087763
 20
58.0611439642
 30
0.0
 10
42.541969297
 20
58.0831124488
 30
0.0
 10
42.5480656024
 20
58.1272472102
 30
0.0
 10
42.5389986381
 20
58.1779521823
 30
0.0
 10
42.5241163376
 20
58.2118536375
 30
0.0
 10
42.5144981463
 20
58.2285127411
 30
0.0
  0
SPLINE
  5
519
100
AcDbEntity
  8
0
100
AcDbSpline
 62
7
  6
BYLAYER
 70
0
 71
3
 72
11
 73
7
 74
0
 42
0.0000001
 43
0.0000001
 44
0.0000000001
 40
0.0
 40
0.0
 40
0.0
 40
0.0
 40
0.3070706355
 40
0.5849787224
 40
0.81363115
 40
1.0
 40
1.0
 40
1.0
 40
1.0
 10
42.3109439082
 20
47.9665456437
 30
0.0
 10
42.3013257733
 20
47.9832046495
 30
0.0
 10
42.286443404
 20
48.0171058218
 30
0.0
 10
42.2773764411
 20
48.0678107296
 30
0.0
 10
42.283472795
 20
48.1119454955
 30
0.0
 10
42.3008331991
 20
48.1339143749
 30
0.0
 10
42.3109439082
 20
48.1397519625
 30
0.0
  0
SPLINE
  5
51A
100
AcDbEntity
  8
0
100
AcDbSpline
 62
7
  6
BYLAYER
 70
0
 71
3
 72
11
 73
7
 74
0
 42
0.0000001
 43
0.0000001
 44
0.0000000001
 40
0.0
 40
0.0
 40
0.0
 40
0.0
 40
0.1863673369
 40
0.4150179814
 40
0.6929276535
 40
1.0
 40
1.0
 40
1.0
 40
1.0
 10
42.5144981463
 20
47.4407749996
 30
0.0
 10
42.5246087763
 20
47.4466125415
 30
0.0
 10
42.541969297
 20
47.4685810261
 30
0.0
 10
42.5480656024
 20
47.5127157875
 30
0.0
 10
42.5389986381
 20
47.5634207596
 30
0.0
 10
42.5241163376
 20
47.5973222148
 30
0.0
 10
42.5144981463
 20
47.6139813184
 30
0.0
  0
SPLINE
  5
51B
100
AcDbEntity
  8
0
100
AcDbSpline
 62
7
  6
BYLAYER
 70
0
 71
3
 72
11
 73
7
 74
0
 42
0.0000001
 43
0.0000001
 44
0.0000000001
 40
0.0
 40
0.0
 40
0.0
 40
0.0
 40
0.1863673369
 40
0.4150179814
 40
0.6929276535
 40
1.0
 40
1.0
 40
1.0
 40
1.0
 10
42.5137758157
 20
60.504396624
 30
0.0
 10
42.5238864457
 20
60.5102341659
 30
0.0
 10
42.5412469664
 20
60.5322026505
 30
0.0
 10
42.5473432718
 20
60.5763374119
 30
0.0
 10
42.5382763075
 20
60.627042384
 30
0.0
 10
42.523394007
 20
60.6609438392
 30
0.0
 10
42.5137758157
 20
60.6776029428
 30
0.0
  0
SPLINE
  5
51C
100
AcDbEntity
  8
0
100
AcDbSpline
 62
7
  6
BYLAYER
 70
0
 71
3
 72
14
 73
10
 74
0
 42
0.0000001
 43
0.0000001
 44
0.0000000001
 40
0.0
 40
0.0
 40
0.0
 40
0.0
 40
0.2892627236
 40
0.4225620581
 40
0.5485070661
 40
0.6678898887
 40
0.7818699259
 40
0.8919549059
 40
1.0
 40
1.0
 40
1.0
 40
1.0
 10
32.6015735908
 20
66.3128488637
 30
0.0
 10
32.6015735908
 20
66.5726048824
 30
0.0
 10
32.6319146553
 20
66.9539270036
 30
0.0
 10
32.7491298442
 20
67.4331965835
 30
0.0
 10
32.8683789633
 20
67.7525731167
 30
0.0
 10
33.0204322741
 20
68.0383096918
 30
0.0
 10
33.2039837526
 20
68.2876640989
 30
0.0
 10
33.4174524817
 20
68.4977490649
 30
0.0
 10
33.5790108728
 20
68.6104664963
 30
0.0
 10
33.6630311504
 20
68.65898667
 30
0.0
  0
ENDSEC
  0
SECTION
  2
OBJECTS
  0
DICTIONARY
  5
C
100
AcDbDictionary
280
0
281
1
  3
ACAD_GROUP
350
D
  3
ACAD_MLINESTYLE
350
17
  3
ACAD_LAYOUT
350
1A
  3
ACAD_PLOTSETTINGS
350
19
  3
ACAD_PLOTSTYLENAME
350
E
  0
DICTIONARY
  5
D
102
{ACAD_REACTORS
330
C
102
}
100
AcDbDictionary
280
0
281
1
  0
ACDBDICTIONARYWDFLT
  5
E
102
{ACAD_REACTORS
330
C
102
}
100
AcDbDictionary
281
1
  3
Normal
350
F
100
AcDbDictionaryWithDefault
340
F
  0
DICTIONARY
  5
17
102
{ACAD_REACTORS
330
C
102
}
100
AcDbDictionary
280
0
281
1
  3
Standard
350
18
  0
DICTIONARY
  5
19
102
{ACAD_REACTORS
330
C
102
}
100
AcDbDictionary
281
1
  0
DICTIONARY
  5
1A
102
{ACAD_REACTORS
330
C
102
}
100
AcDbDictionary
281
1
  3
Model
350
51D
  3
Layout1
350
51E
  0
ACDBPLACEHOLDER
  5
F
102
{ACAD_REACTORS
330
E
102
}
  0
MLINESTYLE
  5
18
102
{ACAD_REACTORS
330
17
102
}
100
AcDbMlineStyle
  2
STANDARD
 70
0
  3

 62
256
 51
90.0
 52
90.0
 71
2
 49
0.5
 62
256
  6
BYLAYER
 49
-0.5
 62
256
  6
BYLAYER
  0
LAYOUT
  5
51D
102
{ACAD_REACTORS
330
1A
102
}
100
AcDbPlotSettings
  1

  2
none_device
  4

  6

 40
0.0
 41
0.0
 42
0.0
 43
0.0
 44
210.0
 45
297.0
 46
0.0
 47
0.0
 48
0.0
 49
0.0
140
0.0
141
0.0
142
1.0
143
1.0
 70
1024
 72
1
 73
0
 74
0
  7

 75
0
147
1.0
148
0.0
149
0.0
100
AcDbLayout
  1
Model
 70
0
 71
0
 10
0.0
 20
0.0
 11
210.0
 21
297.0
 12
0.0
 22
0.0
 32
0.0
 14
0.0
 24
0.0
 34
0.0
 15
0.0
 25
0.0
 35
0.0
146
0.0
 13
0.0
 23
0.0
 33
0.0
 16
1.0
 26
0.0
 36
0.0
 17
0.0
 27
1.0
 37
0.0
 76
0
330
210
345
0
346
0
  0
LAYOUT
  5
51E
102
{ACAD_REACTORS
330
1A
102
}
100
AcDbPlotSettings
  1

  2
none_device
  4

  6

 40
0.0
 41
0.0
 42
0.0
 43
0.0
 44
210.0
 45
297.0
 46
0.0
 47
0.0
 48
0.0
 49
0.0
140
0.0
141
0.0
142
1.0
143
1.0
 70
0
 72
1
 73
0
 74
0
  7

 75
0
147
1.0
148
0.0
149
0.0
100
AcDbLayout
  1
Layout1
 70
0
 71
1
 10
0.0
 20
0.0
 11
210.0
 21
297.0
 12
0.0
 22
0.0
 32
0.0
 14
0.0
 24
0.0
 34
0.0
 15
0.0
 25
0.0
 35
0.0
146
0.0
 13
0.0
 23
0.0
 33
0.0
 16
1.0
 26
0.0
 36
0.0
 17
0.0
 27
1.0
 37
0.0
 76
0
330
211
345
0
346
0
  0
ENDSEC
  0
EOF
