999
DXF file: C:\Users\sesa63760\Dev\_Creo\CAD\MCADID0004056_3D-CAD\drw0001_5.dxf
999
Pro/ENGINEER 2019471 by Parametric Technology Corporation
  0
SECTION
  2
HEADER
  9
$ACADVER
  1
AC1024
  9
$DWGCODEPAGE
  3
ANSI_1252
  9
$EXTMAX
 10
147.8802183051
 20
209.1448801743
 30
0.0
  9
$EXTMIN
 10
0.0
 20
0.0
 30
0.0
  9
$LIMMIN
 10
0.0
 20
0.0
  9
$LIMMAX
 10
147.8802183051
 20
209.1448801743
  9
$VIEWCTR
 10
73.9401091525
 20
104.5724400871
  9
$VIEWSIZE
 40
209.1448801743
  9
$CLAYER
  8
0
  9
$LTSCALE
 40
13.6331477447
  9
$CELTYPE
  6
BYLAYER
  9
$DIMSCALE
 40
1.0
  9
$DIMASZ
 40
1.7604787893
  9
$DIMEXO
 40
1.0
  9
$DIMDLI
 40
9.4192657145
  9
$DIMEXE
 40
1.0
  9
$DIMCEN
 40
2.2308787219
  9
$DIMLFAC
 40
1.0
  9
$DIMBLK
  1
_FILLED
  9
$DIMALT
 70
0
  9
$DIMALTF
 40
0.0393700787
  9
$DIMTXT
 40
2.4646703051
  9
$DIMTOL
 70
1
  9
$DIMLIM
 70
0
  9
$DIMTFAC
 40
1.0
  9
$DIMTP
 40
0.01
  9
$DIMTM
 40
0.01
  9
$DIMGAP
 40
0.625
  9
$DIMDSEP
 70
46
  9
$AUNITS
 70
0
  9
$PDMODE
 70
3
  9
$PDSIZE
 40
0.3125
  9
$HANDSEED
  5
295
  9
$TILEMODE
 70
1
  9
$MEASUREMENT
 70
1
  9
$INSUNITS
 70
4
  0
ENDSEC
  0
SECTION
  2
CLASSES
  0
CLASS
  1
ACDBDICTIONARYWDFLT
  2
AcDbDictionaryWithDefault
  3
AutoCAD 2000
 90
0
 91
1
280
0
281
0
  0
CLASS
  1
ACDBPLACEHOLDER
  2
AcDbPlaceHolder
  3
AutoCAD 2000
 90
0
 91
1
280
0
281
0
  0
CLASS
  1
LAYOUT
  2
AcDbLayout
  3
AutoCAD 2000
 90
0
 91
0
280
0
281
0
  0
ENDSEC
  0
SECTION
  2
TABLES
  0
TABLE
  2
VPORT
  5
8
100
AcDbSymbolTable
 70
2
  0
VPORT
  5
1F4
100
AcDbSymbolTableRecord
100
AcDbViewportTableRecord
  2
*ACTIVE
 70
0
 10
0.0
 20
0.0
 11
1.0
 21
1.0
 12
73.9401091525
 22
104.5724400871
 13
0.0
 23
0.0
 14
1.0
 24
1.0
 15
0.0
 25
0.0
 16
0.0
 26
0.0
 36
1.0
 17
0.0
 27
0.0
 37
0.0
 40
209.1448801743
 41
0.7070707071
 42
50.0
 43
0.0
 44
0.0
 50
0.0
 51
0.0
 71
0
 72
100
 73
1
 74
1
 75
0
 76
0
 77
0
 78
0
  0
ENDTAB
  0
TABLE
  2
LTYPE
  5
5
100
AcDbSymbolTable
 70
6
  0
LTYPE
  5
14
100
AcDbSymbolTableRecord
100
AcDbLinetypeTableRecord
  2
BYBLOCK
 70
0
  3

 72
65
 73
0
 40
0.0
  0
LTYPE
  5
15
100
AcDbSymbolTableRecord
100
AcDbLinetypeTableRecord
  2
BYLAYER
 70
0
  3

 72
65
 73
0
 40
0.0
  0
LTYPE
  5
16
100
AcDbSymbolTableRecord
100
AcDbLinetypeTableRecord
  2
CONTINUOUS
 70
64
  3
Solid line
 72
65
 73
0
 40
0.0
  0
LTYPE
  5
1F5
100
AcDbSymbolTableRecord
100
AcDbLinetypeTableRecord
  2
CENTER
 70
64
  3
____ _ ____ _ ____ _ ____ _ ____ _ ____ _ ____
 72
65
 73
4
 40
0.6
 49
0.375
 74
0
 49
-0.075
 74
0
 49
0.075
 74
0
 49
-0.075
 74
0
  0
LTYPE
  5
1F6
100
AcDbSymbolTableRecord
100
AcDbLinetypeTableRecord
  2
HIDDEN
 70
64
  3
- - - - - - - - - - - - - - - - - - - -
 72
65
 73
2
 40
0.2
 49
0.1
 74
0
 49
-0.1
 74
0
  0
LTYPE
  5
1F7
100
AcDbSymbolTableRecord
100
AcDbLinetypeTableRecord
  2
PHANTOM
 70
64
  3
_____ _ _ _____ _ _ _____ _ _ _____
 72
65
 73
6
 40
0.8
 49
0.45
 74
0
 49
-0.05
 74
0
 49
0.1
 74
0
 49
-0.05
 74
0
 49
0.1
 74
0
 49
-0.05
 74
0
  0
LTYPE
  5
1F8
100
AcDbSymbolTableRecord
100
AcDbLinetypeTableRecord
  2
DOT
 70
64
  3
. . . . . . . . . . . . . . . . . . . .
 72
65
 73
2
 40
0.2
 49
0.1
 74
0
 49
-0.1
 74
0
  0
LTYPE
  5
1F9
100
AcDbSymbolTableRecord
100
AcDbLinetypeTableRecord
  2
DASHED
 70
64
  3
- - - - - - - - - - - - - - - - - - - -
 72
65
 73
2
 40
0.2
 49
0.1
 74
0
 49
-0.1
 74
0
  0
ENDTAB
  0
TABLE
  2
LAYER
  5
2
100
AcDbSymbolTable
 70
36
  0
LAYER
  5
10
100
AcDbSymbolTableRecord
100
AcDbLayerTableRecord
  2
0
 70
0
 62
7
  6
CONTINUOUS
370
-3
390
F
  0
LAYER
  5
1FA
100
AcDbSymbolTableRecord
100
AcDbLayerTableRecord
  2
DEFAULT_1
 70
0
 62
7
  6
CENTER
370
-3
390
F
  0
LAYER
  5
1FB
100
AcDbSymbolTableRecord
100
AcDbLayerTableRecord
  2
DEFAULT_2
 70
0
 62
7
  6
HIDDEN
370
-3
390
F
  0
LAYER
  5
1FC
100
AcDbSymbolTableRecord
100
AcDbLayerTableRecord
  2
DEFAULT_3
 70
0
 62
7
  6
PHANTOM
370
-3
390
F
  0
LAYER
  5
1FD
100
AcDbSymbolTableRecord
100
AcDbLayerTableRecord
  2
00_COMPONENTS
 70
0
 62
7
  6
CONTINUOUS
370
-3
390
F
  0
LAYER
  5
1FE
100
AcDbSymbolTableRecord
100
AcDbLayerTableRecord
  2
01_1_DEFAULT_DATUMS
 70
0
 62
7
  6
CONTINUOUS
370
-3
390
F
  0
LAYER
  5
1FF
100
AcDbSymbolTableRecord
100
AcDbLayerTableRecord
  2
01_PLANES
 70
0
 62
7
  6
CONTINUOUS
370
-3
390
F
  0
LAYER
  5
200
100
AcDbSymbolTableRecord
100
AcDbLayerTableRecord
  2
02_COORD_SYS
 70
0
 62
7
  6
CONTINUOUS
370
-3
390
F
  0
LAYER
  5
201
100
AcDbSymbolTableRecord
100
AcDbLayerTableRecord
  2
03_AXES
 70
0
 62
7
  6
CONTINUOUS
370
-3
390
F
  0
LAYER
  5
202
100
AcDbSymbolTableRecord
100
AcDbLayerTableRecord
  2
04_POINTS
 70
0
 62
7
  6
CONTINUOUS
370
-3
390
F
  0
LAYER
  5
203
100
AcDbSymbolTableRecord
100
AcDbLayerTableRecord
  2
05_CURVES
 70
0
 62
7
  6
CONTINUOUS
370
-3
390
F
  0
LAYER
  5
204
100
AcDbSymbolTableRecord
100
AcDbLayerTableRecord
  2
06_SURFS
 70
0
 62
7
  6
CONTINUOUS
370
-3
390
F
  0
LAYER
  5
205
100
AcDbSymbolTableRecord
100
AcDbLayerTableRecord
  2
07_COSMETICS
 70
0
 62
7
  6
CONTINUOUS
370
-3
390
F
  0
LAYER
  5
206
100
AcDbSymbolTableRecord
100
AcDbLayerTableRecord
  2
10_NOTES
 70
0
 62
7
  6
CONTINUOUS
370
-3
390
F
  0
LAYER
  5
207
100
AcDbSymbolTableRecord
100
AcDbLayerTableRecord
  2
11_NOTES_PUB
 70
0
 62
7
  6
CONTINUOUS
370
-3
390
F
  0
LAYER
  5
208
100
AcDbSymbolTableRecord
100
AcDbLayerTableRecord
  2
13_REF_GTOL
 70
0
 62
7
  6
CONTINUOUS
370
-3
390
F
  0
LAYER
  5
209
100
AcDbSymbolTableRecord
100
AcDbLayerTableRecord
  2
16_MISC
 70
0
 62
7
  6
CONTINUOUS
370
-3
390
F
  0
LAYER
  5
20A
100
AcDbSymbolTableRecord
100
AcDbLayerTableRecord
  2
17_NO_PRINT
 70
0
 62
7
  6
CONTINUOUS
370
-3
390
F
  0
LAYER
  5
20B
100
AcDbSymbolTableRecord
100
AcDbLayerTableRecord
  2
18_DATUM_CAMS_JOINTS
 70
0
 62
7
  6
CONTINUOUS
370
-3
390
F
  0
LAYER
  5
20C
100
AcDbSymbolTableRecord
100
AcDbLayerTableRecord
  2
19_DATUM_FUNCTIONAL
 70
0
 62
7
  6
CONTINUOUS
370
-3
390
F
  0
LAYER
  5
20D
100
AcDbSymbolTableRecord
100
AcDbLayerTableRecord
  2
20_DATUM_KINEMATIC_SCHEME
 70
0
 62
7
  6
CONTINUOUS
370
-3
390
F
  0
ENDTAB
  0
TABLE
  2
STYLE
  5
3
100
AcDbSymbolTable
 70
1
  0
STYLE
  5
11
100
AcDbSymbolTableRecord
100
AcDbTextStyleTableRecord
  2
STANDARD
 70
0
 40
0.0
 41
1.0
 50
0.0
 71
0
 42
0.2
  3
ARIAL.TTF
  4

  0
STYLE
  5
20E
100
AcDbSymbolTableRecord
100
AcDbTextStyleTableRecord
  2
TEXTSTYLE_1
 70
0
 40
0.0
 41
0.8
 50
0.0
 71
0
 42
0.2
  3
gdt
  4

  0
ENDTAB
  0
TABLE
  2
VIEW
  5
6
100
AcDbSymbolTable
 70
0
  0
ENDTAB
  0
TABLE
  2
UCS
  5
7
100
AcDbSymbolTable
 70
0
  0
ENDTAB
  0
TABLE
  2
APPID
  5
9
100
AcDbSymbolTable
 70
1
  0
APPID
  5
20F
100
AcDbSymbolTableRecord
100
AcDbRegAppTableRecord
  2
ACAD
 70
0
  0
ENDTAB
  0
TABLE
  2
BLOCK_RECORD
  5
1
100
AcDbSymbolTable
 70
0
  0
BLOCK_RECORD
  5
210
100
AcDbSymbolTableRecord
100
AcDbBlockTableRecord
  2
*Model_Space
  0
BLOCK_RECORD
  5
211
100
AcDbSymbolTableRecord
100
AcDbBlockTableRecord
  2
*Paper_Space
  0
BLOCK_RECORD
  5
212
100
AcDbSymbolTableRecord
100
AcDbBlockTableRecord
  2
_FILLED
  0
ENDTAB
  0
TABLE
  2
DIMSTYLE
  5
A
100
AcDbSymbolTable
 70
1
100
AcDbDimStyleTable
 71
0
  0
DIMSTYLE
105
213
100
AcDbSymbolTableRecord
100
AcDbDimStyleTableRecord
  2
STANDARD
 70
0
  3

  4

 40
1.0
 41
1.7604787893
 42
1.0
 43
0.38
 44
1.0
 45
0.0
 46
0.0
 47
0.01
 48
0.01
140
2.4646703051
141
0.09
142
0.0
143
25.4
144
1.0
145
0.0
146
1.0
147
0.625
 71
1
 72
0
 73
0
 74
0
 75
0
 76
0
 77
1
 78
8
 79
2
170
0
171
1
172
0
173
0
174
0
175
0
176
0
177
0
178
0
270
2
179
2
271
2
272
2
273
2
274
2
275
0
280
0
281
0
282
0
283
1
284
8
285
0
286
0
287
3
288
0
340
11
278
46
341
212
342
212
343
212
344
212
  0
ENDTAB
  0
ENDSEC
  0
SECTION
  2
BLOCKS
  0
BLOCK
  5
20
100
AcDbEntity
  8
0
100
AcDbBlockBegin
  2
*Model_Space
 70
0
 10
0.0
 20
0.0
 30
0.0
  3
*Model_Space
  1

  0
ENDBLK
  5
21
100
AcDbEntity
  8
0
100
AcDbBlockEnd
  0
BLOCK
  5
1C
100
AcDbEntity
  8
0
100
AcDbBlockBegin
  2
*Paper_Space
 70
0
 10
0.0
 20
0.0
 30
0.0
  3
*Paper_Space
  1

  0
ENDBLK
  5
1D
100
AcDbEntity
  8
0
100
AcDbBlockEnd
  0
BLOCK
  5
214
100
AcDbEntity
  8
0
100
AcDbBlockBegin
  2
_FILLED
 70
64
 10
0.0
 20
0.0
  3
_FILLED
  1

  0
SOLID
  5
215
100
AcDbEntity
  8
0
  6
BYBLOCK
 62
0
100
AcDbTrace
 10
0.0
 20
0.0
 11
-1.0
 21
0.25
 12
-1.0
 22
-0.25
 13
-1.0
 23
-0.25
  0
ENDBLK
  5
216
100
AcDbEntity
  8
0
  6
BYBLOCK
 62
0
100
AcDbBlockEnd
  0
ENDSEC
  0
SECTION
  2
ENTITIES
  0
LINE
  5
217
100
AcDbEntity
  8
0
100
AcDbLine
 62
7
  6
BYLAYER
 10
17.2380394358
 20
84.6784313725
 11
17.2380394358
 21
114.128417659
  0
LINE
  5
218
100
AcDbEntity
  8
0
100
AcDbLine
 62
7
  6
BYLAYER
 10
17.3380394358
 20
114.1284313725
 11
17.3380394358
 21
108.6784313725
  0
LINE
  5
219
100
AcDbEntity
  8
0
100
AcDbLine
 62
7
  6
BYLAYER
 10
17.7380394358
 20
84.6784313725
 11
17.7380394358
 21
108.6784313725
  0
LINE
  5
21A
100
AcDbEntity
  8
0
100
AcDbLine
 62
7
  6
BYLAYER
 10
19.3380394358
 20
110.6784313725
 11
19.3380394358
 21
118.6784313725
  0
LINE
  5
21B
100
AcDbEntity
  8
0
100
AcDbLine
 62
7
  6
BYLAYER
 10
20.5380394358
 20
108.6784313725
 11
20.5380394358
 21
84.6784313725
  0
LINE
  5
21C
100
AcDbEntity
  8
0
100
AcDbLine
 62
7
  6
BYLAYER
 10
19.3898238665
 20
121.5451594202
 11
19.338912189
 21
118.6784313726
  0
LINE
  5
21D
100
AcDbEntity
  8
0
100
AcDbLine
 62
7
  6
BYLAYER
 10
24.7380394358
 20
108.6784313725
 11
24.7380394358
 21
84.1784313725
  0
LINE
  5
21E
100
AcDbEntity
  8
0
100
AcDbLine
 62
7
  6
BYLAYER
 10
24.840479186
 20
118.6784313725
 11
24.840479186
 21
108.6784313725
  0
LINE
  5
21F
100
AcDbEntity
  8
0
100
AcDbLine
 62
7
  6
BYLAYER
 10
25.2380394358
 20
84.1784313725
 11
25.2380394358
 21
108.6784313725
  0
LINE
  5
220
100
AcDbEntity
  8
0
100
AcDbLine
 62
7
  6
BYLAYER
 10
28.7378261031
 20
123.0012641657
 11
28.7379237929
 21
118.6784313726
  0
LINE
  5
221
100
AcDbEntity
  8
0
100
AcDbLine
 62
7
  6
BYLAYER
 10
28.9380394358
 20
108.6784313725
 11
28.9380394358
 21
118.6784313725
  0
LINE
  5
222
100
AcDbEntity
  8
0
100
AcDbLine
 62
7
  6
BYLAYER
 10
30.4380394358
 20
118.6784313725
 11
30.4380394358
 21
108.6784313725
  0
LINE
  5
223
100
AcDbEntity
  8
0
100
AcDbLine
 62
7
  6
BYLAYER
 10
30.5380394358
 20
112.2095641412
 11
30.5380394358
 21
118.6784313725
  0
LINE
  5
224
100
AcDbEntity
  8
0
100
AcDbLine
 62
7
  6
BYLAYER
 10
30.7345573657
 20
113.0489228802
 11
30.7378100789
 21
123.0113373225
  0
LINE
  5
225
100
AcDbEntity
  8
0
100
AcDbLine
 62
7
  6
BYLAYER
 10
30.7345573655
 20
113.0489228801
 11
30.5380394358
 21
112.406141695
  0
LINE
  5
226
100
AcDbEntity
  8
0
100
AcDbLine
 62
7
  6
BYLAYER
 10
30.7221532382
 20
112.1532749029
 11
30.9736335545
 21
112.9758299539
  0
LINE
  5
227
100
AcDbEntity
  8
0
100
AcDbLine
 62
7
  6
BYLAYER
 10
30.7345573655
 20
113.0489228828
 11
30.6380394358
 21
118.5784313725
  0
LINE
  5
228
100
AcDbEntity
  8
0
100
AcDbLine
 62
7
  6
BYLAYER
 10
34.7380394358
 20
84.6784313725
 11
34.7380394358
 21
84.1784313725
  0
LINE
  5
229
100
AcDbEntity
  8
0
100
AcDbLine
 62
7
  6
BYLAYER
 10
35.2380394358
 20
108.6784313725
 11
35.2380394358
 21
110.7726299383
  0
LINE
  5
22A
100
AcDbEntity
  8
0
100
AcDbLine
 62
7
  6
BYLAYER
 10
35.5380394363
 20
124.0266310186
 11
35.5380394363
 21
125.0784313725
  0
LINE
  5
22B
100
AcDbEntity
  8
0
100
AcDbLine
 62
7
  6
BYLAYER
 10
35.7380394358
 20
84.1784313725
 11
35.7380394358
 21
84.6784313725
  0
LINE
  5
22C
100
AcDbEntity
  8
0
100
AcDbLine
 62
7
  6
BYLAYER
 10
35.5380394358
 20
111.5803510334
 11
35.5585931572
 21
113.9355742297
  0
LINE
  5
22D
100
AcDbEntity
  8
0
100
AcDbLine
 62
7
  6
BYLAYER
 10
35.6651178772
 20
114.5553720323
 11
36.0341777076
 21
123.1953957299
  0
LINE
  5
22E
100
AcDbEntity
  8
0
100
AcDbLine
 62
7
  6
BYLAYER
 10
35.5638963831
 20
111.5724457713
 11
35.3124160668
 21
110.7498907202
  0
LINE
  5
22F
100
AcDbEntity
  8
0
100
AcDbLine
 62
7
  6
BYLAYER
 10
24.7380394358
 20
84.1784313725
 11
35.7380394358
 21
84.1784313725
  0
LINE
  5
230
100
AcDbEntity
  8
0
100
AcDbLine
 62
7
  6
BYLAYER
 10
84.2380394358
 20
84.1784313725
 11
94.7380394358
 21
84.1784313725
  0
LINE
  5
231
100
AcDbEntity
  8
0
100
AcDbLine
 62
7
  6
BYLAYER
 10
85.2380394358
 20
84.6784313725
 11
34.7380394358
 21
84.6784313725
  0
LINE
  5
232
100
AcDbEntity
  8
0
100
AcDbLine
 62
7
  6
BYLAYER
 10
24.7380394358
 20
84.6784313725
 11
17.2380394358
 21
84.6784313725
  0
LINE
  5
233
100
AcDbEntity
  8
0
100
AcDbLine
 62
7
  6
BYLAYER
 10
96.7380394358
 20
85.4784313725
 11
132.7380394358
 21
85.4784313725
  0
LINE
  5
234
100
AcDbEntity
  8
0
100
AcDbLine
 62
7
  6
BYLAYER
 10
134.7380394358
 20
87.4784313725
 11
94.7380394358
 21
87.4784313725
  0
LINE
  5
235
100
AcDbEntity
  8
0
100
AcDbLine
 62
7
  6
BYLAYER
 10
30.5380394358
 20
114.7469265727
 11
30.7068319401
 21
114.6373114387
  0
LINE
  5
236
100
AcDbEntity
  8
0
100
AcDbLine
 62
7
  6
BYLAYER
 10
84.7380394358
 20
99.0784313725
 11
73.4880394358
 21
99.0784313725
  0
LINE
  5
237
100
AcDbEntity
  8
0
100
AcDbLine
 62
7
  6
BYLAYER
 10
30.5380394358
 20
112.2095641412
 11
73.4880394358
 21
99.0784313725
  0
LINE
  5
238
100
AcDbEntity
  8
0
100
AcDbLine
 62
7
  6
BYLAYER
 10
73.4880394358
 20
99.977871672
 11
30.7345573657
 21
113.04892288
  0
LINE
  5
239
100
AcDbEntity
  8
0
100
AcDbLine
 62
7
  6
BYLAYER
 10
74.0127114344
 20
102.7872417732
 11
73.7686810023
 21
123.1133361754
  0
LINE
  5
23A
100
AcDbEntity
  8
0
100
AcDbLine
 62
7
  6
BYLAYER
 10
73.4880394358
 20
99.977871672
 11
73.4880394358
 21
99.0784313725
  0
LINE
  5
23B
100
AcDbEntity
  8
0
100
AcDbLine
 62
7
  6
BYLAYER
 10
73.0988580547
 20
100.0968563609
 11
72.8473777384
 21
99.2743013099
  0
LINE
  5
23C
100
AcDbEntity
  8
0
100
AcDbLine
 62
7
  6
BYLAYER
 10
74.9422994002
 20
103.7697051693
 11
74.9336754353
 21
103.7694469244
  0
LINE
  5
23D
100
AcDbEntity
  8
0
100
AcDbLine
 62
7
  6
BYLAYER
 10
84.4733033791
 20
102.7871575758
 11
74.0127114344
 21
102.7872417732
  0
LINE
  5
23E
100
AcDbEntity
  8
0
100
AcDbLine
 62
7
  6
BYLAYER
 10
83.9733795315
 20
103.2784313725
 11
75.4088448418
 21
103.2784313725
  0
LINE
  5
23F
100
AcDbEntity
  8
0
100
AcDbLine
 62
7
  6
BYLAYER
 10
77.5083159001
 20
103.7697051693
 11
74.9422994002
 21
103.7697051693
  0
LINE
  5
240
100
AcDbEntity
  8
0
100
AcDbLine
 62
7
  6
BYLAYER
 10
83.9560358924
 20
103.7739810204
 11
78.4841908454
 21
103.7740683156
  0
LINE
  5
241
100
AcDbEntity
  8
0
100
AcDbLine
 62
7
  6
BYLAYER
 10
78.1757881211
 20
123.1218809583
 11
78.4841908454
 21
103.7740683156
  0
LINE
  5
242
100
AcDbEntity
  8
0
100
AcDbLine
 62
7
  6
BYLAYER
 10
17.2380394358
 20
108.6784313725
 11
35.2380394358
 21
108.6784313725
  0
LINE
  5
243
100
AcDbEntity
  8
0
100
AcDbLine
 62
7
  6
BYLAYER
 10
84.7380394358
 20
108.6784313725
 11
94.7380394358
 21
108.6784313725
  0
LINE
  5
244
100
AcDbEntity
  8
0
100
AcDbLine
 62
7
  6
BYLAYER
 10
94.2380394358
 20
109.1784313725
 11
85.2380394358
 21
109.1784313725
  0
LINE
  5
245
100
AcDbEntity
  8
0
100
AcDbLine
 62
7
  6
BYLAYER
 10
17.2380394358
 20
109.5353496119
 11
17.3380394358
 21
109.5353496119
  0
LINE
  5
246
100
AcDbEntity
  8
0
100
AcDbLine
 62
7
  6
BYLAYER
 10
83.9733748484
 20
103.2784313725
 11
83.9560343991
 21
103.7740246676
  0
LINE
  5
247
100
AcDbEntity
  8
0
100
AcDbLine
 62
7
  6
BYLAYER
 10
84.4733033791
 20
102.7871575758
 11
84.5380394358
 21
99.0784313725
  0
LINE
  5
248
100
AcDbEntity
  8
0
100
AcDbLine
 62
7
  6
BYLAYER
 10
84.2380394358
 20
84.6784313725
 11
84.2380394358
 21
84.1784313725
  0
LINE
  5
249
100
AcDbEntity
  8
0
100
AcDbLine
 62
7
  6
BYLAYER
 10
84.7380394358
 20
99.0784313725
 11
84.7380394358
 21
108.6784313725
  0
LINE
  5
24A
100
AcDbEntity
  8
0
100
AcDbLine
 62
7
  6
BYLAYER
 10
85.2380394358
 20
84.1784313725
 11
85.2380394358
 21
84.6784313725
  0
LINE
  5
24B
100
AcDbEntity
  8
0
100
AcDbLine
 62
7
  6
BYLAYER
 10
17.2380394358
 20
114.1284313725
 11
17.3380394358
 21
114.1284313725
  0
LINE
  5
24C
100
AcDbEntity
  8
0
100
AcDbLine
 62
7
  6
BYLAYER
 10
30.5380394358
 20
118.5784313725
 11
30.6380394358
 21
118.5784313725
  0
LINE
  5
24D
100
AcDbEntity
  8
0
100
AcDbLine
 62
7
  6
BYLAYER
 10
19.3380394358
 20
118.6784313725
 11
30.5380394358
 21
118.6784313725
  0
LINE
  5
24E
100
AcDbEntity
  8
0
100
AcDbLine
 62
7
  6
BYLAYER
 10
93.7380393334
 20
125.0784313725
 11
93.7380393334
 21
124.5828105469
  0
LINE
  5
24F
100
AcDbEntity
  8
0
100
AcDbLine
 62
7
  6
BYLAYER
 10
94.2380394358
 20
124.0827935792
 11
94.2380394358
 21
84.1784313725
  0
LINE
  5
250
100
AcDbEntity
  8
0
100
AcDbLine
 62
7
  6
BYLAYER
 10
94.7380394358
 20
84.1784313725
 11
94.7380394358
 21
124.0784313718
  0
LINE
  5
251
100
AcDbEntity
  8
0
100
AcDbLine
 62
7
  6
BYLAYER
 10
96.7380394358
 20
85.4784313725
 11
96.7380394358
 21
125.4784313725
  0
LINE
  5
252
100
AcDbEntity
  8
0
100
AcDbLine
 62
7
  6
BYLAYER
 10
30.7378100789
 20
123.0113373225
 11
28.7378261031
 21
123.0012641657
  0
LINE
  5
253
100
AcDbEntity
  8
0
100
AcDbLine
 62
7
  6
BYLAYER
 10
94.7380394358
 20
122.6784313725
 11
134.7380394358
 21
122.6784313725
  0
LINE
  5
254
100
AcDbEntity
  8
0
100
AcDbLine
 62
7
  6
BYLAYER
 10
73.7686810023
 20
123.1133361754
 11
37.1443059924
 21
123.1133361854
  0
LINE
  5
255
100
AcDbEntity
  8
0
100
AcDbLine
 62
7
  6
BYLAYER
 10
74.7029492473
 20
123.1133361854
 11
77.1996192044
 21
123.1133361854
  0
LINE
  5
256
100
AcDbEntity
  8
0
100
AcDbLine
 62
7
  6
BYLAYER
 10
93.73804325
 20
124.5827946403
 11
77.7594568957
 21
124.5828264537
  0
LINE
  5
257
100
AcDbEntity
  8
0
100
AcDbLine
 62
7
  6
BYLAYER
 10
35.538039436
 20
125.0784313725
 11
93.7380394364
 21
125.0784313725
  0
LINE
  5
258
100
AcDbEntity
  8
0
100
AcDbLine
 62
7
  6
BYLAYER
 10
132.7380394358
 20
125.4784313725
 11
96.7380394358
 21
125.4784313725
  0
LINE
  5
259
100
AcDbEntity
  8
0
100
AcDbLine
 62
7
  6
BYLAYER
 10
35.5380393445
 20
124.0267819955
 11
35.6480209828
 21
124.0266310186
  0
LINE
  5
25A
100
AcDbEntity
  8
0
100
AcDbLine
 62
7
  6
BYLAYER
 10
75.4534136517
 20
125.0782577227
 11
75.4317539038
 21
125.0784313725
  0
LINE
  5
25B
100
AcDbEntity
  8
0
100
AcDbLine
 62
7
  6
BYLAYER
 10
132.7380394358
 20
125.4784313725
 11
132.7380394358
 21
85.4784313725
  0
LINE
  5
25C
100
AcDbEntity
  8
0
100
AcDbLine
 62
7
  6
BYLAYER
 10
134.7380394358
 20
87.4784313725
 11
134.7380394358
 21
123.4784313725
  0
ARC
  5
25D
100
AcDbEntity
  8
0
100
AcDbCircle
 62
7
  6
BYLAYER
 10
-2095.3448463951
 20
414.2495590077
 40
2152.2709600071
100
AcDbArc
 50
351.9158223995
 51
352.2258065295
  0
ARC
  5
25E
100
AcDbEntity
  8
0
100
AcDbCircle
 62
7
  6
BYLAYER
 10
-51.4781277044
 20
116.6046055655
 40
87.1673368216
100
AcDbArc
 50
358.2436174439
 51
358.6528984944
  0
ARC
  5
25F
100
AcDbEntity
  8
0
100
AcDbCircle
 62
7
  6
BYLAYER
 10
-33.2169560524
 20
115.9803461387
 40
68.8956410922
100
AcDbArc
 50
356.3383338258
 51
358.2970612688
  0
ARC
  5
260
100
AcDbEntity
  8
0
100
AcDbCircle
 62
7
  6
BYLAYER
 10
35.5380394358
 20
58.4684313725
 40
66.61
100
AcDbArc
 50
89.9999999998
 51
102.6493326704
  0
ARC
  5
261
100
AcDbEntity
  8
0
100
AcDbCircle
 62
7
  6
BYLAYER
 10
35.5403034511
 20
59.4162482367
 40
64.6105337985
100
AcDbArc
 50
90.0020077802
 51
104.4221722939
  0
ARC
  5
262
100
AcDbEntity
  8
0
100
AcDbCircle
 62
7
  6
BYLAYER
 10
35.9113973736
 20
115.0251809262
 40
11.8534259849
100
AcDbArc
 50
161.6738823594
 51
162.0490876533
  0
ARC
  5
263
100
AcDbEntity
  8
0
100
AcDbCircle
 62
7
  6
BYLAYER
 10
29.0146843415
 20
124.2276267767
 40
8.2058429208
100
AcDbArc
 50
352.1955605534
 51
353.8568500225
  0
ARC
  5
264
100
AcDbEntity
  8
0
100
AcDbCircle
 62
7
  6
BYLAYER
 10
17.3380394358
 20
116.1284313725
 40
2.0
100
AcDbArc
 50
270.0
 51
360.0
  0
ARC
  5
265
100
AcDbEntity
  8
0
100
AcDbCircle
 62
7
  6
BYLAYER
 10
96.7380394357
 20
123.4784313726
 40
2.0
100
AcDbArc
 50
89.9999999999
 51
180.0
  0
ARC
  5
266
100
AcDbEntity
  8
0
100
AcDbCircle
 62
7
  6
BYLAYER
 10
17.3380394358
 20
110.6784313725
 40
2.0
100
AcDbArc
 50
270.0
 51
360.0
  0
ARC
  5
267
100
AcDbEntity
  8
0
100
AcDbCircle
 62
7
  6
BYLAYER
 10
96.7380394358
 20
87.4784313725
 40
2.0
100
AcDbArc
 50
180.0
 51
270.0
  0
ARC
  5
268
100
AcDbEntity
  8
0
100
AcDbCircle
 62
7
  6
BYLAYER
 10
132.7380394358
 20
87.4784313725
 40
2.0
100
AcDbArc
 50
270.0
 51
360.0
  0
ARC
  5
269
100
AcDbEntity
  8
0
100
AcDbCircle
 62
7
  6
BYLAYER
 10
132.7380394358
 20
123.4784313725
 40
2.0
100
AcDbArc
 50
0.0000000002
 51
90.0
  0
ARC
  5
26A
100
AcDbEntity
  8
0
100
AcDbCircle
 62
7
  6
BYLAYER
 10
21.3895192568
 20
121.5102546072
 40
2.0
100
AcDbArc
 50
102.6493326767
 51
179.0
  0
ARC
  5
26B
100
AcDbEntity
  8
0
100
AcDbCircle
 62
7
  6
BYLAYER
 10
93.7380394358
 20
124.0784313725
 40
1.0
100
AcDbArc
 50
0.0
 51
90.0
  0
ARC
  5
26C
100
AcDbEntity
  8
0
100
AcDbCircle
 62
7
  6
BYLAYER
 10
93.7380034972
 20
124.0827587021
 40
0.5000359397
100
AcDbArc
 50
0.0039963341
 51
89.995444996
  0
ARC
  5
26D
100
AcDbEntity
  8
0
100
AcDbCircle
 62
7
  6
BYLAYER
 10
83.9733795315
 20
102.7784313725
 40
0.5
100
AcDbArc
 50
1.0
 51
90.0000028644
  0
ARC
  5
26E
100
AcDbEntity
  8
0
100
AcDbCircle
 62
7
  6
BYLAYER
 10
94.2380394358
 20
108.6784313725
 40
0.5
100
AcDbArc
 50
0.0
 51
90.0
  0
ARC
  5
26F
100
AcDbEntity
  8
0
100
AcDbCircle
 62
7
  6
BYLAYER
 10
85.2380394358
 20
108.6784313725
 40
0.5
100
AcDbArc
 50
90.0
 51
180.0
  0
ARC
  5
270
100
AcDbEntity
  8
0
100
AcDbCircle
 62
7
  6
BYLAYER
 10
75.4088742615
 20
102.9816429407
 40
0.2967886656
100
AcDbArc
 50
90.0047645839
 51
91.6919015036
  0
SPLINE
  5
271
100
AcDbEntity
  8
0
100
AcDbSpline
 62
7
  6
BYLAYER
 70
0
 71
3
 72
11
 73
7
 74
0
 42
0.0000001
 43
0.0000001
 44
0.0000000001
 40
0.0
 40
0.0
 40
0.0
 40
0.0
 40
0.2874160383
 40
0.5429671936
 40
0.7768584146
 40
1.0
 40
1.0
 40
1.0
 40
1.0
 10
35.6480209828
 20
124.0266310186
 30
0.0
 10
35.7261123262
 20
124.1954941006
 30
0.0
 10
35.916822408
 20
124.4971541101
 30
0.0
 10
36.2977726798
 20
124.8352486189
 30
0.0
 10
36.7206812185
 20
125.0344542805
 30
0.0
 10
37.0182432279
 20
125.0784310678
 30
0.0
 10
37.1626837755
 20
125.0784313725
 30
0.0
  0
SPLINE
  5
272
100
AcDbEntity
  8
0
100
AcDbSpline
 62
7
  6
BYLAYER
 70
0
 71
3
 72
9
 73
5
 74
0
 42
0.0000001
 43
0.0000001
 44
0.0000000001
 40
0.0
 40
0.0
 40
0.0
 40
0.0
 40
0.5024997207
 40
1.0
 40
1.0
 40
1.0
 40
1.0
 10
35.6480209828
 20
124.0266310186
 30
0.0
 10
35.5934844889
 20
123.9087024487
 30
0.0
 10
35.510017098
 20
123.6615749766
 30
0.0
 10
35.4802906901
 20
123.4027365181
 30
0.0
 10
35.4780673406
 20
123.2741200571
 30
0.0
  0
SPLINE
  5
273
100
AcDbEntity
  8
0
100
AcDbSpline
 62
7
  6
BYLAYER
 70
0
 71
3
 72
13
 73
9
 74
0
 42
0.0000001
 43
0.0000001
 44
0.0000000001
 40
0.0
 40
0.0
 40
0.0
 40
0.0
 40
0.2416121913
 40
0.3707090298
 40
0.5019113992
 40
0.6328020193
 40
0.7610462677
 40
1.0
 40
1.0
 40
1.0
 40
1.0
 10
36.0341778707
 20
123.1954085046
 30
0.0
 10
36.0481464321
 20
123.4363888773
 30
0.0
 10
36.1375515984
 20
123.806811975
 30
0.0
 10
36.3872543756
 20
124.2441880255
 30
0.0
 10
36.6428032967
 20
124.5434516211
 30
0.0
 10
36.953397885
 20
124.7837458873
 30
0.0
 10
37.3992697797
 20
125.0096600457
 30
0.0
 10
37.7707794273
 20
125.0784314682
 30
0.0
 10
38.0095083504
 20
125.0784313726
 30
0.0
  0
SPLINE
  5
274
100
AcDbEntity
  8
0
100
AcDbSpline
 62
7
  6
BYLAYER
 70
0
 71
3
 72
11
 73
7
 74
0
 42
0.0000001
 43
0.0000001
 44
0.0000000001
 40
0.0
 40
0.0
 40
0.0
 40
0.0
 40
0.2499804834
 40
0.4999921955
 40
0.7500245061
 40
1.0
 40
1.0
 40
1.0
 40
1.0
 10
35.4780673406
 20
123.2741200571
 30
0.0
 10
35.4651021235
 20
122.5474713739
 30
0.0
 10
35.4734542879
 20
121.0933890909
 30
0.0
 10
35.5571664975
 20
118.9143157769
 30
0.0
 10
35.6576637574
 20
116.7363136228
 30
0.0
 10
35.6822301847
 20
115.2819203722
 30
0.0
 10
35.6651178772
 20
114.5553720323
 30
0.0
  0
SPLINE
  5
275
100
AcDbEntity
  8
0
100
AcDbSpline
 62
7
  6
BYLAYER
 70
0
 71
3
 72
9
 73
5
 74
0
 42
0.0000001
 43
0.0000001
 44
0.0000000001
 40
0.0
 40
0.0
 40
0.0
 40
0.0
 40
0.4912075345
 40
1.0
 40
1.0
 40
1.0
 40
1.0
 10
36.0341777076
 20
123.1953957299
 30
0.0
 10
35.9421713726
 20
123.1837979296
 30
0.0
 10
35.7507157275
 20
123.1868495404
 30
0.0
 10
35.5671776345
 20
123.2388152725
 30
0.0
 10
35.4780232441
 20
123.2745632357
 30
0.0
  0
SPLINE
  5
276
100
AcDbEntity
  8
0
100
AcDbSpline
 62
7
  6
BYLAYER
 70
0
 71
3
 72
13
 73
9
 74
0
 42
0.0000001
 43
0.0000001
 44
0.0000000001
 40
0.0
 40
0.0
 40
0.0
 40
0.0
 40
0.0992609783
 40
0.2045077979
 40
0.3180529474
 40
0.4407227793
 40
0.7100153698
 40
1.0
 40
1.0
 40
1.0
 40
1.0
 10
19.3246941944
 20
110.6985297774
 30
0.0
 10
19.3104721117
 20
110.6179558707
 30
0.0
 10
19.2577600068
 20
110.4553907223
 30
0.0
 10
19.1160333065
 20
110.2321625721
 30
0.0
 10
18.9165470866
 20
110.030919105
 30
0.0
 10
18.5724518933
 20
109.7925724349
 30
0.0
 10
18.0397726138
 20
109.5889874291
 30
0.0
 10
17.5770697455
 20
109.5353496115
 30
0.0
 10
17.3380394358
 20
109.5353496115
 30
0.0
  0
SPLINE
  5
277
100
AcDbEntity
  8
0
100
AcDbSpline
 62
7
  6
BYLAYER
 70
0
 71
3
 72
17
 73
13
 74
0
 42
0.0000001
 43
0.0000001
 44
0.0000000001
 40
0.0
 40
0.0
 40
0.0
 40
0.0
 40
0.0682702363
 40
0.1353273088
 40
0.2008268889
 40
0.2650065418
 40
0.3905334563
 40
0.5139697119
 40
0.636226368
 40
0.7577927306
 40
0.8789776938
 40
1.0
 40
1.0
 40
1.0
 40
1.0
 10
30.7378100789
 20
123.0113373217
 30
0.0
 10
30.9922454493
 20
123.0126136768
 30
0.0
 10
31.4996179946
 20
122.9376719336
 30
0.0
 10
32.190324296
 20
122.6320423428
 30
0.0
 10
32.7864735164
 20
122.1977276624
 30
0.0
 10
33.455669293
 20
121.5176805672
 30
0.0
 10
34.1139704869
 20
120.5429448119
 30
0.0
 10
34.6897288335
 20
119.2806525501
 30
0.0
 10
35.1024125093
 20
117.9726019504
 30
0.0
 10
35.3780456122
 20
116.6384002803
 30
0.0
 10
35.5332305524
 20
115.2899959659
 30
0.0
 10
35.562511089
 20
114.3865991959
 30
0.0
 10
35.5585931572
 20
113.9355742297
 30
0.0
  0
SPLINE
  5
278
100
AcDbEntity
  8
0
100
AcDbSpline
 62
7
  6
BYLAYER
 70
0
 71
3
 72
15
 73
11
 74
0
 42
0.0000001
 43
0.0000001
 44
0.0000000001
 40
0.0
 40
0.0
 40
0.0
 40
0.0
 40
0.0669981534
 40
0.1335179759
 40
0.2639060527
 40
0.3910835945
 40
0.5156686006
 40
0.6384037046
 40
0.7598409791
 40
1.0
 40
1.0
 40
1.0
 40
1.0
 10
28.7378261031
 20
123.001264165
 30
0.0
 10
28.5981014007
 20
123.0005613037
 30
0.0
 10
28.3192410851
 20
122.9758487849
 30
0.0
 10
27.7836846991
 20
122.8412250765
 30
0.0
 10
27.170532068
 20
122.5381129678
 30
0.0
 10
26.5461233242
 20
122.0358135353
 30
0.0
 10
26.024644339
 20
121.4507410791
 30
0.0
 10
25.5879660194
 20
120.8157973479
 30
0.0
 10
25.099522104
 20
119.9304151513
 30
0.0
 10
24.8166359151
 20
119.2276516387
 30
0.0
 10
24.6591504957
 20
118.7521968608
 30
0.0
  0
SPLINE
  5
279
100
AcDbEntity
  8
0
100
AcDbSpline
 62
7
  6
BYLAYER
 70
0
 71
3
 72
13
 73
9
 74
0
 42
0.0000001
 43
0.0000001
 44
0.0000000001
 40
0.0
 40
0.0
 40
0.0
 40
0.0
 40
0.3053470037
 40
0.5676335575
 40
0.684173011
 40
0.793408239
 40
0.8978325351
 40
1.0
 40
1.0
 40
1.0
 40
1.0
 10
37.1734063066
 20
123.3494958424
 30
0.0
 10
37.2011572694
 20
123.6077653167
 30
0.0
 10
37.327051942
 20
124.0841939126
 30
0.0
 10
37.6596175206
 20
124.5773823031
 30
0.0
 10
37.9808303366
 20
124.8440483887
 30
0.0
 10
38.2287590297
 20
124.9799312656
 30
0.0
 10
38.4868255922
 20
125.0606194583
 30
0.0
 10
38.6630816766
 20
125.0784283316
 30
0.0
 10
38.7499946742
 20
125.0784313725
 30
0.0
  0
SPLINE
  5
27A
100
AcDbEntity
  8
0
100
AcDbSpline
 62
7
  6
BYLAYER
 70
0
 71
3
 72
9
 73
5
 74
0
 42
0.0000001
 43
0.0000001
 44
0.0000000001
 40
0.0
 40
0.0
 40
0.0
 40
0.0
 40
0.2950488986
 40
1.0
 40
1.0
 40
1.0
 40
1.0
 10
37.1732965379
 20
123.3494941357
 30
0.0
 10
37.0610759744
 20
123.335677719
 30
0.0
 10
36.6808547618
 20
123.2879099514
 30
0.0
 10
36.3010000994
 20
123.2367883185
 30
0.0
 10
36.0340371917
 20
123.195416833
 30
0.0
  0
SPLINE
  5
27B
100
AcDbEntity
  8
0
100
AcDbSpline
 62
7
  6
BYLAYER
 70
0
 71
3
 72
15
 73
11
 74
0
 42
0.0000001
 43
0.0000001
 44
0.0000000001
 40
0.0
 40
0.0
 40
0.0
 40
0.0
 40
0.1814924992
 40
0.3549685184
 40
0.513653987
 40
0.6531541117
 40
0.7704320505
 40
0.8649426642
 40
0.9388458621
 40
1.0
 40
1.0
 40
1.0
 40
1.0
 10
73.7686628653
 20
123.1133351741
 30
0.0
 10
73.7678428774
 20
123.2466802511
 30
0.0
 10
73.7571622899
 20
123.5075112108
 30
0.0
 10
73.715498393
 20
123.8829338159
 30
0.0
 10
73.6497632069
 20
124.2236208632
 30
0.0
 10
73.5641249418
 20
124.5171817154
 30
0.0
 10
73.4618496511
 20
124.7551279964
 30
0.0
 10
73.3470459968
 20
124.9323847472
 30
0.0
 10
73.2200468195
 20
125.0481655685
 30
0.0
 10
73.1203328682
 20
125.0781912233
 30
0.0
 10
73.0754018602
 20
125.0784313731
 30
0.0
  0
SPLINE
  5
27C
100
AcDbEntity
  8
0
100
AcDbSpline
 62
7
  6
BYLAYER
 70
0
 71
3
 72
12
 73
8
 74
0
 42
0.0000001
 43
0.0000001
 44
0.0000000001
 40
0.0
 40
0.0
 40
0.0
 40
0.0
 40
0.2477724391
 40
0.5108649699
 40
0.6415818396
 40
0.7680741598
 40
1.0
 40
1.0
 40
1.0
 40
1.0
 10
74.9336806986
 20
103.7694472128
 30
0.0
 10
74.9351510672
 20
103.7079396738
 30
0.0
 10
74.9602905382
 20
103.5806875403
 30
0.0
 10
75.0471517317
 20
103.4419918681
 30
0.0
 10
75.1459730835
 20
103.3574850555
 30
0.0
 10
75.2524762538
 20
103.297825769
 30
0.0
 10
75.3425188879
 20
103.2788053991
 30
0.0
 10
75.4001068857
 20
103.2783023033
 30
0.0
  0
SPLINE
  5
27D
100
AcDbEntity
  8
0
100
AcDbSpline
 62
7
  6
BYLAYER
 70
0
 71
3
 72
11
 73
7
 74
0
 42
0.0000001
 43
0.0000001
 44
0.0000000001
 40
0.0
 40
0.0
 40
0.0
 40
0.0
 40
0.2579189571
 40
0.5111986713
 40
0.7579423159
 40
1.0
 40
1.0
 40
1.0
 40
1.0
 10
74.9422951814
 20
103.7697051693
 30
0.0
 10
74.9433387729
 20
103.7055804878
 30
0.0
 10
74.9686183044
 20
103.5776254422
 30
0.0
 10
75.0717279689
 20
103.4146743835
 30
0.0
 10
75.2256950489
 20
103.3045125539
 30
0.0
 10
75.3486556743
 20
103.2784313725
 30
0.0
 10
75.4088448418
 20
103.2784313725
 30
0.0
  0
LINE
  5
27E
100
AcDbEntity
  8
0
100
AcDbLine
 62
7
  6
BYLAYER
 10
74.7029492217
 20
123.1133361235
 11
74.9336793263
 21
103.7694469973
  0
LINE
  5
27F
100
AcDbEntity
  8
0
100
AcDbLine
 62
7
  6
BYLAYER
 10
77.5087451716
 20
103.7697738321
 11
77.1991826785
 21
123.1133283859
  0
SPLINE
  5
280
100
AcDbEntity
  8
0
100
AcDbSpline
 62
7
  6
BYLAYER
 70
0
 71
3
 72
10
 73
6
 74
0
 42
0.0000001
 43
0.0000001
 44
0.0000000001
 40
0.0
 40
0.0
 40
0.0
 40
0.0
 40
0.1538446445
 40
0.3928706543
 40
1.0
 40
1.0
 40
1.0
 40
1.0
 10
74.7028438957
 20
123.1133238956
 30
0.0
 10
74.6549607364
 20
123.1149394508
 30
0.0
 10
74.532610202
 20
123.1166195664
 30
0.0
 10
74.2211965589
 20
123.1177082355
 30
0.0
 10
73.9576814739
 20
123.1156019844
 30
0.0
 10
73.7686224796
 20
123.1133303914
 30
0.0
  0
SPLINE
  5
281
100
AcDbEntity
  8
0
100
AcDbSpline
 62
7
  6
BYLAYER
 70
0
 71
3
 72
9
 73
5
 74
0
 42
0.0000001
 43
0.0000001
 44
0.0000000001
 40
0.0
 40
0.0
 40
0.0
 40
0.0
 40
0.2546195698
 40
1.0
 40
1.0
 40
1.0
 40
1.0
 10
74.012678369
 20
102.7872684975
 30
0.0
 10
74.0465881955
 20
102.8292077634
 30
0.0
 10
74.1798042229
 20
102.9938870292
 30
0.0
 10
74.3138823792
 20
103.1578981248
 30
0.0
 10
74.4158580947
 20
103.2784331873
 30
0.0
  0
SPLINE
  5
282
100
AcDbEntity
  8
0
100
AcDbSpline
 62
7
  6
BYLAYER
 70
0
 71
3
 72
13
 73
9
 74
0
 42
0.0000001
 43
0.0000001
 44
0.0000000001
 40
0.0
 40
0.0
 40
0.0
 40
0.0
 40
0.0713843664
 40
0.1659076183
 40
0.2806607273
 40
0.4095777172
 40
0.6938922566
 40
1.0
 40
1.0
 40
1.0
 40
1.0
 10
74.9336793263
 20
103.7694469973
 30
0.0
 10
74.916905553
 20
103.7659271078
 30
0.0
 10
74.8796416669
 20
103.7502308865
 30
0.0
 10
74.8237141885
 20
103.7123300458
 30
0.0
 10
74.7628802216
 20
103.6583292915
 30
0.0
 10
74.6726262589
 20
103.5693153148
 30
0.0
 10
74.5557179282
 20
103.4420521439
 30
0.0
 10
74.4633228767
 20
103.3345416765
 30
0.0
 10
74.4158550091
 20
103.2784314425
 30
0.0
  0
SPLINE
  5
283
100
AcDbEntity
  8
0
100
AcDbSpline
 62
7
  6
BYLAYER
 70
0
 71
3
 72
9
 73
5
 74
0
 42
0.0000001
 43
0.0000001
 44
0.0000000001
 40
0.0
 40
0.0
 40
0.0
 40
0.0
 40
0.5238133164
 40
1.0
 40
1.0
 40
1.0
 40
1.0
 10
74.4158574742
 20
103.2784316608
 30
0.0
 10
74.4465437713
 20
103.2318427799
 30
0.0
 10
74.5108821417
 20
103.1466537315
 30
0.0
 10
74.5834808772
 20
103.0683932302
 30
0.0
 10
74.6204130723
 20
103.0336372484
 30
0.0
  0
SPLINE
  5
284
100
AcDbEntity
  8
0
100
AcDbSpline
 62
7
  6
BYLAYER
 70
0
 71
3
 72
9
 73
5
 74
0
 42
0.0000001
 43
0.0000001
 44
0.0000000001
 40
0.0
 40
0.0
 40
0.0
 40
0.0
 40
0.2475402735
 40
1.0
 40
1.0
 40
1.0
 40
1.0
 10
74.6204128102
 20
103.0336370145
 30
0.0
 10
74.5700444878
 20
103.0138435757
 30
0.0
 10
74.3669222142
 20
102.9329841283
 30
0.0
 10
74.1647199496
 20
102.8498436639
 30
0.0
 10
74.012609665
 20
102.7871996745
 30
0.0
  0
SPLINE
  5
285
100
AcDbEntity
  8
0
100
AcDbSpline
 62
7
  6
BYLAYER
 70
0
 71
3
 72
12
 73
8
 74
0
 42
0.0000001
 43
0.0000001
 44
0.0000000001
 40
0.0
 40
0.0
 40
0.0
 40
0.0
 40
0.0856854157
 40
0.1890358986
 40
0.4345075472
 40
0.7089463603
 40
1.0
 40
1.0
 40
1.0
 40
1.0
 10
75.4001010468
 20
103.2783018625
 30
0.0
 10
75.3767055797
 20
103.2776105157
 30
0.0
 10
75.3252900431
 20
103.2709556113
 30
0.0
 10
75.2094914018
 20
103.2447236937
 30
0.0
 10
75.0470063182
 20
103.19317108
 30
0.0
 10
74.8384978944
 20
103.1184471068
 30
0.0
 10
74.6944088028
 20
103.0627123623
 30
0.0
 10
74.6204111398
 20
103.0336402893
 30
0.0
  0
SPLINE
  5
286
100
AcDbEntity
  8
0
100
AcDbSpline
 62
7
  6
BYLAYER
 70
0
 71
3
 72
11
 73
7
 74
0
 42
0.0000001
 43
0.0000001
 44
0.0000000001
 40
0.0
 40
0.0
 40
0.0
 40
0.0
 40
0.3396549725
 40
0.6408492715
 40
0.8695620715
 40
1.0
 40
1.0
 40
1.0
 40
1.0
 10
78.4841905951
 20
103.7740644753
 30
0.0
 10
78.3737534371
 20
103.7728638185
 30
0.0
 10
78.1653868239
 20
103.7707879
 30
0.0
 10
77.8826331142
 20
103.768024775
 30
0.0
 10
77.6679488962
 20
103.7674232412
 30
0.0
 10
77.5511086466
 20
103.7677090671
 30
0.0
 10
77.5087451716
 20
103.7697738321
 30
0.0
  0
SPLINE
  5
287
100
AcDbEntity
  8
0
100
AcDbSpline
 62
7
  6
BYLAYER
 70
0
 71
3
 72
11
 73
7
 74
0
 42
0.0000001
 43
0.0000001
 44
0.0000000001
 40
0.0
 40
0.0
 40
0.0
 40
0.0
 40
0.2631778162
 40
0.5165910252
 40
0.7607524362
 40
1.0
 40
1.0
 40
1.0
 40
1.0
 10
77.5083178723
 20
103.7697051693
 30
0.0
 10
77.5100233538
 20
103.6984814452
 30
0.0
 10
77.5484943466
 20
103.55727868
 30
0.0
 10
77.6885385516
 20
103.3988252681
 30
0.0
 10
77.8677473785
 20
103.3035542567
 30
0.0
 10
77.9989184735
 20
103.2805324735
 30
0.0
 10
78.0636584331
 20
103.278694381
 30
0.0
  0
SPLINE
  5
288
100
AcDbEntity
  8
0
100
AcDbSpline
 62
7
  6
BYLAYER
 70
0
 71
3
 72
13
 73
9
 74
0
 42
0.0000001
 43
0.0000001
 44
0.0000000001
 40
0.0
 40
0.0
 40
0.0
 40
0.0
 40
0.2021489245
 40
0.3108910115
 40
0.4270338196
 40
0.6924625457
 40
0.8427952079
 40
1.0
 40
1.0
 40
1.0
 40
1.0
 10
78.0821709277
 20
103.2784313725
 30
0.0
 10
78.1295946487
 20
103.2784313725
 30
0.0
 10
78.2033732311
 20
103.2954274857
 30
0.0
 10
78.2903567144
 20
103.3462568661
 30
0.0
 10
78.3748235077
 20
103.4254300046
 30
0.0
 10
78.4405452011
 20
103.5352812723
 30
0.0
 10
78.4777711272
 20
103.6645598727
 30
0.0
 10
78.48672646
 20
103.7372319838
 30
0.0
 10
78.4841913195
 20
103.7740246676
 30
0.0
  0
SPLINE
  5
289
100
AcDbEntity
  8
0
100
AcDbSpline
 62
7
  6
BYLAYER
 70
0
 71
3
 72
11
 73
7
 74
0
 42
0.0000001
 43
0.0000001
 44
0.0000000001
 40
0.0
 40
0.0
 40
0.0
 40
0.0
 40
0.3312589411
 40
0.642344766
 40
0.8757472764
 40
1.0
 40
1.0
 40
1.0
 40
1.0
 10
78.1757850052
 20
123.1220623089
 30
0.0
 10
78.0680016213
 20
123.1203438336
 30
0.0
 10
77.8589950819
 20
123.1173275414
 30
0.0
 10
77.5740263455
 20
123.1139477183
 30
0.0
 10
77.3564218596
 20
123.1126694157
 30
0.0
 10
77.2400175738
 20
123.1123890761
 30
0.0
 10
77.1995947856
 20
123.1133356846
 30
0.0
  0
SPLINE
  5
28A
100
AcDbEntity
  8
0
100
AcDbSpline
 62
7
  6
BYLAYER
 70
0
 71
3
 72
9
 73
5
 74
0
 42
0.0000001
 43
0.0000001
 44
0.0000000001
 40
0.0
 40
0.0
 40
0.0
 40
0.0
 40
0.5000043134
 40
1.0
 40
1.0
 40
1.0
 40
1.0
 10
78.1757881211
 20
123.1218809583
 30
0.0
 10
78.1716795585
 20
123.3772144339
 30
0.0
 10
78.0963920161
 20
123.8891036279
 30
0.0
 10
77.8902293505
 20
124.3634902304
 30
0.0
 10
77.7594568957
 20
124.5828264537
 30
0.0
  0
SPLINE
  5
28B
100
AcDbEntity
  8
0
100
AcDbSpline
 62
7
  6
BYLAYER
 70
0
 71
3
 72
11
 73
7
 74
0
 42
0.0000001
 43
0.0000001
 44
0.0000000001
 40
0.0
 40
0.0
 40
0.0
 40
0.0
 40
0.3348495771
 40
0.6489115151
 40
0.8815585636
 40
1.0
 40
1.0
 40
1.0
 40
1.0
 10
77.759496604
 20
124.5827544083
 30
0.0
 10
77.6657753124
 20
124.5268545353
 30
0.0
 10
77.4840037605
 20
124.4187754566
 30
0.0
 10
77.2367588725
 20
124.272443082
 30
0.0
 10
77.0495682538
 20
124.1631598217
 30
0.0
 10
76.9506525378
 20
124.1056116359
 30
0.0
 10
76.9167539058
 20
124.0871506929
 30
0.0
  0
SPLINE
  5
28C
100
AcDbEntity
  8
0
100
AcDbSpline
 62
7
  6
BYLAYER
 70
0
 71
3
 72
12
 73
8
 74
0
 42
0.0000001
 43
0.0000001
 44
0.0000000001
 40
0.0
 40
0.0
 40
0.0
 40
0.0
 40
0.1099121809
 40
0.2221844019
 40
0.4590344061
 40
0.7202755349
 40
1.0
 40
1.0
 40
1.0
 40
1.0
 10
73.0754028407
 20
125.0784313725
 30
0.0
 10
73.1783316799
 20
125.0784313725
 30
0.0
 10
73.3871663213
 20
125.0538806532
 30
0.0
 10
73.7948268834
 20
124.9076355859
 30
0.0
 10
74.2523661744
 20
124.5352480438
 30
0.0
 10
74.6111278735
 20
123.8848814048
 30
0.0
 10
74.6990301804
 20
123.3752588571
 30
0.0
 10
74.7029492481
 20
123.1133361854
 30
0.0
  0
SPLINE
  5
28D
100
AcDbEntity
  8
0
100
AcDbSpline
 62
7
  6
BYLAYER
 70
0
 71
3
 72
8
 73
4
 74
0
 42
0.0000001
 43
0.0000001
 44
0.0000000001
 40
0.0
 40
0.0
 40
0.0
 40
0.0
 40
1.0
 40
1.0
 40
1.0
 40
1.0
 10
83.9560358924
 20
103.7739810204
 30
0.0
 10
84.0629873524
 20
103.6711884417
 30
0.0
 10
84.170225001
 20
103.5671136699
 30
0.0
 10
84.2604668332
 20
103.4493794746
 30
0.0
  0
SPLINE
  5
28E
100
AcDbEntity
  8
0
100
AcDbSpline
 62
7
  6
BYLAYER
 70
0
 71
3
 72
9
 73
5
 74
0
 42
0.0000001
 43
0.0000001
 44
0.0000000001
 40
0.0
 40
0.0
 40
0.0
 40
0.0
 40
0.5007247552
 40
1.0
 40
1.0
 40
1.0
 40
1.0
 10
84.2604668332
 20
103.4493794746
 30
0.0
 10
84.3193593174
 20
103.3725452719
 30
0.0
 10
84.422869307
 20
103.2068602325
 30
0.0
 10
84.4693528642
 20
103.0133583595
 30
0.0
 10
84.4710314048
 20
102.9168450397
 30
0.0
  0
SPLINE
  5
28F
100
AcDbEntity
  8
0
100
AcDbSpline
 62
7
  6
BYLAYER
 70
0
 71
3
 72
21
 73
17
 74
0
 42
0.0000001
 43
0.0000001
 44
0.0000000001
 40
0.0
 40
0.0
 40
0.0
 40
0.0
 40
0.1946420777
 40
0.3825606256
 40
0.5554281648
 40
0.7068401089
 40
0.7726853582
 40
0.8311470764
 40
0.8816670197
 40
0.9236872509
 40
0.9567359586
 40
0.980583755
 40
0.9889998139
 40
0.9950479061
 40
0.9987099899
 40
1.0
 40
1.0
 40
1.0
 40
1.0
 10
94.2380394358
 20
124.082794639
 30
0.0
 10
94.2704854028
 20
124.082794639
 30
0.0
 10
94.334256552
 20
124.0827398228
 30
0.0
 10
94.4268437585
 20
124.0825015822
 30
0.0
 10
94.5122238605
 20
124.0821117868
 30
0.0
 10
94.5772549728
 20
124.081661979
 30
0.0
 10
94.6232131427
 20
124.0812238649
 30
0.0
 10
94.6523562383
 20
124.0808866012
 30
0.0
 10
94.6775185292
 20
124.0805241394
 30
0.0
 10
94.698468789
 20
124.0801565855
 30
0.0
 10
94.7149051976
 20
124.0797464548
 30
0.0
 10
94.7258879675
 20
124.0794383827
 30
0.0
 10
94.7321306241
 20
124.0790737856
 30
0.0
 10
94.7353728847
 20
124.0789699145
 30
0.0
 10
94.736791231
 20
124.0786182165
 30
0.0
 10
94.7380394358
 20
124.0786464101
 30
0.0
 10
94.7380394358
 20
124.0784313712
 30
0.0
  0
SPLINE
  5
290
100
AcDbEntity
  8
0
100
AcDbSpline
 62
7
  6
BYLAYER
 70
0
 71
3
 72
10
 73
6
 74
0
 42
0.0000001
 43
0.0000001
 44
0.0000000001
 40
0.0
 40
0.0
 40
0.0
 40
0.0
 40
0.5153743181
 40
0.7663698324
 40
1.0
 40
1.0
 40
1.0
 40
1.0
 10
75.4317525757
 20
125.0784313721
 30
0.0
 10
75.8441333409
 20
125.0783436124
 30
0.0
 10
76.4604832948
 20
125.0257393512
 30
0.0
 10
77.2367629695
 20
124.8259289305
 30
0.0
 10
77.5963747368
 20
124.6740124736
 30
0.0
 10
77.7595510517
 20
124.5827960986
 30
0.0
  0
SPLINE
  5
291
100
AcDbEntity
  8
0
100
AcDbSpline
 62
7
  6
BYLAYER
 70
0
 71
3
 72
11
 73
7
 74
0
 42
0.0000001
 43
0.0000001
 44
0.0000000001
 40
0.0
 40
0.0
 40
0.0
 40
0.0
 40
0.3044769569
 40
0.5661137461
 40
0.7919214087
 40
1.0
 40
1.0
 40
1.0
 40
1.0
 10
76.9167686907
 20
124.0871579116
 30
0.0
 10
76.8195045675
 20
124.2467749423
 30
0.0
 10
76.6125980516
 20
124.5296389676
 30
0.0
 10
76.2389262555
 20
124.8485130489
 30
0.0
 10
75.8483579897
 20
125.0333838934
 30
0.0
 10
75.5812487607
 20
125.0761892941
 30
0.0
 10
75.4535270622
 20
125.0782536483
 30
0.0
  0
SPLINE
  5
292
100
AcDbEntity
  8
0
100
AcDbSpline
 62
7
  6
BYLAYER
 70
0
 71
3
 72
9
 73
5
 74
0
 42
0.0000001
 43
0.0000001
 44
0.0000000001
 40
0.0
 40
0.0
 40
0.0
 40
0.0
 40
0.4994152695
 40
1.0
 40
1.0
 40
1.0
 40
1.0
 10
77.1995939552
 20
123.113335805
 30
0.0
 10
77.1969442022
 20
123.2836108296
 30
0.0
 10
77.1446288586
 20
123.6251975836
 30
0.0
 10
77.0055233529
 20
123.9413525647
 30
0.0
 10
76.9167541276
 20
124.0871490256
 30
0.0
  0
ENDSEC
  0
SECTION
  2
OBJECTS
  0
DICTIONARY
  5
C
100
AcDbDictionary
280
0
281
1
  3
ACAD_GROUP
350
D
  3
ACAD_MLINESTYLE
350
17
  3
ACAD_LAYOUT
350
1A
  3
ACAD_PLOTSETTINGS
350
19
  3
ACAD_PLOTSTYLENAME
350
E
  0
DICTIONARY
  5
D
102
{ACAD_REACTORS
330
C
102
}
100
AcDbDictionary
280
0
281
1
  0
ACDBDICTIONARYWDFLT
  5
E
102
{ACAD_REACTORS
330
C
102
}
100
AcDbDictionary
281
1
  3
Normal
350
F
100
AcDbDictionaryWithDefault
340
F
  0
DICTIONARY
  5
17
102
{ACAD_REACTORS
330
C
102
}
100
AcDbDictionary
280
0
281
1
  3
Standard
350
18
  0
DICTIONARY
  5
19
102
{ACAD_REACTORS
330
C
102
}
100
AcDbDictionary
281
1
  0
DICTIONARY
  5
1A
102
{ACAD_REACTORS
330
C
102
}
100
AcDbDictionary
281
1
  3
Model
350
293
  3
Layout1
350
294
  0
ACDBPLACEHOLDER
  5
F
102
{ACAD_REACTORS
330
E
102
}
  0
MLINESTYLE
  5
18
102
{ACAD_REACTORS
330
17
102
}
100
AcDbMlineStyle
  2
STANDARD
 70
0
  3

 62
256
 51
90.0
 52
90.0
 71
2
 49
0.5
 62
256
  6
BYLAYER
 49
-0.5
 62
256
  6
BYLAYER
  0
LAYOUT
  5
293
102
{ACAD_REACTORS
330
1A
102
}
100
AcDbPlotSettings
  1

  2
none_device
  4

  6

 40
0.0
 41
0.0
 42
0.0
 43
0.0
 44
210.0
 45
297.0
 46
0.0
 47
0.0
 48
0.0
 49
0.0
140
0.0
141
0.0
142
1.0
143
1.0
 70
1024
 72
1
 73
0
 74
0
  7

 75
0
147
1.0
148
0.0
149
0.0
100
AcDbLayout
  1
Model
 70
0
 71
0
 10
0.0
 20
0.0
 11
210.0
 21
297.0
 12
0.0
 22
0.0
 32
0.0
 14
0.0
 24
0.0
 34
0.0
 15
0.0
 25
0.0
 35
0.0
146
0.0
 13
0.0
 23
0.0
 33
0.0
 16
1.0
 26
0.0
 36
0.0
 17
0.0
 27
1.0
 37
0.0
 76
0
330
210
345
0
346
0
  0
LAYOUT
  5
294
102
{ACAD_REACTORS
330
1A
102
}
100
AcDbPlotSettings
  1

  2
none_device
  4

  6

 40
0.0
 41
0.0
 42
0.0
 43
0.0
 44
210.0
 45
297.0
 46
0.0
 47
0.0
 48
0.0
 49
0.0
140
0.0
141
0.0
142
1.0
143
1.0
 70
0
 72
1
 73
0
 74
0
  7

 75
0
147
1.0
148
0.0
149
0.0
100
AcDbLayout
  1
Layout1
 70
0
 71
1
 10
0.0
 20
0.0
 11
210.0
 21
297.0
 12
0.0
 22
0.0
 32
0.0
 14
0.0
 24
0.0
 34
0.0
 15
0.0
 25
0.0
 35
0.0
146
0.0
 13
0.0
 23
0.0
 33
0.0
 16
1.0
 26
0.0
 36
0.0
 17
0.0
 27
1.0
 37
0.0
 76
0
330
211
345
0
346
0
  0
ENDSEC
  0
EOF
