999
DXF file: C:\Users\sesa63760\Dev\_Creo\CAD\MCADID0004675_3D-CAD\drw0001_2.dxf
999
Pro/ENGINEER 2019471 by Parametric Technology Corporation
  0
SECTION
  2
HEADER
  9
$ACADVER
  1
AC1024
  9
$DWGCODEPAGE
  3
ANSI_1252
  9
$EXTMAX
 10
51.0076294864
 20
72.1393617021
 30
0.0
  9
$EXTMIN
 10
0.0
 20
0.0
 30
0.0
  9
$LIMMIN
 10
0.0
 20
0.0
  9
$LIMMAX
 10
51.0076294864
 20
72.1393617021
  9
$VIEWCTR
 10
25.5038147432
 20
36.0696808511
  9
$VIEWSIZE
 40
72.1393617021
  9
$CLAYER
  8
0
  9
$LTSCALE
 40
4.7024176517
  9
$CELTYPE
  6
BYLAYER
  9
$DIMSCALE
 40
1.0
  9
$DIMASZ
 40
0.6072336844
  9
$DIMEXO
 40
1.0
  9
$DIMDLI
 40
3.2489431048
  9
$DIMEXE
 40
1.0
  9
$DIMCEN
 40
0.7694865248
  9
$DIMLFAC
 40
1.0
  9
$DIMBLK
  1
_FILLED
  9
$DIMALT
 70
0
  9
$DIMALTF
 40
0.0393700787
  9
$DIMTXT
 40
0.8501271581
  9
$DIMTOL
 70
1
  9
$DIMLIM
 70
0
  9
$DIMTFAC
 40
1.0
  9
$DIMTP
 40
0.01
  9
$DIMTM
 40
0.01
  9
$DIMGAP
 40
0.625
  9
$DIMDSEP
 70
46
  9
$AUNITS
 70
0
  9
$PDMODE
 70
3
  9
$PDSIZE
 40
0.3125
  9
$HANDSEED
  5
275
  9
$TILEMODE
 70
1
  9
$MEASUREMENT
 70
1
  9
$INSUNITS
 70
4
  0
ENDSEC
  0
SECTION
  2
CLASSES
  0
CLASS
  1
ACDBDICTIONARYWDFLT
  2
AcDbDictionaryWithDefault
  3
AutoCAD 2000
 90
0
 91
1
280
0
281
0
  0
CLASS
  1
ACDBPLACEHOLDER
  2
AcDbPlaceHolder
  3
AutoCAD 2000
 90
0
 91
1
280
0
281
0
  0
CLASS
  1
LAYOUT
  2
AcDbLayout
  3
AutoCAD 2000
 90
0
 91
0
280
0
281
0
  0
ENDSEC
  0
SECTION
  2
TABLES
  0
TABLE
  2
VPORT
  5
8
100
AcDbSymbolTable
 70
2
  0
VPORT
  5
1F4
100
AcDbSymbolTableRecord
100
AcDbViewportTableRecord
  2
*ACTIVE
 70
0
 10
0.0
 20
0.0
 11
1.0
 21
1.0
 12
25.5038147432
 22
36.0696808511
 13
0.0
 23
0.0
 14
1.0
 24
1.0
 15
0.0
 25
0.0
 16
0.0
 26
0.0
 36
1.0
 17
0.0
 27
0.0
 37
0.0
 40
72.1393617021
 41
0.7070707071
 42
50.0
 43
0.0
 44
0.0
 50
0.0
 51
0.0
 71
0
 72
100
 73
1
 74
1
 75
0
 76
0
 77
0
 78
0
  0
ENDTAB
  0
TABLE
  2
LTYPE
  5
5
100
AcDbSymbolTable
 70
6
  0
LTYPE
  5
14
100
AcDbSymbolTableRecord
100
AcDbLinetypeTableRecord
  2
BYBLOCK
 70
0
  3

 72
65
 73
0
 40
0.0
  0
LTYPE
  5
15
100
AcDbSymbolTableRecord
100
AcDbLinetypeTableRecord
  2
BYLAYER
 70
0
  3

 72
65
 73
0
 40
0.0
  0
LTYPE
  5
16
100
AcDbSymbolTableRecord
100
AcDbLinetypeTableRecord
  2
CONTINUOUS
 70
64
  3
Solid line
 72
65
 73
0
 40
0.0
  0
LTYPE
  5
1F5
100
AcDbSymbolTableRecord
100
AcDbLinetypeTableRecord
  2
CENTER
 70
64
  3
____ _ ____ _ ____ _ ____ _ ____ _ ____ _ ____
 72
65
 73
4
 40
0.6
 49
0.375
 74
0
 49
-0.075
 74
0
 49
0.075
 74
0
 49
-0.075
 74
0
  0
LTYPE
  5
1F6
100
AcDbSymbolTableRecord
100
AcDbLinetypeTableRecord
  2
HIDDEN
 70
64
  3
- - - - - - - - - - - - - - - - - - - -
 72
65
 73
2
 40
0.2
 49
0.1
 74
0
 49
-0.1
 74
0
  0
LTYPE
  5
1F7
100
AcDbSymbolTableRecord
100
AcDbLinetypeTableRecord
  2
PHANTOM
 70
64
  3
_____ _ _ _____ _ _ _____ _ _ _____
 72
65
 73
6
 40
0.8
 49
0.45
 74
0
 49
-0.05
 74
0
 49
0.1
 74
0
 49
-0.05
 74
0
 49
0.1
 74
0
 49
-0.05
 74
0
  0
LTYPE
  5
1F8
100
AcDbSymbolTableRecord
100
AcDbLinetypeTableRecord
  2
DOT
 70
64
  3
. . . . . . . . . . . . . . . . . . . .
 72
65
 73
2
 40
0.2
 49
0.1
 74
0
 49
-0.1
 74
0
  0
LTYPE
  5
1F9
100
AcDbSymbolTableRecord
100
AcDbLinetypeTableRecord
  2
DASHED
 70
64
  3
- - - - - - - - - - - - - - - - - - - -
 72
65
 73
2
 40
0.2
 49
0.1
 74
0
 49
-0.1
 74
0
  0
ENDTAB
  0
TABLE
  2
LAYER
  5
2
100
AcDbSymbolTable
 70
36
  0
LAYER
  5
10
100
AcDbSymbolTableRecord
100
AcDbLayerTableRecord
  2
0
 70
0
 62
7
  6
CONTINUOUS
370
-3
390
F
  0
LAYER
  5
1FA
100
AcDbSymbolTableRecord
100
AcDbLayerTableRecord
  2
DEFAULT_1
 70
0
 62
7
  6
CENTER
370
-3
390
F
  0
LAYER
  5
1FB
100
AcDbSymbolTableRecord
100
AcDbLayerTableRecord
  2
DEFAULT_2
 70
0
 62
7
  6
HIDDEN
370
-3
390
F
  0
LAYER
  5
1FC
100
AcDbSymbolTableRecord
100
AcDbLayerTableRecord
  2
DEFAULT_3
 70
0
 62
7
  6
PHANTOM
370
-3
390
F
  0
LAYER
  5
1FD
100
AcDbSymbolTableRecord
100
AcDbLayerTableRecord
  2
00_COMPONENTS
 70
0
 62
7
  6
CONTINUOUS
370
-3
390
F
  0
LAYER
  5
1FE
100
AcDbSymbolTableRecord
100
AcDbLayerTableRecord
  2
01_1_DEFAULT_DATUMS
 70
0
 62
7
  6
CONTINUOUS
370
-3
390
F
  0
LAYER
  5
1FF
100
AcDbSymbolTableRecord
100
AcDbLayerTableRecord
  2
01_PLANES
 70
0
 62
7
  6
CONTINUOUS
370
-3
390
F
  0
LAYER
  5
200
100
AcDbSymbolTableRecord
100
AcDbLayerTableRecord
  2
02_COORD_SYS
 70
0
 62
7
  6
CONTINUOUS
370
-3
390
F
  0
LAYER
  5
201
100
AcDbSymbolTableRecord
100
AcDbLayerTableRecord
  2
03_AXES
 70
0
 62
7
  6
CONTINUOUS
370
-3
390
F
  0
LAYER
  5
202
100
AcDbSymbolTableRecord
100
AcDbLayerTableRecord
  2
04_POINTS
 70
0
 62
7
  6
CONTINUOUS
370
-3
390
F
  0
LAYER
  5
203
100
AcDbSymbolTableRecord
100
AcDbLayerTableRecord
  2
05_CURVES
 70
0
 62
7
  6
CONTINUOUS
370
-3
390
F
  0
LAYER
  5
204
100
AcDbSymbolTableRecord
100
AcDbLayerTableRecord
  2
06_SURFS
 70
0
 62
7
  6
CONTINUOUS
370
-3
390
F
  0
LAYER
  5
205
100
AcDbSymbolTableRecord
100
AcDbLayerTableRecord
  2
07_COSMETICS
 70
0
 62
7
  6
CONTINUOUS
370
-3
390
F
  0
LAYER
  5
206
100
AcDbSymbolTableRecord
100
AcDbLayerTableRecord
  2
10_NOTES
 70
0
 62
7
  6
CONTINUOUS
370
-3
390
F
  0
LAYER
  5
207
100
AcDbSymbolTableRecord
100
AcDbLayerTableRecord
  2
11_NOTES_PUB
 70
0
 62
7
  6
CONTINUOUS
370
-3
390
F
  0
LAYER
  5
208
100
AcDbSymbolTableRecord
100
AcDbLayerTableRecord
  2
13_REF_GTOL
 70
0
 62
7
  6
CONTINUOUS
370
-3
390
F
  0
LAYER
  5
209
100
AcDbSymbolTableRecord
100
AcDbLayerTableRecord
  2
16_MISC
 70
0
 62
7
  6
CONTINUOUS
370
-3
390
F
  0
LAYER
  5
20A
100
AcDbSymbolTableRecord
100
AcDbLayerTableRecord
  2
17_NO_PRINT
 70
0
 62
7
  6
CONTINUOUS
370
-3
390
F
  0
LAYER
  5
20B
100
AcDbSymbolTableRecord
100
AcDbLayerTableRecord
  2
18_DATUM_CAMS_JOINTS
 70
0
 62
7
  6
CONTINUOUS
370
-3
390
F
  0
LAYER
  5
20C
100
AcDbSymbolTableRecord
100
AcDbLayerTableRecord
  2
19_DATUM_FUNCTIONAL
 70
0
 62
7
  6
CONTINUOUS
370
-3
390
F
  0
LAYER
  5
20D
100
AcDbSymbolTableRecord
100
AcDbLayerTableRecord
  2
20_DATUM_KINEMATIC_SCHEME
 70
0
 62
7
  6
CONTINUOUS
370
-3
390
F
  0
ENDTAB
  0
TABLE
  2
STYLE
  5
3
100
AcDbSymbolTable
 70
1
  0
STYLE
  5
11
100
AcDbSymbolTableRecord
100
AcDbTextStyleTableRecord
  2
STANDARD
 70
0
 40
0.0
 41
1.0
 50
0.0
 71
0
 42
0.2
  3
ARIAL.TTF
  4

  0
STYLE
  5
20E
100
AcDbSymbolTableRecord
100
AcDbTextStyleTableRecord
  2
TEXTSTYLE_1
 70
0
 40
0.0
 41
0.8
 50
0.0
 71
0
 42
0.2
  3
gdt
  4

  0
ENDTAB
  0
TABLE
  2
VIEW
  5
6
100
AcDbSymbolTable
 70
0
  0
ENDTAB
  0
TABLE
  2
UCS
  5
7
100
AcDbSymbolTable
 70
0
  0
ENDTAB
  0
TABLE
  2
APPID
  5
9
100
AcDbSymbolTable
 70
1
  0
APPID
  5
20F
100
AcDbSymbolTableRecord
100
AcDbRegAppTableRecord
  2
ACAD
 70
0
  0
ENDTAB
  0
TABLE
  2
BLOCK_RECORD
  5
1
100
AcDbSymbolTable
 70
0
  0
BLOCK_RECORD
  5
210
100
AcDbSymbolTableRecord
100
AcDbBlockTableRecord
  2
*Model_Space
  0
BLOCK_RECORD
  5
211
100
AcDbSymbolTableRecord
100
AcDbBlockTableRecord
  2
*Paper_Space
  0
BLOCK_RECORD
  5
212
100
AcDbSymbolTableRecord
100
AcDbBlockTableRecord
  2
_FILLED
  0
ENDTAB
  0
TABLE
  2
DIMSTYLE
  5
A
100
AcDbSymbolTable
 70
1
100
AcDbDimStyleTable
 71
0
  0
DIMSTYLE
105
213
100
AcDbSymbolTableRecord
100
AcDbDimStyleTableRecord
  2
STANDARD
 70
0
  3

  4

 40
1.0
 41
0.6072336844
 42
1.0
 43
0.38
 44
1.0
 45
0.0
 46
0.0
 47
0.01
 48
0.01
140
0.8501271581
141
0.09
142
0.0
143
25.4
144
1.0
145
0.0
146
1.0
147
0.625
 71
1
 72
0
 73
0
 74
0
 75
0
 76
0
 77
1
 78
8
 79
2
170
0
171
1
172
0
173
0
174
0
175
0
176
0
177
0
178
0
270
2
179
2
271
2
272
2
273
2
274
2
275
0
280
0
281
0
282
0
283
1
284
8
285
0
286
0
287
3
288
0
340
11
278
46
341
212
342
212
343
212
344
212
  0
ENDTAB
  0
ENDSEC
  0
SECTION
  2
BLOCKS
  0
BLOCK
  5
20
100
AcDbEntity
  8
0
100
AcDbBlockBegin
  2
*Model_Space
 70
0
 10
0.0
 20
0.0
 30
0.0
  3
*Model_Space
  1

  0
ENDBLK
  5
21
100
AcDbEntity
  8
0
100
AcDbBlockEnd
  0
BLOCK
  5
1C
100
AcDbEntity
  8
0
100
AcDbBlockBegin
  2
*Paper_Space
 70
0
 10
0.0
 20
0.0
 30
0.0
  3
*Paper_Space
  1

  0
ENDBLK
  5
1D
100
AcDbEntity
  8
0
100
AcDbBlockEnd
  0
BLOCK
  5
214
100
AcDbEntity
  8
0
100
AcDbBlockBegin
  2
_FILLED
 70
64
 10
0.0
 20
0.0
  3
_FILLED
  1

  0
SOLID
  5
215
100
AcDbEntity
  8
0
  6
BYBLOCK
 62
0
100
AcDbTrace
 10
0.0
 20
0.0
 11
-1.0
 21
0.25
 12
-1.0
 22
-0.25
 13
-1.0
 23
-0.25
  0
ENDBLK
  5
216
100
AcDbEntity
  8
0
  6
BYBLOCK
 62
0
100
AcDbBlockEnd
  0
ENDSEC
  0
SECTION
  2
ENTITIES
  0
LINE
  5
217
100
AcDbEntity
  8
0
100
AcDbLine
 62
7
  6
BYLAYER
 10
20.1568657023
 20
4.8122340426
 11
15.8571467628
 21
4.8122340426
  0
LINE
  5
218
100
AcDbEntity
  8
0
100
AcDbLine
 62
7
  6
BYLAYER
 10
12.5570062325
 20
50.9204938635
 11
12.5570062325
 21
63.5263170287
  0
LINE
  5
219
100
AcDbEntity
  8
0
100
AcDbLine
 62
7
  6
BYLAYER
 10
29.0570062325
 20
67.0622340426
 11
28.0570062325
 21
65.6340860358
  0
LINE
  5
21A
100
AcDbEntity
  8
0
100
AcDbLine
 62
7
  6
BYLAYER
 10
13.5739404278
 20
29.452528324
 11
12.8570062325
 21
31.3122340426
  0
LINE
  5
21B
100
AcDbEntity
  8
0
100
AcDbLine
 62
7
  6
BYLAYER
 10
12.8570062325
 20
31.8122340426
 11
12.8570062325
 21
31.3122340426
  0
LINE
  5
21C
100
AcDbEntity
  8
0
100
AcDbLine
 62
7
  6
BYLAYER
 10
13.3070062325
 20
44.8122340426
 11
13.3070062325
 21
42.3122340426
  0
LINE
  5
21D
100
AcDbEntity
  8
0
100
AcDbLine
 62
7
  6
BYLAYER
 10
13.6570062325
 20
40.8122340426
 11
13.6570062325
 21
31.8122340426
  0
LINE
  5
21E
100
AcDbEntity
  8
0
100
AcDbLine
 62
7
  6
BYLAYER
 10
14.2097098772
 20
50.9054256715
 11
14.2097098772
 21
65.4959325348
  0
LINE
  5
21F
100
AcDbEntity
  8
0
100
AcDbLine
 62
7
  6
BYLAYER
 10
13.3070062325
 20
44.8122340426
 11
12.5570599839
 21
50.9200560938
  0
LINE
  5
220
100
AcDbEntity
  8
0
100
AcDbLine
 62
7
  6
BYLAYER
 10
15.2840432325
 20
44.8122340426
 11
15.2840432325
 21
59.8122340426
  0
LINE
  5
221
100
AcDbEntity
  8
0
100
AcDbLine
 62
7
  6
BYLAYER
 10
15.8570062325
 20
4.8122340426
 11
15.8570062325
 21
28.8122340426
  0
LINE
  5
222
100
AcDbEntity
  8
0
100
AcDbLine
 62
7
  6
BYLAYER
 10
16.2002617698
 20
43.8122340426
 11
16.2002617698
 21
44.8122340426
  0
LINE
  5
223
100
AcDbEntity
  8
0
100
AcDbLine
 62
7
  6
BYLAYER
 10
16.7714997783
 20
59.2581071756
 11
16.7714997783
 21
44.8122340426
  0
LINE
  5
224
100
AcDbEntity
  8
0
100
AcDbLine
 62
7
  6
BYLAYER
 10
13.6570062325
 20
40.8122340426
 11
13.3070062325
 21
42.3122340426
  0
LINE
  5
225
100
AcDbEntity
  8
0
100
AcDbLine
 62
7
  6
BYLAYER
 10
14.2097098772
 20
50.9054256715
 11
14.9578597359
 21
44.8122340426
  0
LINE
  5
226
100
AcDbEntity
  8
0
100
AcDbLine
 62
7
  6
BYLAYER
 10
18.7547737846
 20
44.8122340426
 11
18.7547737846
 21
57.7782532866
  0
LWPOLYLINE
  5
227
100
AcDbEntity
  8
0
100
AcDbPolyline
 62
7
  6
BYLAYER
 90
4
 70
0
 10
23.7121572624
 20
52.1840975931
 10
23.9015622967
 20
52.6576829177
 10
24.3043388766
 20
52.9784938371
 10
24.7047041256
 20
53.0622340425
  0
LINE
  5
228
100
AcDbEntity
  8
0
100
AcDbLine
 62
7
  6
BYLAYER
 10
21.5069981766
 20
28.8122340426
 11
14.5070142885
 21
28.8122340426
  0
LINE
  5
229
100
AcDbEntity
  8
0
100
AcDbLine
 62
7
  6
BYLAYER
 10
22.4400720373
 20
29.452528324
 11
13.5739404278
 21
29.452528324
  0
LINE
  5
22A
100
AcDbEntity
  8
0
100
AcDbLine
 62
7
  6
BYLAYER
 10
19.8262086618
 20
66.4862728076
 11
19.8262086618
 21
57.1333316116
  0
LINE
  5
22B
100
AcDbEntity
  8
0
100
AcDbLine
 62
7
  6
BYLAYER
 10
19.9137506953
 20
44.8122340426
 11
19.9137506953
 21
43.8122340426
  0
LINE
  5
22C
100
AcDbEntity
  8
0
100
AcDbLine
 62
7
  6
BYLAYER
 10
20.1570062325
 20
4.8122340426
 11
20.1570062325
 21
28.8122340426
  0
LINE
  5
22D
100
AcDbEntity
  8
0
100
AcDbLine
 62
7
  6
BYLAYER
 10
20.2670192325
 20
56.9677916347
 11
20.2670192325
 21
44.8122340426
  0
LINE
  5
22E
100
AcDbEntity
  8
0
100
AcDbLine
 62
7
  6
BYLAYER
 10
20.6944503881
 20
55.6722604229
 11
20.6944495502
 21
66.5622340426
  0
LINE
  5
22F
100
AcDbEntity
  8
0
100
AcDbLine
 62
7
  6
BYLAYER
 10
21.8080614251
 20
44.8122340426
 11
23.1415049956
 21
55.6722604229
  0
LINE
  5
230
100
AcDbEntity
  8
0
100
AcDbLine
 62
7
  6
BYLAYER
 10
22.8070062325
 20
42.3122340426
 11
22.4570062325
 21
40.8122340426
  0
LINE
  5
231
100
AcDbEntity
  8
0
100
AcDbLine
 62
7
  6
BYLAYER
 10
23.1570062325
 20
31.3122340426
 11
12.8570062325
 21
31.3122340426
  0
LINE
  5
232
100
AcDbEntity
  8
0
100
AcDbLine
 62
7
  6
BYLAYER
 10
22.4570062325
 20
31.8122340426
 11
22.4570062325
 21
40.8122340426
  0
LINE
  5
233
100
AcDbEntity
  8
0
100
AcDbLine
 62
7
  6
BYLAYER
 10
22.8070062325
 20
42.3122340426
 11
22.8070062325
 21
44.8122340426
  0
LINE
  5
234
100
AcDbEntity
  8
0
100
AcDbLine
 62
7
  6
BYLAYER
 10
23.141504755
 20
56.1456949289
 11
23.141504755
 21
55.6722604229
  0
LINE
  5
235
100
AcDbEntity
  8
0
100
AcDbLine
 62
7
  6
BYLAYER
 10
23.1570062325
 20
31.8122340426
 11
23.1570062325
 21
31.3122340426
  0
LINE
  5
236
100
AcDbEntity
  8
0
100
AcDbLine
 62
7
  6
BYLAYER
 10
23.8775064357
 20
53.5307585481
 11
22.8070062325
 21
44.8122340426
  0
LINE
  5
237
100
AcDbEntity
  8
0
100
AcDbLine
 62
7
  6
BYLAYER
 10
24.8700407767
 20
54.2348541737
 11
24.704736725
 21
53.0622340426
  0
LINE
  5
238
100
AcDbEntity
  8
0
100
AcDbLine
 62
7
  6
BYLAYER
 10
12.8570159699
 20
31.8122340426
 11
23.1569964952
 21
31.8122340426
  0
LINE
  5
239
100
AcDbEntity
  8
0
100
AcDbLine
 62
7
  6
BYLAYER
 10
25.0570062325
 20
66.5622340426
 11
25.0570062325
 21
53.0622340426
  0
LINE
  5
23A
100
AcDbEntity
  8
0
100
AcDbLine
 62
7
  6
BYLAYER
 10
26.0570062325
 20
65.5622229328
 11
26.0570062325
 21
54.0622340426
  0
LINE
  5
23B
100
AcDbEntity
  8
0
100
AcDbLine
 62
7
  6
BYLAYER
 10
22.4400720373
 20
29.452528324
 11
23.1570062325
 21
31.3122340426
  0
LINE
  5
23C
100
AcDbEntity
  8
0
100
AcDbLine
 62
7
  6
BYLAYER
 10
28.0570062325
 20
53.9903820493
 11
28.0570062325
 21
65.6340860358
  0
LINE
  5
23D
100
AcDbEntity
  8
0
100
AcDbLine
 62
7
  6
BYLAYER
 10
29.0570062325
 20
52.5622340426
 11
29.0570062325
 21
67.0622340426
  0
LINE
  5
23E
100
AcDbEntity
  8
0
100
AcDbLine
 62
7
  6
BYLAYER
 10
13.6570062325
 20
40.8122340426
 11
22.4570062325
 21
40.8122340426
  0
LINE
  5
23F
100
AcDbEntity
  8
0
100
AcDbLine
 62
7
  6
BYLAYER
 10
33.0570062325
 20
67.0622340426
 11
33.0570062325
 21
52.5622340426
  0
LINE
  5
240
100
AcDbEntity
  8
0
100
AcDbLine
 62
7
  6
BYLAYER
 10
34.5570062325
 20
52.5622340426
 11
34.5570062325
 21
67.0622340426
  0
LINE
  5
241
100
AcDbEntity
  8
0
100
AcDbLine
 62
7
  6
BYLAYER
 10
22.8070062325
 20
43.8122340426
 11
19.9137506953
 21
43.8122340426
  0
LINE
  5
242
100
AcDbEntity
  8
0
100
AcDbLine
 62
7
  6
BYLAYER
 10
16.2002617698
 20
43.8122340426
 11
13.3070062325
 21
43.8122340426
  0
LINE
  5
243
100
AcDbEntity
  8
0
100
AcDbLine
 62
7
  6
BYLAYER
 10
13.3070062325
 20
44.8122340426
 11
22.8070062325
 21
44.8122340426
  0
LINE
  5
244
100
AcDbEntity
  8
0
100
AcDbLine
 62
7
  6
BYLAYER
 10
38.4570062325
 20
67.0622340426
 11
38.4570062325
 21
52.5622340426
  0
LINE
  5
245
100
AcDbEntity
  8
0
100
AcDbLine
 62
7
  6
BYLAYER
 10
38.6570062325
 20
63.4972340426
 11
38.6570062325
 21
59.0622340426
  0
LINE
  5
246
100
AcDbEntity
  8
0
100
AcDbLine
 62
7
  6
BYLAYER
 10
38.6570062325
 20
55.6310260831
 11
38.6570062325
 21
55.4622340426
  0
LINE
  5
247
100
AcDbEntity
  8
0
100
AcDbLine
 62
7
  6
BYLAYER
 10
39.1570062325
 20
62.9972340426
 11
39.1570062325
 21
55.9622340426
  0
LINE
  5
248
100
AcDbEntity
  8
0
100
AcDbLine
 62
7
  6
BYLAYER
 10
28.0570062325
 20
53.9903820493
 11
29.0570062325
 21
52.5622340426
  0
LINE
  5
249
100
AcDbEntity
  8
0
100
AcDbLine
 62
7
  6
BYLAYER
 10
38.4570062325
 20
52.5622340426
 11
34.5570062325
 21
52.5622340426
  0
LINE
  5
24A
100
AcDbEntity
  8
0
100
AcDbLine
 62
7
  6
BYLAYER
 10
33.0570062325
 20
52.5622340426
 11
29.0570062325
 21
52.5622340426
  0
LINE
  5
24B
100
AcDbEntity
  8
0
100
AcDbLine
 62
7
  6
BYLAYER
 10
34.5570062325
 20
52.7122340426
 11
33.0570062325
 21
52.7122340426
  0
LINE
  5
24C
100
AcDbEntity
  8
0
100
AcDbLine
 62
7
  6
BYLAYER
 10
24.704736725
 20
53.0622340426
 11
25.0570062325
 21
53.0622340426
  0
LINE
  5
24D
100
AcDbEntity
  8
0
100
AcDbLine
 62
7
  6
BYLAYER
 10
26.0570062325
 20
55.1122340426
 11
28.0570062325
 21
55.1122340426
  0
LINE
  5
24E
100
AcDbEntity
  8
0
100
AcDbLine
 62
7
  6
BYLAYER
 10
38.4570062325
 20
55.4622340426
 11
38.6570062325
 21
55.4622340426
  0
LINE
  5
24F
100
AcDbEntity
  8
0
100
AcDbLine
 62
7
  6
BYLAYER
 10
38.6570062325
 20
55.6310260831
 11
38.4570062325
 21
55.6310260831
  0
LINE
  5
250
100
AcDbEntity
  8
0
100
AcDbLine
 62
7
  6
BYLAYER
 10
20.6944579744
 20
55.6722604229
 11
23.1415049956
 21
55.6722604229
  0
LINE
  5
251
100
AcDbEntity
  8
0
100
AcDbLine
 62
7
  6
BYLAYER
 10
23.141504755
 20
56.1456949289
 11
20.6944503881
 21
56.1456949289
  0
LINE
  5
252
100
AcDbEntity
  8
0
100
AcDbLine
 62
7
  6
BYLAYER
 10
38.4570062325
 20
56.328094981
 11
39.1570062325
 21
56.328094981
  0
LINE
  5
253
100
AcDbEntity
  8
0
100
AcDbLine
 62
7
  6
BYLAYER
 10
15.2840432325
 20
58.221502984
 11
16.7714997783
 21
58.221502984
  0
LINE
  5
254
100
AcDbEntity
  8
0
100
AcDbLine
 62
7
  6
BYLAYER
 10
38.4570062325
 20
59.0622340426
 11
39.1570062325
 21
59.0622340426
  0
LINE
  5
255
100
AcDbEntity
  8
0
100
AcDbLine
 62
7
  6
BYLAYER
 10
15.4886168741
 20
59.8122340426
 11
12.5570554864
 21
59.8122340426
  0
LINE
  5
256
100
AcDbEntity
  8
0
100
AcDbLine
 62
7
  6
BYLAYER
 10
39.1570062325
 20
60.5622340426
 11
38.4570062325
 21
60.5622340426
  0
LINE
  5
257
100
AcDbEntity
  8
0
100
AcDbLine
 62
7
  6
BYLAYER
 10
38.6570062325
 20
63.4972340426
 11
38.4570062325
 21
63.4972340426
  0
LINE
  5
258
100
AcDbEntity
  8
0
100
AcDbLine
 62
7
  6
BYLAYER
 10
28.0570062325
 20
64.5122340426
 11
26.0570062325
 21
64.5122340426
  0
LINE
  5
259
100
AcDbEntity
  8
0
100
AcDbLine
 62
7
  6
BYLAYER
 10
14.2097098772
 20
65.4959325348
 11
19.8262086618
 21
66.4862728076
  0
LINE
  5
25A
100
AcDbEntity
  8
0
100
AcDbLine
 62
7
  6
BYLAYER
 10
20.6944495502
 20
66.5622340426
 11
19.8262086618
 21
66.4862728076
  0
LINE
  5
25B
100
AcDbEntity
  8
0
100
AcDbLine
 62
7
  6
BYLAYER
 10
25.0570062325
 20
66.5622340426
 11
20.6944495502
 21
66.5622340426
  0
LINE
  5
25C
100
AcDbEntity
  8
0
100
AcDbLine
 62
7
  6
BYLAYER
 10
33.0570062325
 20
66.9122340426
 11
34.5570062325
 21
66.9122340426
  0
LINE
  5
25D
100
AcDbEntity
  8
0
100
AcDbLine
 62
7
  6
BYLAYER
 10
29.0570062325
 20
67.0622340426
 11
33.0570062325
 21
67.0622340426
  0
LINE
  5
25E
100
AcDbEntity
  8
0
100
AcDbLine
 62
7
  6
BYLAYER
 10
34.5570062325
 20
67.0622340426
 11
38.4570062325
 21
67.0622340426
  0
ARC
  5
25F
100
AcDbEntity
  8
0
100
AcDbCircle
 62
7
  6
BYLAYER
 10
20.6949679403
 20
58.5886772
 40
2.9164176851
100
AcDbArc
 50
261.5620735775
 51
269.9899812395
  0
ARC
  5
260
100
AcDbEntity
  8
0
100
AcDbCircle
 62
7
  6
BYLAYER
 10
20.6949576459
 20
58.4996277639
 40
2.353934731
100
AcDbArc
 50
259.5253408556
 51
269.9876327299
  0
ARC
  5
261
100
AcDbEntity
  8
0
100
AcDbCircle
 62
7
  6
BYLAYER
 10
14.5570062325
 20
63.5263170287
 40
2.0
100
AcDbArc
 50
100.0
 51
180.0
  0
ARC
  5
262
100
AcDbEntity
  8
0
100
AcDbCircle
 62
7
  6
BYLAYER
 10
20.7128741996
 20
58.8243000559
 40
1.9093218253
100
AcDbArc
 50
242.3295653187
 51
256.4958680049
  0
ARC
  5
263
100
AcDbEntity
  8
0
100
AcDbCircle
 62
7
  6
BYLAYER
 10
21.5070062325
 20
29.8122340426
 40
1.0
100
AcDbArc
 50
270.0
 51
338.9178757013
  0
ARC
  5
264
100
AcDbEntity
  8
0
100
AcDbCircle
 62
7
  6
BYLAYER
 10
14.5070062325
 20
29.8122340426
 40
1.0
100
AcDbArc
 50
201.0821242987
 51
270.0
  0
ARC
  5
265
100
AcDbEntity
  8
0
100
AcDbCircle
 62
7
  6
BYLAYER
 10
25.0570062325
 20
54.0622340426
 40
1.0
100
AcDbArc
 50
270.0
 51
360.0
  0
ARC
  5
266
100
AcDbEntity
  8
0
100
AcDbCircle
 62
7
  6
BYLAYER
 10
25.0570062325
 20
65.5622340426
 40
1.0
100
AcDbArc
 50
0.0
 51
90.0
  0
ARC
  5
267
100
AcDbEntity
  8
0
100
AcDbCircle
 62
7
  6
BYLAYER
 10
38.6570062325
 20
55.9622340426
 40
0.5
100
AcDbArc
 50
270.0
 51
360.0
  0
ARC
  5
268
100
AcDbEntity
  8
0
100
AcDbCircle
 62
7
  6
BYLAYER
 10
38.6570062325
 20
62.9972340426
 40
0.5
100
AcDbArc
 50
0.0
 51
90.0
  0
SPLINE
  5
269
100
AcDbEntity
  8
0
100
AcDbSpline
 62
7
  6
BYLAYER
 70
0
 71
3
 72
21
 73
17
 74
0
 42
0.0000001
 43
0.0000001
 44
0.0000000001
 40
0.0
 40
0.0
 40
0.0
 40
0.0
 40
0.0029871514
 40
0.0076130918
 40
0.0228748141
 40
0.0465848221
 40
0.0788084915
 40
0.1194222357
 40
0.1682034479
 40
0.2247999583
 40
0.2887879974
 40
0.3597146864
 40
0.437024989
 40
0.6084413591
 40
0.7980645651
 40
1.0
 40
1.0
 40
1.0
 40
1.0
 10
12.5570412069
 20
50.9202046651
 30
0.0
 10
12.5572427194
 20
50.9185634769
 30
0.0
 10
12.5598808889
 20
50.9148471476
 30
0.0
 10
12.5705142351
 20
50.9080142615
 30
0.0
 10
12.5937207246
 20
50.9002611673
 30
0.0
 10
12.6323228418
 20
50.8926317729
 30
0.0
 10
12.6854985795
 20
50.8865186678
 30
0.0
 10
12.7526261188
 20
50.881576253
 30
0.0
 10
12.8333588575
 20
50.8776951472
 30
0.0
 10
12.9270688299
 20
50.8748753382
 30
0.0
 10
13.0330703305
 20
50.8732680173
 30
0.0
 10
13.1505476499
 20
50.8729641085
 30
0.0
 10
13.327486439
 20
50.8743204995
 30
0.0
 10
13.5700895114
 20
50.8793646025
 30
0.0
 10
13.8815466392
 20
50.889947879
 30
0.0
 10
14.0980726813
 20
50.8997829124
 30
0.0
 10
14.2097098772
 20
50.9054256715
 30
0.0
  0
SPLINE
  5
26A
100
AcDbEntity
  8
0
100
AcDbSpline
 62
7
  6
BYLAYER
 70
0
 71
3
 72
21
 73
17
 74
0
 42
0.0000001
 43
0.0000001
 44
0.0000000001
 40
0.0
 40
0.0
 40
0.0
 40
0.0
 40
0.1249592121
 40
0.1874565074
 40
0.2499648151
 40
0.3124800963
 40
0.3749933065
 40
0.437500937
 40
0.5000017213
 40
0.5625022201
 40
0.6250082057
 40
0.6875209224
 40
0.750035857
 40
0.8125438493
 40
0.8750409147
 40
1.0
 40
1.0
 40
1.0
 40
1.0
 10
19.9137506953
 20
43.8122340426
 30
0.0
 10
19.8022847846
 20
43.6383149565
 30
0.0
 10
19.6259159819
 20
43.3828349863
 30
0.0
 10
19.3638588929
 20
43.0630310608
 30
0.0
 10
19.1504701584
 20
42.8376852723
 30
0.0
 10
18.916089572
 20
42.6337734923
 30
0.0
 10
18.6561463201
 20
42.4625470054
 30
0.0
 10
18.3677913767
 20
42.3421348046
 30
0.0
 10
18.056998513
 20
42.297281883
 30
0.0
 10
17.7462116678
 20
42.3421470817
 30
0.0
 10
17.4578583913
 20
42.4625513822
 30
0.0
 10
17.1979194149
 20
42.6337777297
 30
0.0
 10
16.9635399556
 20
42.8376875991
 30
0.0
 10
16.7501527307
 20
43.0630328724
 30
0.0
 10
16.4880958237
 20
43.3828354578
 30
0.0
 10
16.3117275674
 20
43.6383151329
 30
0.0
 10
16.2002617698
 20
43.8122340426
 30
0.0
  0
SPLINE
  5
26B
100
AcDbEntity
  8
0
100
AcDbSpline
 62
7
  6
BYLAYER
 70
0
 71
3
 72
21
 73
17
 74
0
 42
0.0000001
 43
0.0000001
 44
0.0000000001
 40
0.0
 40
0.0
 40
0.0
 40
0.0
 40
0.1198448376
 40
0.2446877922
 40
0.3733178929
 40
0.5042870119
 40
0.5701196332
 40
0.6358007247
 40
0.7009549327
 40
0.7650774567
 40
0.8274809484
 40
0.8873194731
 40
0.9161565251
 40
0.9443064971
 40
0.9721019979
 40
1.0
 40
1.0
 40
1.0
 40
1.0
 10
23.8775052675
 20
53.5307490336
 30
0.0
 10
23.8893660754
 20
53.6273549775
 30
0.0
 10
23.9011695604
 20
53.826210282
 30
0.0
 10
23.8897413133
 20
54.1295329375
 30
0.0
 10
23.8524758545
 20
54.4398384195
 30
0.0
 10
23.8008599827
 20
54.6993609574
 30
0.0
 10
23.7460550861
 20
54.9054344313
 30
0.0
 10
23.6975232042
 20
55.0576866249
 30
0.0
 10
23.6406789229
 20
55.2055756423
 30
0.0
 10
23.5739319443
 20
55.3464599257
 30
0.0
 10
23.4949362703
 20
55.4759127736
 30
0.0
 10
23.414221829
 20
55.5698213864
 30
0.0
 10
23.3384086652
 20
55.6275253978
 30
0.0
 10
23.2764875022
 20
55.6587526202
 30
0.0
 10
23.2097463401
 20
55.6751693744
 30
0.0
 10
23.1640053677
 20
55.6749219038
 30
0.0
 10
23.1415057566
 20
55.6722542024
 30
0.0
  0
SPLINE
  5
26C
100
AcDbEntity
  8
0
100
AcDbSpline
 62
7
  6
BYLAYER
 70
0
 71
3
 72
14
 73
10
 74
0
 42
0.0000001
 43
0.0000001
 44
0.0000000001
 40
0.0
 40
0.0
 40
0.0
 40
0.0
 40
0.1070459195
 40
0.2210913865
 40
0.3426190513
 40
0.4706255496
 40
0.6035028575
 40
0.7384210246
 40
1.0
 40
1.0
 40
1.0
 40
1.0
 10
23.8775064207
 20
53.5307584261
 30
0.0
 10
23.8832999572
 20
53.5779430731
 30
0.0
 10
23.905757783
 20
53.6743796063
 30
0.0
 10
23.9709986474
 20
53.8131091598
 30
0.0
 10
24.0704096452
 20
53.9418624069
 30
0.0
 10
24.1995388514
 20
54.0538661698
 30
0.0
 10
24.3533211997
 20
54.141192644
 30
0.0
 10
24.5752912229
 20
54.2211147702
 30
0.0
 10
24.753973613
 20
54.2396492033
 30
0.0
 10
24.8700525115
 20
54.235126261
 30
0.0
  0
SPLINE
  5
26D
100
AcDbEntity
  8
0
100
AcDbSpline
 62
7
  6
BYLAYER
 70
0
 71
3
 72
17
 73
13
 74
0
 42
0.0000001
 43
0.0000001
 44
0.0000000001
 40
0.0
 40
0.0
 40
0.0
 40
0.0
 40
0.0953036326
 40
0.1852897958
 40
0.2672314093
 40
0.3426110174
 40
0.4795339905
 40
0.6033609347
 40
0.7165962118
 40
0.7695666379
 40
0.8201658724
 40
1.0
 40
1.0
 40
1.0
 40
1.0
 10
23.1415027947
 20
56.1456960164
 30
0.0
 10
23.2311848631
 20
56.1456994658
 30
0.0
 10
23.4061317208
 20
56.1278539256
 30
0.0
 10
23.6474937194
 20
56.0524399061
 30
0.0
 10
23.8557360793
 20
55.9466274474
 30
0.0
 10
24.0845637628
 20
55.7897430852
 30
0.0
 10
24.317001462
 20
55.5725915526
 30
0.0
 10
24.5361823634
 20
55.2960105729
 30
0.0
 10
24.6768136863
 20
55.0611658207
 30
0.0
 10
24.7626525913
 20
54.8757134548
 30
0.0
 10
24.8559516862
 20
54.6266076885
 30
0.0
 10
24.8936980691
 20
54.4024166821
 30
0.0
 10
24.8700180694
 20
54.2348551918
 30
0.0
  0
SPLINE
  5
26E
100
AcDbEntity
  8
0
100
AcDbSpline
 62
7
  6
BYLAYER
 70
0
 71
3
 72
9
 73
5
 74
0
 42
0.0000001
 43
0.0000001
 44
0.0000000001
 40
0.0
 40
0.0
 40
0.0
 40
0.0
 40
0.5000590321
 40
1.0
 40
1.0
 40
1.0
 40
1.0
 10
19.8262138372
 20
57.1333414319
 30
0.0
 10
19.6413705759
 20
57.2299572025
 30
0.0
 10
19.2761449799
 20
57.4317627088
 30
0.0
 10
18.9245430633
 20
57.6571769004
 30
0.0
 10
18.7547737846
 20
57.7782532866
 30
0.0
  0
SPLINE
  5
26F
100
AcDbEntity
  8
0
100
AcDbSpline
 62
7
  6
BYLAYER
 70
0
 71
3
 72
10
 73
6
 74
0
 42
0.0000001
 43
0.0000001
 44
0.0000000001
 40
0.0
 40
0.0
 40
0.0
 40
0.0
 40
0.4992163542
 40
0.7493578767
 40
1.0
 40
1.0
 40
1.0
 40
1.0
 10
18.7547737615
 20
56.2188504303
 30
0.0
 10
18.4172115218
 20
56.3581265988
 30
0.0
 10
17.9142069995
 20
56.576601494
 30
0.0
 10
17.2557450348
 20
56.8953731669
 30
0.0
 10
16.9316757899
 20
57.0664049252
 30
0.0
 10
16.7714997531
 20
57.1556064762
 30
0.0
  0
SPLINE
  5
270
100
AcDbEntity
  8
0
100
AcDbSpline
 62
7
  6
BYLAYER
 70
0
 71
3
 72
9
 73
5
 74
0
 42
0.0000001
 43
0.0000001
 44
0.0000000001
 40
0.0
 40
0.0
 40
0.0
 40
0.0
 40
0.4991618885
 40
1.0
 40
1.0
 40
1.0
 40
1.0
 10
15.4886168741
 20
59.8122340426
 30
0.0
 10
15.7069080697
 20
59.7318542434
 30
0.0
 10
16.1405773648
 20
59.5606988955
 30
0.0
 10
16.5637479961
 20
59.3644800545
 30
0.0
 10
16.7714997783
 20
59.2581071756
 30
0.0
  0
SPLINE
  5
271
100
AcDbEntity
  8
0
100
AcDbSpline
 62
7
  6
BYLAYER
 70
0
 71
3
 72
10
 73
6
 74
0
 42
0.0000001
 43
0.0000001
 44
0.0000000001
 40
0.0
 40
0.0
 40
0.0
 40
0.0
 40
0.2492541555
 40
0.4991064014
 40
1.0
 40
1.0
 40
1.0
 40
1.0
 10
16.7714997619
 20
57.5479521007
 30
0.0
 10
16.9314500566
 20
57.4665857011
 30
0.0
 10
17.2553941869
 20
57.3108022056
 30
0.0
 10
17.9143497109
 20
57.0205449804
 30
0.0
 10
18.4172370474
 20
56.8217907353
 30
0.0
 10
18.754773762
 20
56.6948142823
 30
0.0
  0
SPLINE
  5
272
100
AcDbEntity
  8
0
100
AcDbSpline
 62
7
  6
BYLAYER
 70
0
 71
3
 72
11
 73
7
 74
0
 42
0.0000001
 43
0.0000001
 44
0.0000000001
 40
0.0
 40
0.0
 40
0.0
 40
0.0
 40
0.2501994166
 40
0.5002311776
 40
0.7501336463
 40
1.0
 40
1.0
 40
1.0
 40
1.0
 10
39.1570062325
 20
56.1540240978
 30
0.0
 10
39.1570062325
 20
56.0874120629
 30
0.0
 10
39.1325450734
 20
55.9528999484
 30
0.0
 10
39.0246158369
 20
55.7791700154
 30
0.0
 10
38.858183468
 20
55.6596077701
 30
0.0
 10
38.7235295942
 20
55.6310260831
 30
0.0
 10
38.6570062325
 20
55.6310260831
 30
0.0
  0
ENDSEC
  0
SECTION
  2
OBJECTS
  0
DICTIONARY
  5
C
100
AcDbDictionary
280
0
281
1
  3
ACAD_GROUP
350
D
  3
ACAD_MLINESTYLE
350
17
  3
ACAD_LAYOUT
350
1A
  3
ACAD_PLOTSETTINGS
350
19
  3
ACAD_PLOTSTYLENAME
350
E
  0
DICTIONARY
  5
D
102
{ACAD_REACTORS
330
C
102
}
100
AcDbDictionary
280
0
281
1
  0
ACDBDICTIONARYWDFLT
  5
E
102
{ACAD_REACTORS
330
C
102
}
100
AcDbDictionary
281
1
  3
Normal
350
F
100
AcDbDictionaryWithDefault
340
F
  0
DICTIONARY
  5
17
102
{ACAD_REACTORS
330
C
102
}
100
AcDbDictionary
280
0
281
1
  3
Standard
350
18
  0
DICTIONARY
  5
19
102
{ACAD_REACTORS
330
C
102
}
100
AcDbDictionary
281
1
  0
DICTIONARY
  5
1A
102
{ACAD_REACTORS
330
C
102
}
100
AcDbDictionary
281
1
  3
Model
350
273
  3
Layout1
350
274
  0
ACDBPLACEHOLDER
  5
F
102
{ACAD_REACTORS
330
E
102
}
  0
MLINESTYLE
  5
18
102
{ACAD_REACTORS
330
17
102
}
100
AcDbMlineStyle
  2
STANDARD
 70
0
  3

 62
256
 51
90.0
 52
90.0
 71
2
 49
0.5
 62
256
  6
BYLAYER
 49
-0.5
 62
256
  6
BYLAYER
  0
LAYOUT
  5
273
102
{ACAD_REACTORS
330
1A
102
}
100
AcDbPlotSettings
  1

  2
none_device
  4

  6

 40
0.0
 41
0.0
 42
0.0
 43
0.0
 44
210.0
 45
297.0
 46
0.0
 47
0.0
 48
0.0
 49
0.0
140
0.0
141
0.0
142
1.0
143
1.0
 70
1024
 72
1
 73
0
 74
0
  7

 75
0
147
1.0
148
0.0
149
0.0
100
AcDbLayout
  1
Model
 70
0
 71
0
 10
0.0
 20
0.0
 11
210.0
 21
297.0
 12
0.0
 22
0.0
 32
0.0
 14
0.0
 24
0.0
 34
0.0
 15
0.0
 25
0.0
 35
0.0
146
0.0
 13
0.0
 23
0.0
 33
0.0
 16
1.0
 26
0.0
 36
0.0
 17
0.0
 27
1.0
 37
0.0
 76
0
330
210
345
0
346
0
  0
LAYOUT
  5
274
102
{ACAD_REACTORS
330
1A
102
}
100
AcDbPlotSettings
  1

  2
none_device
  4

  6

 40
0.0
 41
0.0
 42
0.0
 43
0.0
 44
210.0
 45
297.0
 46
0.0
 47
0.0
 48
0.0
 49
0.0
140
0.0
141
0.0
142
1.0
143
1.0
 70
0
 72
1
 73
0
 74
0
  7

 75
0
147
1.0
148
0.0
149
0.0
100
AcDbLayout
  1
Layout1
 70
0
 71
1
 10
0.0
 20
0.0
 11
210.0
 21
297.0
 12
0.0
 22
0.0
 32
0.0
 14
0.0
 24
0.0
 34
0.0
 15
0.0
 25
0.0
 35
0.0
146
0.0
 13
0.0
 23
0.0
 33
0.0
 16
1.0
 26
0.0
 36
0.0
 17
0.0
 27
1.0
 37
0.0
 76
0
330
211
345
0
346
0
  0
ENDSEC
  0
EOF
