999
DXF file: C:\Users\sesa63760\Dev\_Creo\CAD\MCADPD0003998_3D-CAD\drw0001_1.dxf
999
Pro/ENGINEER 2019471 by Parametric Technology Corporation
  0
SECTION
  2
HEADER
  9
$ACADVER
  1
AC1024
  9
$DWGCODEPAGE
  3
ANSI_1252
  9
$EXTMAX
 10
100.3979307694
 20
141.9913592311
 30
0.0
  9
$EXTMIN
 10
0.0
 20
0.0
 30
0.0
  9
$LIMMIN
 10
0.0
 20
0.0
  9
$LIMMAX
 10
100.3979307694
 20
141.9913592311
  9
$VIEWCTR
 10
50.1989653847
 20
70.9956796155
  9
$VIEWSIZE
 40
141.9913592311
  9
$CLAYER
  8
0
  9
$LTSCALE
 40
9.2557330462
  9
$CELTYPE
  6
BYLAYER
  9
$DIMSCALE
 40
1.0
  9
$DIMASZ
 40
1.1952134615
  9
$DIMEXO
 40
1.0
  9
$DIMDLI
 40
6.3948701046
  9
$DIMEXE
 40
1.0
  9
$DIMCEN
 40
1.5145744985
  9
$DIMLFAC
 40
1.0
  9
$DIMBLK
  1
_FILLED
  9
$DIMALT
 70
0
  9
$DIMALTF
 40
0.0393700787
  9
$DIMTXT
 40
1.6732988462
  9
$DIMTOL
 70
1
  9
$DIMLIM
 70
0
  9
$DIMTFAC
 40
1.0
  9
$DIMTP
 40
0.01
  9
$DIMTM
 40
0.01
  9
$DIMGAP
 40
0.625
  9
$DIMDSEP
 70
46
  9
$AUNITS
 70
0
  9
$PDMODE
 70
3
  9
$PDSIZE
 40
0.3125
  9
$HANDSEED
  5
380
  9
$TILEMODE
 70
1
  9
$MEASUREMENT
 70
1
  9
$INSUNITS
 70
4
  0
ENDSEC
  0
SECTION
  2
CLASSES
  0
CLASS
  1
ACDBDICTIONARYWDFLT
  2
AcDbDictionaryWithDefault
  3
AutoCAD 2000
 90
0
 91
1
280
0
281
0
  0
CLASS
  1
ACDBPLACEHOLDER
  2
AcDbPlaceHolder
  3
AutoCAD 2000
 90
0
 91
1
280
0
281
0
  0
CLASS
  1
LAYOUT
  2
AcDbLayout
  3
AutoCAD 2000
 90
0
 91
0
280
0
281
0
  0
ENDSEC
  0
SECTION
  2
TABLES
  0
TABLE
  2
VPORT
  5
8
100
AcDbSymbolTable
 70
2
  0
VPORT
  5
1F4
100
AcDbSymbolTableRecord
100
AcDbViewportTableRecord
  2
*ACTIVE
 70
0
 10
0.0
 20
0.0
 11
1.0
 21
1.0
 12
50.1989653847
 22
70.9956796155
 13
0.0
 23
0.0
 14
1.0
 24
1.0
 15
0.0
 25
0.0
 16
0.0
 26
0.0
 36
1.0
 17
0.0
 27
0.0
 37
0.0
 40
141.9913592311
 41
0.7070707071
 42
50.0
 43
0.0
 44
0.0
 50
0.0
 51
0.0
 71
0
 72
100
 73
1
 74
1
 75
0
 76
0
 77
0
 78
0
  0
ENDTAB
  0
TABLE
  2
LTYPE
  5
5
100
AcDbSymbolTable
 70
6
  0
LTYPE
  5
14
100
AcDbSymbolTableRecord
100
AcDbLinetypeTableRecord
  2
BYBLOCK
 70
0
  3

 72
65
 73
0
 40
0.0
  0
LTYPE
  5
15
100
AcDbSymbolTableRecord
100
AcDbLinetypeTableRecord
  2
BYLAYER
 70
0
  3

 72
65
 73
0
 40
0.0
  0
LTYPE
  5
16
100
AcDbSymbolTableRecord
100
AcDbLinetypeTableRecord
  2
CONTINUOUS
 70
64
  3
Solid line
 72
65
 73
0
 40
0.0
  0
LTYPE
  5
1F5
100
AcDbSymbolTableRecord
100
AcDbLinetypeTableRecord
  2
CENTER
 70
64
  3
____ _ ____ _ ____ _ ____ _ ____ _ ____ _ ____
 72
65
 73
4
 40
0.6
 49
0.375
 74
0
 49
-0.075
 74
0
 49
0.075
 74
0
 49
-0.075
 74
0
  0
LTYPE
  5
1F6
100
AcDbSymbolTableRecord
100
AcDbLinetypeTableRecord
  2
HIDDEN
 70
64
  3
- - - - - - - - - - - - - - - - - - - -
 72
65
 73
2
 40
0.2
 49
0.1
 74
0
 49
-0.1
 74
0
  0
LTYPE
  5
1F7
100
AcDbSymbolTableRecord
100
AcDbLinetypeTableRecord
  2
PHANTOM
 70
64
  3
_____ _ _ _____ _ _ _____ _ _ _____
 72
65
 73
6
 40
0.8
 49
0.45
 74
0
 49
-0.05
 74
0
 49
0.1
 74
0
 49
-0.05
 74
0
 49
0.1
 74
0
 49
-0.05
 74
0
  0
LTYPE
  5
1F8
100
AcDbSymbolTableRecord
100
AcDbLinetypeTableRecord
  2
DOT
 70
64
  3
. . . . . . . . . . . . . . . . . . . .
 72
65
 73
2
 40
0.2
 49
0.1
 74
0
 49
-0.1
 74
0
  0
LTYPE
  5
1F9
100
AcDbSymbolTableRecord
100
AcDbLinetypeTableRecord
  2
DASHED
 70
64
  3
- - - - - - - - - - - - - - - - - - - -
 72
65
 73
2
 40
0.2
 49
0.1
 74
0
 49
-0.1
 74
0
  0
ENDTAB
  0
TABLE
  2
LAYER
  5
2
100
AcDbSymbolTable
 70
36
  0
LAYER
  5
10
100
AcDbSymbolTableRecord
100
AcDbLayerTableRecord
  2
0
 70
0
 62
7
  6
CONTINUOUS
370
-3
390
F
  0
LAYER
  5
1FA
100
AcDbSymbolTableRecord
100
AcDbLayerTableRecord
  2
DEFAULT_1
 70
0
 62
7
  6
CENTER
370
-3
390
F
  0
LAYER
  5
1FB
100
AcDbSymbolTableRecord
100
AcDbLayerTableRecord
  2
DEFAULT_2
 70
0
 62
7
  6
HIDDEN
370
-3
390
F
  0
LAYER
  5
1FC
100
AcDbSymbolTableRecord
100
AcDbLayerTableRecord
  2
DEFAULT_3
 70
0
 62
7
  6
PHANTOM
370
-3
390
F
  0
LAYER
  5
1FD
100
AcDbSymbolTableRecord
100
AcDbLayerTableRecord
  2
00_COMPONENTS
 70
0
 62
7
  6
CONTINUOUS
370
-3
390
F
  0
LAYER
  5
1FE
100
AcDbSymbolTableRecord
100
AcDbLayerTableRecord
  2
01_1_DEFAULT_DATUMS
 70
0
 62
7
  6
CONTINUOUS
370
-3
390
F
  0
LAYER
  5
1FF
100
AcDbSymbolTableRecord
100
AcDbLayerTableRecord
  2
01_PLANES
 70
0
 62
7
  6
CONTINUOUS
370
-3
390
F
  0
LAYER
  5
200
100
AcDbSymbolTableRecord
100
AcDbLayerTableRecord
  2
02_COORD_SYS
 70
0
 62
7
  6
CONTINUOUS
370
-3
390
F
  0
LAYER
  5
201
100
AcDbSymbolTableRecord
100
AcDbLayerTableRecord
  2
03_AXES
 70
0
 62
7
  6
CONTINUOUS
370
-3
390
F
  0
LAYER
  5
202
100
AcDbSymbolTableRecord
100
AcDbLayerTableRecord
  2
04_POINTS
 70
0
 62
7
  6
CONTINUOUS
370
-3
390
F
  0
LAYER
  5
203
100
AcDbSymbolTableRecord
100
AcDbLayerTableRecord
  2
05_CURVES
 70
0
 62
7
  6
CONTINUOUS
370
-3
390
F
  0
LAYER
  5
204
100
AcDbSymbolTableRecord
100
AcDbLayerTableRecord
  2
06_SURFS
 70
0
 62
7
  6
CONTINUOUS
370
-3
390
F
  0
LAYER
  5
205
100
AcDbSymbolTableRecord
100
AcDbLayerTableRecord
  2
07_COSMETICS
 70
0
 62
7
  6
CONTINUOUS
370
-3
390
F
  0
LAYER
  5
206
100
AcDbSymbolTableRecord
100
AcDbLayerTableRecord
  2
10_NOTES
 70
0
 62
7
  6
CONTINUOUS
370
-3
390
F
  0
LAYER
  5
207
100
AcDbSymbolTableRecord
100
AcDbLayerTableRecord
  2
11_NOTES_PUB
 70
0
 62
7
  6
CONTINUOUS
370
-3
390
F
  0
LAYER
  5
208
100
AcDbSymbolTableRecord
100
AcDbLayerTableRecord
  2
13_REF_GTOL
 70
0
 62
7
  6
CONTINUOUS
370
-3
390
F
  0
LAYER
  5
209
100
AcDbSymbolTableRecord
100
AcDbLayerTableRecord
  2
16_MISC
 70
0
 62
7
  6
CONTINUOUS
370
-3
390
F
  0
LAYER
  5
20A
100
AcDbSymbolTableRecord
100
AcDbLayerTableRecord
  2
17_NO_PRINT
 70
0
 62
7
  6
CONTINUOUS
370
-3
390
F
  0
LAYER
  5
20B
100
AcDbSymbolTableRecord
100
AcDbLayerTableRecord
  2
18_DATUM_CAMS_JOINTS
 70
0
 62
7
  6
CONTINUOUS
370
-3
390
F
  0
LAYER
  5
20C
100
AcDbSymbolTableRecord
100
AcDbLayerTableRecord
  2
19_DATUM_FUNCTIONAL
 70
0
 62
7
  6
CONTINUOUS
370
-3
390
F
  0
LAYER
  5
20D
100
AcDbSymbolTableRecord
100
AcDbLayerTableRecord
  2
20_DATUM_KINEMATIC_SCHEME
 70
0
 62
7
  6
CONTINUOUS
370
-3
390
F
  0
ENDTAB
  0
TABLE
  2
STYLE
  5
3
100
AcDbSymbolTable
 70
1
  0
STYLE
  5
11
100
AcDbSymbolTableRecord
100
AcDbTextStyleTableRecord
  2
STANDARD
 70
0
 40
0.0
 41
1.0
 50
0.0
 71
0
 42
0.2
  3
ARIAL.TTF
  4

  0
STYLE
  5
20E
100
AcDbSymbolTableRecord
100
AcDbTextStyleTableRecord
  2
TEXTSTYLE_1
 70
0
 40
0.0
 41
0.8
 50
0.0
 71
0
 42
0.2
  3
gdt
  4

  0
ENDTAB
  0
TABLE
  2
VIEW
  5
6
100
AcDbSymbolTable
 70
0
  0
ENDTAB
  0
TABLE
  2
UCS
  5
7
100
AcDbSymbolTable
 70
0
  0
ENDTAB
  0
TABLE
  2
APPID
  5
9
100
AcDbSymbolTable
 70
1
  0
APPID
  5
20F
100
AcDbSymbolTableRecord
100
AcDbRegAppTableRecord
  2
ACAD
 70
0
  0
ENDTAB
  0
TABLE
  2
BLOCK_RECORD
  5
1
100
AcDbSymbolTable
 70
0
  0
BLOCK_RECORD
  5
210
100
AcDbSymbolTableRecord
100
AcDbBlockTableRecord
  2
*Model_Space
  0
BLOCK_RECORD
  5
211
100
AcDbSymbolTableRecord
100
AcDbBlockTableRecord
  2
*Paper_Space
  0
BLOCK_RECORD
  5
212
100
AcDbSymbolTableRecord
100
AcDbBlockTableRecord
  2
_FILLED
  0
ENDTAB
  0
TABLE
  2
DIMSTYLE
  5
A
100
AcDbSymbolTable
 70
1
100
AcDbDimStyleTable
 71
0
  0
DIMSTYLE
105
213
100
AcDbSymbolTableRecord
100
AcDbDimStyleTableRecord
  2
STANDARD
 70
0
  3

  4

 40
1.0
 41
1.1952134615
 42
1.0
 43
0.38
 44
1.0
 45
0.0
 46
0.0
 47
0.01
 48
0.01
140
1.6732988462
141
0.09
142
0.0
143
25.4
144
1.0
145
0.0
146
1.0
147
0.625
 71
1
 72
0
 73
0
 74
0
 75
0
 76
0
 77
1
 78
8
 79
2
170
0
171
1
172
0
173
0
174
0
175
0
176
0
177
0
178
0
270
2
179
2
271
2
272
2
273
2
274
2
275
0
280
0
281
0
282
0
283
1
284
8
285
0
286
0
287
3
288
0
340
11
278
46
341
212
342
212
343
212
344
212
  0
ENDTAB
  0
ENDSEC
  0
SECTION
  2
BLOCKS
  0
BLOCK
  5
20
100
AcDbEntity
  8
0
100
AcDbBlockBegin
  2
*Model_Space
 70
0
 10
0.0
 20
0.0
 30
0.0
  3
*Model_Space
  1

  0
ENDBLK
  5
21
100
AcDbEntity
  8
0
100
AcDbBlockEnd
  0
BLOCK
  5
1C
100
AcDbEntity
  8
0
100
AcDbBlockBegin
  2
*Paper_Space
 70
0
 10
0.0
 20
0.0
 30
0.0
  3
*Paper_Space
  1

  0
ENDBLK
  5
1D
100
AcDbEntity
  8
0
100
AcDbBlockEnd
  0
BLOCK
  5
214
100
AcDbEntity
  8
0
100
AcDbBlockBegin
  2
_FILLED
 70
64
 10
0.0
 20
0.0
  3
_FILLED
  1

  0
SOLID
  5
215
100
AcDbEntity
  8
0
  6
BYBLOCK
 62
0
100
AcDbTrace
 10
0.0
 20
0.0
 11
-1.0
 21
0.25
 12
-1.0
 22
-0.25
 13
-1.0
 23
-0.25
  0
ENDBLK
  5
216
100
AcDbEntity
  8
0
  6
BYBLOCK
 62
0
100
AcDbBlockEnd
  0
ENDSEC
  0
SECTION
  2
ENTITIES
  0
LINE
  5
217
100
AcDbEntity
  8
0
100
AcDbLine
 62
7
  6
BYLAYER
 10
54.2123574016
 20
16.5147212373
 11
22.7459746326
 21
34.6814348135
  0
LINE
  5
218
100
AcDbEntity
  8
0
100
AcDbLine
 62
7
  6
BYLAYER
 10
57.5708386153
 20
125.8231696819
 11
23.1382896564
 21
105.9436469364
  0
LINE
  5
219
100
AcDbEntity
  8
0
100
AcDbLine
 62
7
  6
BYLAYER
 10
48.7674049683
 20
119.4749783582
 11
57.2526510149
 21
124.3739082047
  0
LINE
  5
21A
100
AcDbEntity
  8
0
100
AcDbLine
 62
7
  6
BYLAYER
 10
43.0839827186
 20
115.8732027382
 11
44.1740837201
 21
116.5025690881
  0
LINE
  5
21B
100
AcDbEntity
  8
0
100
AcDbLine
 62
7
  6
BYLAYER
 10
26.5289978255
 20
105.4517966018
 11
43.1246308846
 21
115.0332326224
  0
LINE
  5
21C
100
AcDbEntity
  8
0
100
AcDbLine
 62
7
  6
BYLAYER
 10
44.9218538305
 20
116.0708535803
 11
49.7927140698
 21
118.8830292642
  0
LINE
  5
21D
100
AcDbEntity
  8
0
100
AcDbLine
 62
7
  6
BYLAYER
 10
57.4294419884
 20
123.2104351439
 11
60.4699884884
 21
124.9658850055
  0
LINE
  5
21E
100
AcDbEntity
  8
0
100
AcDbLine
 62
7
  6
BYLAYER
 10
50.5705347674
 20
118.022831004
 11
57.4294419884
 21
121.9827992965
  0
LINE
  5
21F
100
AcDbEntity
  8
0
100
AcDbLine
 62
7
  6
BYLAYER
 10
11.6569849866
 20
45.510777405
 11
43.1233677557
 21
27.3440638288
  0
LINE
  5
220
100
AcDbEntity
  8
0
100
AcDbLine
 62
7
  6
BYLAYER
 10
11.6473150749
 20
82.0644299427
 11
11.6477902597
 21
80.2681633433
  0
LINE
  5
221
100
AcDbEntity
  8
0
100
AcDbLine
 62
7
  6
BYLAYER
 10
11.6537292323
 20
57.8179955765
 11
11.6569849866
 21
45.510777405
  0
LINE
  5
222
100
AcDbEntity
  8
0
100
AcDbLine
 62
7
  6
BYLAYER
 10
13.275279438
 20
77.6151175891
 11
13.2799010833
 21
60.1446357847
  0
LINE
  5
223
100
AcDbEntity
  8
0
100
AcDbLine
 62
7
  6
BYLAYER
 10
14.9011785016
 20
78.3897188371
 11
14.9013618317
 21
77.6967048223
  0
LINE
  5
224
100
AcDbEntity
  8
0
100
AcDbLine
 62
7
  6
BYLAYER
 10
14.9065233888
 20
58.1852788819
 11
14.9069120159
 21
56.7162128334
  0
LINE
  5
225
100
AcDbEntity
  8
0
100
AcDbLine
 62
7
  6
BYLAYER
 10
14.4940728523
 20
83.7414494981
 11
14.4940728523
 21
83.7063117704
  0
LINE
  5
226
100
AcDbEntity
  8
0
100
AcDbLine
 62
7
  6
BYLAYER
 10
14.4940728523
 20
78.6247738977
 11
14.4940728523
 21
78.3192139319
  0
LINE
  5
227
100
AcDbEntity
  8
0
100
AcDbLine
 62
7
  6
BYLAYER
 10
47.2465568313
 20
110.1374421805
 11
50.1326724714
 21
111.8037318758
  0
LINE
  5
228
100
AcDbEntity
  8
0
100
AcDbLine
 62
7
  6
BYLAYER
 10
51.2227734729
 20
112.4330982256
 11
54.4676904148
 21
114.3065407126
  0
LINE
  5
229
100
AcDbEntity
  8
0
100
AcDbLine
 62
7
  6
BYLAYER
 10
45.9604556213
 20
28.9619988761
 11
45.9455049169
 21
28.970630474
  0
LINE
  5
22A
100
AcDbEntity
  8
0
100
AcDbLine
 62
7
  6
BYLAYER
 10
14.9065233888
 20
58.1852788819
 11
13.2799010833
 21
60.1446357847
  0
LINE
  5
22B
100
AcDbEntity
  8
0
100
AcDbLine
 62
7
  6
BYLAYER
 10
16.5323590033
 20
72.9597426788
 11
16.532574968
 21
72.1433649863
  0
LINE
  5
22C
100
AcDbEntity
  8
0
100
AcDbLine
 62
7
  6
BYLAYER
 10
17.5962341127
 20
73.5739887705
 11
17.5965591396
 21
72.3453403433
  0
LINE
  5
22D
100
AcDbEntity
  8
0
100
AcDbLine
 62
7
  6
BYLAYER
 10
17.5967751043
 20
71.5289626508
 11
17.5971001313
 21
70.3003142236
  0
LINE
  5
22E
100
AcDbEntity
  8
0
100
AcDbLine
 62
7
  6
BYLAYER
 10
18.3042098564
 20
69.8920734691
 11
18.3038848295
 21
71.1207218963
  0
LINE
  5
22F
100
AcDbEntity
  8
0
100
AcDbLine
 62
7
  6
BYLAYER
 10
18.3036688648
 20
71.9370995887
 11
18.3033438378
 21
73.1657480159
  0
LINE
  5
230
100
AcDbEntity
  8
0
100
AcDbLine
 62
7
  6
BYLAYER
 10
18.6575389827
 20
71.7327972028
 11
18.6576468377
 21
71.3250900305
  0
LINE
  5
231
100
AcDbEntity
  8
0
100
AcDbLine
 62
7
  6
BYLAYER
 10
18.752133441
 20
55.6379932956
 11
18.7514169158
 21
58.3465612772
  0
LINE
  5
232
100
AcDbEntity
  8
0
100
AcDbLine
 62
7
  6
BYLAYER
 10
19.3680849658
 20
70.5063195607
 11
19.3678690011
 21
71.3226972532
  0
LINE
  5
233
100
AcDbEntity
  8
0
100
AcDbLine
 62
7
  6
BYLAYER
 10
22.2510031241
 20
94.7572415987
 11
23.3116588799
 21
95.3696078295
  0
LINE
  5
234
100
AcDbEntity
  8
0
100
AcDbLine
 62
7
  6
BYLAYER
 10
55.4765672692
 20
113.7240785662
 11
64.6671887097
 21
119.0302546552
  0
LINE
  5
235
100
AcDbEntity
  8
0
100
AcDbLine
 62
7
  6
BYLAYER
 10
24.0894795776
 20
94.9205429995
 11
23.9948360732
 21
94.8659008729
  0
LINE
  5
236
100
AcDbEntity
  8
0
100
AcDbLine
 62
7
  6
BYLAYER
 10
48.3702770837
 20
108.6721742501
 11
47.1411423915
 21
107.9625372406
  0
LINE
  5
237
100
AcDbEntity
  8
0
100
AcDbLine
 62
7
  6
BYLAYER
 10
43.4995576298
 20
105.8600798482
 11
34.6607596646
 21
100.7570279248
  0
LINE
  5
238
100
AcDbEntity
  8
0
100
AcDbLine
 62
7
  6
BYLAYER
 10
47.3002420796
 20
107.8706830709
 11
43.7213111368
 21
105.8043986617
  0
LINE
  5
239
100
AcDbEntity
  8
0
100
AcDbLine
 62
7
  6
BYLAYER
 10
40.7241763935
 20
104.0740124399
 11
43.16259384
 21
105.4818250055
  0
LINE
  5
23A
100
AcDbEntity
  8
0
100
AcDbLine
 62
7
  6
BYLAYER
 10
66.2669722944
 20
118.1066400668
 11
57.076350854
 21
112.8004639778
  0
LINE
  5
23B
100
AcDbEntity
  8
0
100
AcDbLine
 62
7
  6
BYLAYER
 10
25.2297848863
 20
93.9785499091
 11
25.4951112121
 21
94.1317352203
  0
LINE
  5
23C
100
AcDbEntity
  8
0
100
AcDbLine
 62
7
  6
BYLAYER
 10
44.1879029415
 20
104.8898759114
 11
41.749485495
 21
103.4820633458
  0
LINE
  5
23D
100
AcDbEntity
  8
0
100
AcDbLine
 62
7
  6
BYLAYER
 10
44.7753630145
 20
105.2290441181
 11
48.3255511811
 21
107.2787339768
  0
LINE
  5
23E
100
AcDbEntity
  8
0
100
AcDbLine
 62
7
  6
BYLAYER
 10
36.0749791149
 20
99.9405464158
 11
44.9137770801
 21
105.0435983392
  0
LINE
  5
23F
100
AcDbEntity
  8
0
100
AcDbLine
 62
7
  6
BYLAYER
 10
48.5553618418
 20
107.1460557316
 11
49.784496534
 21
107.8556927411
  0
LINE
  5
240
100
AcDbEntity
  8
0
100
AcDbLine
 62
7
  6
BYLAYER
 10
66.2683233167
 20
117.2909176581
 11
57.7834727984
 21
112.3922161687
  0
LINE
  5
241
100
AcDbEntity
  8
0
100
AcDbLine
 62
7
  6
BYLAYER
 10
58.053996378
 20
112.2360328405
 11
54.8090794361
 21
110.3625903535
  0
LINE
  5
242
100
AcDbEntity
  8
0
100
AcDbLine
 62
7
  6
BYLAYER
 10
53.7189784346
 20
109.7332240037
 11
50.8328627945
 21
108.0669343083
  0
LINE
  5
243
100
AcDbEntity
  8
0
100
AcDbLine
 62
7
  6
BYLAYER
 10
58.053996378
 20
111.4195304233
 11
55.5162013805
 21
109.9543425444
  0
LINE
  5
244
100
AcDbEntity
  8
0
100
AcDbLine
 62
7
  6
BYLAYER
 10
53.7189784346
 20
108.9167215865
 11
50.8328627945
 21
107.2504318912
  0
LINE
  5
245
100
AcDbEntity
  8
0
100
AcDbLine
 62
7
  6
BYLAYER
 10
29.7203828065
 20
47.387078651
 11
11.6537292323
 21
57.8179955765
  0
LINE
  5
246
100
AcDbEntity
  8
0
100
AcDbLine
 62
7
  6
BYLAYER
 10
41.069493875
 20
40.8348906881
 11
32.9377319732
 21
45.529895849
  0
LINE
  5
247
100
AcDbEntity
  8
0
100
AcDbLine
 62
7
  6
BYLAYER
 10
21.5826820131
 20
74.5319457615
 11
21.5822067132
 21
76.3286473417
  0
LINE
  5
248
100
AcDbEntity
  8
0
100
AcDbLine
 62
7
  6
BYLAYER
 10
22.2150251324
 20
56.3468913796
 11
22.2157416576
 21
53.638323398
  0
LINE
  5
249
100
AcDbEntity
  8
0
100
AcDbLine
 62
7
  6
BYLAYER
 10
22.2549142861
 20
74.9202940077
 11
22.2544390506
 21
76.7167523516
  0
LINE
  5
24A
100
AcDbEntity
  8
0
100
AcDbLine
 62
7
  6
BYLAYER
 10
22.2510031241
 20
88.1286545208
 11
22.2510031241
 21
94.7572415987
  0
LINE
  5
24B
100
AcDbEntity
  8
0
100
AcDbLine
 62
7
  6
BYLAYER
 10
22.7459746326
 20
39.1086910824
 11
22.7459746326
 21
34.6814348135
  0
LINE
  5
24C
100
AcDbEntity
  8
0
100
AcDbLine
 62
7
  6
BYLAYER
 10
23.1382896564
 20
105.9436469364
 11
23.1382896564
 21
95.4924159971
  0
LINE
  5
24D
100
AcDbEntity
  8
0
100
AcDbLine
 62
7
  6
BYLAYER
 10
24.0894795776
 20
94.797896431
 11
24.0894795776
 21
94.9205429995
  0
LINE
  5
24E
100
AcDbEntity
  8
0
100
AcDbLine
 62
7
  6
BYLAYER
 10
20.9115648526
 20
56.8854957366
 11
20.9116213974
 21
57.099394853
  0
LINE
  5
24F
100
AcDbEntity
  8
0
100
AcDbLine
 62
7
  6
BYLAYER
 10
22.2510031241
 20
88.2719985177
 11
14.4940728523
 21
83.7414494981
  0
LINE
  5
250
100
AcDbEntity
  8
0
100
AcDbLine
 62
7
  6
BYLAYER
 10
27.0620584386
 20
92.6620016559
 11
27.5514361491
 21
92.9445423222
  0
LINE
  5
251
100
AcDbEntity
  8
0
100
AcDbLine
 62
7
  6
BYLAYER
 10
28.311483848
 20
92.5057385057
 11
27.7392934767
 21
92.1753862128
  0
LINE
  5
252
100
AcDbEntity
  8
0
100
AcDbLine
 62
7
  6
BYLAYER
 10
14.4912001848
 20
83.7063117704
 11
11.6473150749
 21
82.0644299427
  0
LINE
  5
253
100
AcDbEntity
  8
0
100
AcDbLine
 62
7
  6
BYLAYER
 10
29.7201773685
 20
48.1636638151
 11
14.9069120159
 21
56.7162128334
  0
LINE
  5
254
100
AcDbEntity
  8
0
100
AcDbLine
 62
7
  6
BYLAYER
 10
41.0692884354
 20
41.6114817984
 11
33.6099642462
 21
45.9182440952
  0
LINE
  5
255
100
AcDbEntity
  8
0
100
AcDbLine
 62
7
  6
BYLAYER
 10
32.620149208
 20
47.0617859188
 11
24.8419422314
 21
51.5524342185
  0
LINE
  5
256
100
AcDbEntity
  8
0
100
AcDbLine
 62
7
  6
BYLAYER
 10
63.5304493153
 20
29.3831762344
 11
65.6517784907
 21
28.1584539708
  0
LINE
  5
257
100
AcDbEntity
  8
0
100
AcDbLine
 62
7
  6
BYLAYER
 10
22.2157416576
 20
53.638323398
 11
18.752133441
 21
55.6379932956
  0
LINE
  5
258
100
AcDbEntity
  8
0
100
AcDbLine
 62
7
  6
BYLAYER
 10
22.2150817346
 20
56.1329269392
 11
20.9115648526
 21
56.8854957366
  0
LINE
  5
259
100
AcDbEntity
  8
0
100
AcDbLine
 62
7
  6
BYLAYER
 10
18.7514169158
 20
58.3465612772
 11
22.2150251324
 21
56.3468913796
  0
LINE
  5
25A
100
AcDbEntity
  8
0
100
AcDbLine
 62
7
  6
BYLAYER
 10
26.0599093037
 20
54.318929399
 11
20.7811117579
 21
57.3665756362
  0
LINE
  5
25B
100
AcDbEntity
  8
0
100
AcDbLine
 62
7
  6
BYLAYER
 10
26.2642772228
 20
54.7831314911
 11
20.5989843546
 21
58.0539158586
  0
LINE
  5
25C
100
AcDbEntity
  8
0
100
AcDbLine
 62
7
  6
BYLAYER
 10
25.2208380628
 20
94.2900833145
 11
25.2208380628
 21
93.9849784933
  0
LINE
  5
25D
100
AcDbEntity
  8
0
100
AcDbLine
 62
7
  6
BYLAYER
 10
28.1964056425
 20
92.5721774356
 11
28.1964056425
 21
92.4392984694
  0
LINE
  5
25E
100
AcDbEntity
  8
0
100
AcDbLine
 62
7
  6
BYLAYER
 10
22.4319252555
 20
73.9354261051
 11
21.6364982553
 21
73.069361716
  0
LINE
  5
25F
100
AcDbEntity
  8
0
100
AcDbLine
 62
7
  6
BYLAYER
 10
14.7586085021
 20
78.4720360438
 11
13.275279438
 21
77.6151175891
  0
LINE
  5
260
100
AcDbEntity
  8
0
100
AcDbLine
 62
7
  6
BYLAYER
 10
56.8690654174
 20
104.5822566353
 11
59.7549674089
 21
106.2484229813
  0
LINE
  5
261
100
AcDbEntity
  8
0
100
AcDbLine
 62
7
  6
BYLAYER
 10
60.8450684104
 20
106.8777893311
 11
64.0901990009
 21
108.7513551674
  0
LINE
  5
262
100
AcDbEntity
  8
0
100
AcDbLine
 62
7
  6
BYLAYER
 10
65.0916694498
 20
108.1731690144
 11
74.283428264
 21
113.4800017626
  0
LINE
  5
263
100
AcDbEntity
  8
0
100
AcDbLine
 62
7
  6
BYLAYER
 10
57.9164720218
 20
103.1610474134
 11
56.687123681
 21
102.4512870546
  0
LINE
  5
264
100
AcDbEntity
  8
0
100
AcDbLine
 62
7
  6
BYLAYER
 10
53.0455389193
 20
100.3488296622
 11
44.2067409541
 21
95.2457777388
  0
LINE
  5
265
100
AcDbEntity
  8
0
100
AcDbLine
 62
7
  6
BYLAYER
 10
56.9169343416
 20
102.3186088094
 11
53.366746175
 21
100.2689189507
  0
LINE
  5
266
100
AcDbEntity
  8
0
100
AcDbLine
 62
7
  6
BYLAYER
 10
50.3408686555
 20
98.5219381784
 11
52.779286102
 21
99.929750744
  0
LINE
  5
267
100
AcDbEntity
  8
0
100
AcDbLine
 62
7
  6
BYLAYER
 10
75.8832118487
 20
112.5563871742
 11
66.6914530346
 21
107.2495544261
  0
LINE
  5
268
100
AcDbEntity
  8
0
100
AcDbLine
 62
7
  6
BYLAYER
 10
53.8045952035
 20
99.3378016499
 11
51.366177757
 21
97.9299890843
  0
LINE
  5
269
100
AcDbEntity
  8
0
100
AcDbLine
 62
7
  6
BYLAYER
 10
54.3633125002
 20
99.6603753061
 11
57.9422434431
 21
101.7266597153
  0
LINE
  5
26A
100
AcDbEntity
  8
0
100
AcDbLine
 62
7
  6
BYLAYER
 10
45.6209604044
 20
94.4292962297
 11
54.4597583696
 21
99.5323481531
  0
LINE
  5
26B
100
AcDbEntity
  8
0
100
AcDbLine
 62
7
  6
BYLAYER
 10
58.1013431312
 20
101.6348055456
 11
59.3306914721
 21
102.3445659044
  0
LINE
  5
26C
100
AcDbEntity
  8
0
100
AcDbLine
 62
7
  6
BYLAYER
 10
75.8832118487
 20
111.7398847571
 11
67.398574979
 21
106.8413066169
  0
LINE
  5
26D
100
AcDbEntity
  8
0
100
AcDbLine
 62
7
  6
BYLAYER
 10
67.6765049641
 20
106.6808472953
 11
64.4313743736
 21
104.807281459
  0
LINE
  5
26E
100
AcDbEntity
  8
0
100
AcDbLine
 62
7
  6
BYLAYER
 10
63.3412733721
 20
104.1779151091
 11
60.4553713806
 21
102.5117487631
  0
LINE
  5
26F
100
AcDbEntity
  8
0
100
AcDbLine
 62
7
  6
BYLAYER
 10
34.8829778522
 20
47.210882073
 11
32.6201492079
 21
47.0617859188
  0
LINE
  5
270
100
AcDbEntity
  8
0
100
AcDbLine
 62
7
  6
BYLAYER
 10
40.6441193362
 20
47.7746732058
 11
37.8624417422
 21
49.3806391817
  0
LINE
  5
271
100
AcDbEntity
  8
0
100
AcDbLine
 62
7
  6
BYLAYER
 10
29.7139685524
 20
71.6338786647
 11
29.7160782295
 21
63.6589967629
  0
LINE
  5
272
100
AcDbEntity
  8
0
100
AcDbLine
 62
7
  6
BYLAYER
 10
29.7200259268
 20
48.736134997
 11
29.7203828065
 21
47.387078651
  0
LINE
  5
273
100
AcDbEntity
  8
0
100
AcDbLine
 62
7
  6
BYLAYER
 10
32.9377319732
 20
45.529895849
 11
32.9373211982
 21
47.0826841534
  0
LINE
  5
274
100
AcDbEntity
  8
0
100
AcDbLine
 62
7
  6
BYLAYER
 10
32.9314257768
 20
69.3682221281
 11
32.9313178018
 21
69.7763832316
  0
LINE
  5
275
100
AcDbEntity
  8
0
100
AcDbLine
 62
7
  6
BYLAYER
 10
33.6099642462
 20
45.9182440952
 11
33.6096444862
 21
47.126983052
  0
LINE
  5
276
100
AcDbEntity
  8
0
100
AcDbLine
 62
7
  6
BYLAYER
 10
33.6036581126
 20
69.7563333313
 11
33.6035501392
 21
70.1644882415
  0
LINE
  5
277
100
AcDbEntity
  8
0
100
AcDbLine
 62
7
  6
BYLAYER
 10
16.532574968
 20
72.1433649863
 11
17.2392650707
 21
72.5516195034
  0
LINE
  5
278
100
AcDbEntity
  8
0
100
AcDbLine
 62
7
  6
BYLAYER
 10
17.5965591396
 20
72.3453403433
 11
18.3034528378
 21
72.7537124774
  0
LINE
  5
279
100
AcDbEntity
  8
0
100
AcDbLine
 62
7
  6
BYLAYER
 10
22.2549142861
 20
74.9202940077
 11
21.5826820131
 21
74.5319457615
  0
LINE
  5
27A
100
AcDbEntity
  8
0
100
AcDbLine
 62
7
  6
BYLAYER
 10
67.6765049641
 20
105.8643448781
 11
65.138496318
 21
104.3990336498
  0
LINE
  5
27B
100
AcDbEntity
  8
0
100
AcDbLine
 62
7
  6
BYLAYER
 10
63.3412733721
 20
103.361412692
 11
60.4553713806
 21
101.695246346
  0
LINE
  5
27C
100
AcDbEntity
  8
0
100
AcDbLine
 62
7
  6
BYLAYER
 10
22.2544390506
 20
76.7167523516
 11
21.5822067132
 21
76.3286473417
  0
LINE
  5
27D
100
AcDbEntity
  8
0
100
AcDbLine
 62
7
  6
BYLAYER
 10
37.9090121469
 20
56.7639221941
 11
39.2525206247
 21
55.9882647605
  0
LINE
  5
27E
100
AcDbEntity
  8
0
100
AcDbLine
 62
7
  6
BYLAYER
 10
17.5971001313
 20
70.3003142236
 11
18.3042098564
 21
69.8920734691
  0
LINE
  5
27F
100
AcDbEntity
  8
0
100
AcDbLine
 62
7
  6
BYLAYER
 10
39.2525491185
 20
55.9883141094
 11
37.9699955201
 21
57.0409788743
  0
LINE
  5
280
100
AcDbEntity
  8
0
100
AcDbLine
 62
7
  6
BYLAYER
 10
29.4147052319
 20
68.5787134163
 11
29.714690361
 21
68.905338534
  0
LINE
  5
281
100
AcDbEntity
  8
0
100
AcDbLine
 62
7
  6
BYLAYER
 10
17.5967751044
 20
71.5289626508
 11
18.3035669755
 21
71.9372759594
  0
LINE
  5
282
100
AcDbEntity
  8
0
100
AcDbLine
 62
7
  6
BYLAYER
 10
18.3038848295
 20
71.1207218963
 11
19.0105749322
 21
71.5289764134
  0
LINE
  5
283
100
AcDbEntity
  8
0
100
AcDbLine
 62
7
  6
BYLAYER
 10
17.5971001313
 20
70.3003142236
 11
18.3039938295
 21
70.7086863577
  0
LINE
  5
284
100
AcDbEntity
  8
0
100
AcDbLine
 62
7
  6
BYLAYER
 10
86.1380715113
 20
110.1467456164
 11
83.0975250113
 21
108.3912957548
  0
LINE
  5
285
100
AcDbEntity
  8
0
100
AcDbLine
 62
7
  6
BYLAYER
 10
84.7238638369
 20
108.5137548916
 11
86.1380715113
 21
109.3302431993
  0
LINE
  5
286
100
AcDbEntity
  8
0
100
AcDbLine
 62
7
  6
BYLAYER
 10
71.433936194
 20
100.7644419682
 11
70.3438351925
 21
100.1350756184
  0
LINE
  5
287
100
AcDbEntity
  8
0
100
AcDbLine
 62
7
  6
BYLAYER
 10
83.0975250113
 20
107.1636599075
 11
76.2386177903
 21
103.2036916149
  0
LINE
  5
288
100
AcDbEntity
  8
0
100
AcDbLine
 62
7
  6
BYLAYER
 10
71.433936194
 20
99.9478329968
 11
62.5915202088
 21
94.8375794762
  0
LINE
  5
289
100
AcDbEntity
  8
0
100
AcDbLine
 62
7
  6
BYLAYER
 10
62.5915202088
 20
94.8375794762
 11
53.7527222436
 21
89.7345275528
  0
LINE
  5
28A
100
AcDbEntity
  8
0
100
AcDbLine
 62
7
  6
BYLAYER
 10
86.526993636
 20
107.4727409675
 11
78.0417475894
 21
102.5738111211
  0
LINE
  5
28B
100
AcDbEntity
  8
0
100
AcDbLine
 62
7
  6
BYLAYER
 10
71.4357919549
 20
99.9468681542
 11
77.0164384879
 21
103.1657602151
  0
LINE
  5
28C
100
AcDbEntity
  8
0
100
AcDbLine
 62
7
  6
BYLAYER
 10
16.532574968
 20
72.1433649863
 11
17.5967751043
 21
71.5289626508
  0
LINE
  5
28D
100
AcDbEntity
  8
0
100
AcDbLine
 62
7
  6
BYLAYER
 10
18.3038848295
 20
71.1207218963
 11
19.3680849658
 21
70.5063195607
  0
LINE
  5
28E
100
AcDbEntity
  8
0
100
AcDbLine
 62
7
  6
BYLAYER
 10
19.3678690011
 20
71.3226972532
 11
18.3036688648
 21
71.9370995887
  0
LINE
  5
28F
100
AcDbEntity
  8
0
100
AcDbLine
 62
7
  6
BYLAYER
 10
17.5965591396
 20
72.3453403433
 11
16.5323590033
 21
72.9597426788
  0
LINE
  5
290
100
AcDbEntity
  8
0
100
AcDbLine
 62
7
  6
BYLAYER
 10
17.9505247432
 20
72.5498260945
 11
18.3035606927
 21
72.3460053051
  0
LINE
  5
291
100
AcDbEntity
  8
0
100
AcDbLine
 62
7
  6
BYLAYER
 10
18.3033438378
 20
73.1657480159
 11
17.5962341127
 21
73.5739887705
  0
LINE
  5
292
100
AcDbEntity
  8
0
100
AcDbLine
 62
7
  6
BYLAYER
 10
21.6364982553
 20
73.069361716
 11
29.4147052319
 21
68.5787134163
  0
LINE
  5
293
100
AcDbEntity
  8
0
100
AcDbLine
 62
7
  6
BYLAYER
 10
40.1471297456
 20
55.6690501791
 11
40.1487799046
 21
49.431212575
  0
LINE
  5
294
100
AcDbEntity
  8
0
100
AcDbLine
 62
7
  6
BYLAYER
 10
40.6420650106
 20
55.5403186059
 11
40.6441193362
 21
47.7746732058
  0
LINE
  5
295
100
AcDbEntity
  8
0
100
AcDbLine
 62
7
  6
BYLAYER
 10
40.7127910637
 20
55.5219229151
 11
40.7148297166
 21
47.815522557
  0
LINE
  5
296
100
AcDbEntity
  8
0
100
AcDbLine
 62
7
  6
BYLAYER
 10
41.063079641
 20
65.0816145546
 11
41.069493875
 21
40.8348906881
  0
LINE
  5
297
100
AcDbEntity
  8
0
100
AcDbLine
 62
7
  6
BYLAYER
 10
39.0093805523
 20
106.4853188471
 11
39.0093805523
 21
112.6573059176
  0
LINE
  5
298
100
AcDbEntity
  8
0
100
AcDbLine
 62
7
  6
BYLAYER
 10
89.0372213844
 20
107.6564561058
 11
54.6046724255
 21
87.7769333602
  0
LINE
  5
299
100
AcDbEntity
  8
0
100
AcDbLine
 62
7
  6
BYLAYER
 10
30.3862008898
 20
72.0219836746
 11
29.7139685524
 21
71.6338786647
  0
LINE
  5
29A
100
AcDbEntity
  8
0
100
AcDbLine
 62
7
  6
BYLAYER
 10
49.0297987948
 20
80.5442843983
 11
48.4025938421
 21
80.1821696116
  0
LINE
  5
29B
100
AcDbEntity
  8
0
100
AcDbLine
 62
7
  6
BYLAYER
 10
31.2167550005
 20
68.378262403
 11
38.9949619771
 21
63.8876141033
  0
LINE
  5
29C
100
AcDbEntity
  8
0
100
AcDbLine
 62
7
  6
BYLAYER
 10
22.4319252555
 20
73.9354261051
 11
29.714471956
 21
69.7309409254
  0
LINE
  5
29D
100
AcDbEntity
  8
0
100
AcDbLine
 62
7
  6
BYLAYER
 10
21.5826820131
 20
74.5319457615
 11
11.6477902597
 21
80.2681633433
  0
LINE
  5
29E
100
AcDbEntity
  8
0
100
AcDbLine
 62
7
  6
BYLAYER
 10
59.5853921364
 20
53.9631798038
 11
59.2775458632
 21
54.1408810758
  0
LINE
  5
29F
100
AcDbEntity
  8
0
100
AcDbLine
 62
7
  6
BYLAYER
 10
11.6473150749
 20
82.0644299427
 11
21.5822067132
 21
76.3286473417
  0
LINE
  5
2A0
100
AcDbEntity
  8
0
100
AcDbLine
 62
7
  6
BYLAYER
 10
29.7139685524
 20
71.6338786647
 11
32.9313178018
 21
69.7763832316
  0
LINE
  5
2A1
100
AcDbEntity
  8
0
100
AcDbLine
 62
7
  6
BYLAYER
 10
41.063079641
 20
65.0816145546
 11
43.1136978439
 21
63.8977163665
  0
LINE
  5
2A2
100
AcDbEntity
  8
0
100
AcDbLine
 62
7
  6
BYLAYER
 10
41.5585885302
 20
65.3677157488
 11
33.7803815536
 21
69.8583640486
  0
LINE
  5
2A3
100
AcDbEntity
  8
0
100
AcDbLine
 62
7
  6
BYLAYER
 10
41.7353119784
 20
65.4697195645
 11
33.6035501392
 21
70.1644882415
  0
LINE
  5
2A4
100
AcDbEntity
  8
0
100
AcDbLine
 62
7
  6
BYLAYER
 10
30.3862008898
 20
72.0219836746
 11
22.2544390506
 21
76.7167523516
  0
LINE
  5
2A5
100
AcDbEntity
  8
0
100
AcDbLine
 62
7
  6
BYLAYER
 10
61.7670798902
 20
54.7768240016
 11
63.9944755244
 21
53.4908656249
  0
LINE
  5
2A6
100
AcDbEntity
  8
0
100
AcDbLine
 62
7
  6
BYLAYER
 10
43.1233677557
 20
27.3440638288
 11
43.1136978439
 21
63.8977163665
  0
LINE
  5
2A7
100
AcDbEntity
  8
0
100
AcDbLine
 62
7
  6
BYLAYER
 10
43.0839827186
 20
115.8732027382
 11
43.0839827186
 21
115.0567003211
  0
LINE
  5
2A8
100
AcDbEntity
  8
0
100
AcDbLine
 62
7
  6
BYLAYER
 10
43.16259384
 20
104.2979169592
 11
43.16259384
 21
105.4818250055
  0
LINE
  5
2A9
100
AcDbEntity
  8
0
100
AcDbLine
 62
7
  6
BYLAYER
 10
45.9604556213
 20
65.5747359219
 11
45.9604556213
 21
28.9619988761
  0
LINE
  5
2AA
100
AcDbEntity
  8
0
100
AcDbLine
 62
7
  6
BYLAYER
 10
45.9575829538
 20
65.5395981943
 11
45.94791695
 21
28.9748083323
  0
LINE
  5
2AB
100
AcDbEntity
  8
0
100
AcDbLine
 62
7
  6
BYLAYER
 10
37.9699955201
 20
57.0409788743
 11
34.8829778522
 21
47.210882073
  0
LINE
  5
2AC
100
AcDbEntity
  8
0
100
AcDbLine
 62
7
  6
BYLAYER
 10
14.0582417368
 20
59.2070812417
 11
11.6537292323
 21
57.8179955765
  0
LINE
  5
2AD
100
AcDbEntity
  8
0
100
AcDbLine
 62
7
  6
BYLAYER
 10
62.2631280164
 20
86.9207207585
 11
65.7304726758
 21
88.9225811815
  0
LINE
  5
2AE
100
AcDbEntity
  8
0
100
AcDbLine
 62
7
  6
BYLAYER
 10
33.6035501392
 20
70.1644882415
 11
32.9313178018
 21
69.7763832316
  0
LINE
  5
2AF
100
AcDbEntity
  8
0
100
AcDbLine
 62
7
  6
BYLAYER
 10
62.4452170848
 20
86.7089769433
 11
62.2631280164
 21
86.6038483982
  0
LINE
  5
2B0
100
AcDbEntity
  8
0
100
AcDbLine
 62
7
  6
BYLAYER
 10
63.6091435004
 20
87.2584929153
 11
62.5915202088
 21
86.670971341
  0
LINE
  5
2B1
100
AcDbEntity
  8
0
100
AcDbLine
 62
7
  6
BYLAYER
 10
31.2167550005
 20
68.378262403
 11
33.7803815536
 21
69.8583640486
  0
LINE
  5
2B2
100
AcDbEntity
  8
0
100
AcDbLine
 62
7
  6
BYLAYER
 10
65.7304726758
 20
86.0337706517
 11
62.2631280164
 21
84.0319102287
  0
LINE
  5
2B3
100
AcDbEntity
  8
0
100
AcDbLine
 62
7
  6
BYLAYER
 10
52.879326444
 20
78.1054703535
 11
53.0666837587
 21
78.2136405039
  0
LINE
  5
2B4
100
AcDbEntity
  8
0
100
AcDbLine
 62
7
  6
BYLAYER
 10
53.6227335569
 20
77.7606132585
 11
53.7173770612
 21
77.8152553851
  0
LINE
  5
2B5
100
AcDbEntity
  8
0
100
AcDbLine
 62
7
  6
BYLAYER
 10
87.3401721751
 20
57.8851580984
 11
90.3100082914
 21
57.4415447539
  0
LINE
  5
2B6
100
AcDbEntity
  8
0
100
AcDbLine
 62
7
  6
BYLAYER
 10
14.4912001848
 20
83.7063117704
 11
45.9575829538
 21
65.5395981943
  0
LINE
  5
2B7
100
AcDbEntity
  8
0
100
AcDbLine
 62
7
  6
BYLAYER
 10
45.9604556213
 20
65.5747359219
 11
14.4940728523
 21
83.7414494981
  0
LINE
  5
2B8
100
AcDbEntity
  8
0
100
AcDbLine
 62
7
  6
BYLAYER
 10
47.2465568313
 20
110.1374421805
 11
47.2465568313
 21
109.3209397633
  0
LINE
  5
2B9
100
AcDbEntity
  8
0
100
AcDbLine
 62
7
  6
BYLAYER
 10
48.3255511811
 20
101.0729683061
 11
48.3255511811
 21
107.2787339768
  0
LINE
  5
2BA
100
AcDbEntity
  8
0
100
AcDbLine
 62
7
  6
BYLAYER
 10
50.8328627945
 20
108.0669343083
 11
50.8328627945
 21
107.2504318912
  0
LINE
  5
2BB
100
AcDbEntity
  8
0
100
AcDbLine
 62
7
  6
BYLAYER
 10
20.9115648526
 20
56.8854957366
 11
18.752133441
 21
55.6379932956
  0
LINE
  5
2BC
100
AcDbEntity
  8
0
100
AcDbLine
 62
7
  6
BYLAYER
 10
54.4951977589
 20
77.3661905551
 11
53.4345420031
 21
76.7538243243
  0
LINE
  5
2BD
100
AcDbEntity
  8
0
100
AcDbLine
 62
7
  6
BYLAYER
 10
54.6046724255
 20
77.325702421
 11
56.6872208318
 21
78.5280551269
  0
LINE
  5
2BE
100
AcDbEntity
  8
0
100
AcDbLine
 62
7
  6
BYLAYER
 10
54.4951977589
 20
76.6639829561
 11
55.7679781892
 21
77.3988186937
  0
LINE
  5
2BF
100
AcDbEntity
  8
0
100
AcDbLine
 62
7
  6
BYLAYER
 10
54.4951977589
 20
73.2346728041
 11
55.7679781892
 21
73.9695085418
  0
LINE
  5
2C0
100
AcDbEntity
  8
0
100
AcDbLine
 62
7
  6
BYLAYER
 10
41.7353119784
 20
65.4697195645
 11
38.9949619771
 21
63.8876141033
  0
LINE
  5
2C1
100
AcDbEntity
  8
0
100
AcDbLine
 62
7
  6
BYLAYER
 10
52.779286102
 20
98.7458426977
 11
52.779286102
 21
99.929750744
  0
LINE
  5
2C2
100
AcDbEntity
  8
0
100
AcDbLine
 62
7
  6
BYLAYER
 10
53.4345420031
 20
76.7538243243
 11
53.4345420031
 21
70.1252372464
  0
LINE
  5
2C3
100
AcDbEntity
  8
0
100
AcDbLine
 62
7
  6
BYLAYER
 10
53.7189784346
 20
109.7332240037
 11
53.7189784346
 21
108.9167215865
  0
LINE
  5
2C4
100
AcDbEntity
  8
0
100
AcDbLine
 62
7
  6
BYLAYER
 10
54.2123574016
 20
33.6707725318
 11
54.2123574016
 21
16.5147212373
  0
LINE
  5
2C5
100
AcDbEntity
  8
0
100
AcDbLine
 62
7
  6
BYLAYER
 10
54.4951977589
 20
70.7376034772
 11
54.4951977589
 21
77.3661905551
  0
LINE
  5
2C6
100
AcDbEntity
  8
0
100
AcDbLine
 62
7
  6
BYLAYER
 10
54.6046724255
 20
87.7769333602
 11
54.6046724255
 21
77.325702421
  0
LINE
  5
2C7
100
AcDbEntity
  8
0
100
AcDbLine
 62
7
  6
BYLAYER
 10
55.7679781892
 20
77.3988186937
 11
55.7679781892
 21
73.9695085418
  0
LINE
  5
2C8
100
AcDbEntity
  8
0
100
AcDbLine
 62
7
  6
BYLAYER
 10
45.9604556213
 20
65.5747359219
 11
56.6872208318
 21
71.8398606433
  0
LINE
  5
2C9
100
AcDbEntity
  8
0
100
AcDbLine
 62
7
  6
BYLAYER
 10
54.4951977589
 20
70.7376034772
 11
53.4345420031
 21
70.1252372464
  0
LINE
  5
2CA
100
AcDbEntity
  8
0
100
AcDbLine
 62
7
  6
BYLAYER
 10
45.9575829538
 20
65.5395981943
 11
43.1136978439
 21
63.8977163665
  0
LINE
  5
2CB
100
AcDbEntity
  8
0
100
AcDbLine
 62
7
  6
BYLAYER
 10
86.4209371867
 20
86.7948454505
 11
90.3100082914
 21
89.0401882968
  0
LINE
  5
2CC
100
AcDbEntity
  8
0
100
AcDbLine
 62
7
  6
BYLAYER
 10
56.6872208318
 20
71.8398606433
 11
54.4951977589
 21
73.1053971243
  0
LINE
  5
2CD
100
AcDbEntity
  8
0
100
AcDbLine
 62
7
  6
BYLAYER
 10
23.9948360732
 20
94.8659008729
 11
24.0894795776
 21
94.797896431
  0
LINE
  5
2CE
100
AcDbEntity
  8
0
100
AcDbLine
 62
7
  6
BYLAYER
 10
23.9948360732
 20
94.8659008729
 11
24.086937011
 21
94.7967663013
  0
LINE
  5
2CF
100
AcDbEntity
  8
0
100
AcDbLine
 62
7
  6
BYLAYER
 10
56.6872208318
 20
78.5280551269
 11
56.6872208318
 21
71.8398606433
  0
LINE
  5
2D0
100
AcDbEntity
  8
0
100
AcDbLine
 62
7
  6
BYLAYER
 10
56.8690654174
 20
104.5822566353
 11
56.8690654174
 21
103.7657542181
  0
LINE
  5
2D1
100
AcDbEntity
  8
0
100
AcDbLine
 62
7
  6
BYLAYER
 10
57.2526510149
 20
121.8807295897
 11
57.2526510149
 21
124.3739082047
  0
LINE
  5
2D2
100
AcDbEntity
  8
0
100
AcDbLine
 62
7
  6
BYLAYER
 10
57.4294419884
 20
121.9827992965
 11
57.4294419884
 21
123.2104351439
  0
LINE
  5
2D3
100
AcDbEntity
  8
0
100
AcDbLine
 62
7
  6
BYLAYER
 10
57.9422434431
 20
95.531231975
 11
57.9422434431
 21
101.7266597153
  0
LINE
  5
2D4
100
AcDbEntity
  8
0
100
AcDbLine
 62
7
  6
BYLAYER
 10
58.053996378
 20
112.2360328405
 11
58.053996378
 21
111.4195304233
  0
LINE
  5
2D5
100
AcDbEntity
  8
0
100
AcDbLine
 62
7
  6
BYLAYER
 10
58.8708812692
 20
50.5327747598
 11
58.8708812692
 21
53.9060945645
  0
LINE
  5
2D6
100
AcDbEntity
  8
0
100
AcDbLine
 62
7
  6
BYLAYER
 10
59.5853921364
 20
53.9631798038
 11
59.5853921364
 21
54.3186151436
  0
LINE
  5
2D7
100
AcDbEntity
  8
0
100
AcDbLine
 62
7
  6
BYLAYER
 10
60.4553713806
 20
102.5117487631
 11
60.4553713806
 21
101.695246346
  0
LINE
  5
2D8
100
AcDbEntity
  8
0
100
AcDbLine
 62
7
  6
BYLAYER
 10
13.275279438
 20
77.6151175891
 11
14.9013618317
 21
77.6967048223
  0
LINE
  5
2D9
100
AcDbEntity
  8
0
100
AcDbLine
 62
7
  6
BYLAYER
 10
87.3401721751
 20
56.8700226916
 11
86.4209371867
 21
57.4007312533
  0
LINE
  5
2DA
100
AcDbEntity
  8
0
100
AcDbLine
 62
7
  6
BYLAYER
 10
87.3401721751
 20
57.8851580984
 11
86.4209371867
 21
58.4158666602
  0
LINE
  5
2DB
100
AcDbEntity
  8
0
100
AcDbLine
 62
7
  6
BYLAYER
 10
23.3116588799
 20
95.3696078295
 11
24.0894795776
 21
94.9205429995
  0
LINE
  5
2DC
100
AcDbEntity
  8
0
100
AcDbLine
 62
7
  6
BYLAYER
 10
53.7173770612
 20
77.8152553851
 11
54.4951977589
 21
77.3661905551
  0
LINE
  5
2DD
100
AcDbEntity
  8
0
100
AcDbLine
 62
7
  6
BYLAYER
 10
54.6046724255
 20
77.325702421
 11
23.1382896564
 21
95.4924159971
  0
LINE
  5
2DE
100
AcDbEntity
  8
0
100
AcDbLine
 62
7
  6
BYLAYER
 10
90.3100082914
 20
57.4415447539
 11
86.4209371867
 21
59.6868502074
  0
LINE
  5
2DF
100
AcDbEntity
  8
0
100
AcDbLine
 62
7
  6
BYLAYER
 10
55.2496419189
 20
77.6980735089
 11
55.7679781892
 21
77.3988186937
  0
LINE
  5
2E0
100
AcDbEntity
  8
0
100
AcDbLine
 62
7
  6
BYLAYER
 10
61.7670798902
 20
55.5782056368
 11
61.7670798902
 21
54.7768240016
  0
LINE
  5
2E1
100
AcDbEntity
  8
0
100
AcDbLine
 62
7
  6
BYLAYER
 10
62.2631280164
 20
84.0319102287
 11
62.2631280164
 21
86.9207207585
  0
LINE
  5
2E2
100
AcDbEntity
  8
0
100
AcDbLine
 62
7
  6
BYLAYER
 10
62.3933523197
 20
26.2772119733
 11
62.3933523197
 21
29.650531778
  0
LINE
  5
2E3
100
AcDbEntity
  8
0
100
AcDbLine
 62
7
  6
BYLAYER
 10
62.4452170848
 20
28.8790941002
 11
62.4452170848
 21
29.6804757354
  0
LINE
  5
2E4
100
AcDbEntity
  8
0
100
AcDbLine
 62
7
  6
BYLAYER
 10
62.4452170848
 20
86.7089769433
 11
62.4452170848
 21
87.0258493037
  0
LINE
  5
2E5
100
AcDbEntity
  8
0
100
AcDbLine
 62
7
  6
BYLAYER
 10
63.3412733721
 20
104.1779151091
 11
63.3412733721
 21
103.361412692
  0
LINE
  5
2E6
100
AcDbEntity
  8
0
100
AcDbLine
 62
7
  6
BYLAYER
 10
63.5304493153
 20
30.3070311157
 11
63.5304493153
 21
29.3831762344
  0
LINE
  5
2E7
100
AcDbEntity
  8
0
100
AcDbLine
 62
7
  6
BYLAYER
 10
63.6091435004
 20
87.6978385218
 11
63.6091435004
 21
87.2584929153
  0
LINE
  5
2E8
100
AcDbEntity
  8
0
100
AcDbLine
 62
7
  6
BYLAYER
 10
63.9944755244
 20
56.8641854295
 11
63.9944755244
 21
53.4908656249
  0
LINE
  5
2E9
100
AcDbEntity
  8
0
100
AcDbLine
 62
7
  6
BYLAYER
 10
33.6099642462
 20
45.9182440952
 11
32.9377319732
 21
45.529895849
  0
LINE
  5
2EA
100
AcDbEntity
  8
0
100
AcDbLine
 62
7
  6
BYLAYER
 10
65.6517784907
 20
31.5317737755
 11
65.6517784907
 21
28.1584539708
  0
LINE
  5
2EB
100
AcDbEntity
  8
0
100
AcDbLine
 62
7
  6
BYLAYER
 10
65.7304726758
 20
88.9225811815
 11
65.7304726758
 21
86.0337706517
  0
LINE
  5
2EC
100
AcDbEntity
  8
0
100
AcDbLine
 62
7
  6
BYLAYER
 10
66.2683233167
 20
117.2909176581
 11
66.2683233167
 21
118.1074200753
  0
LINE
  5
2ED
100
AcDbEntity
  8
0
100
AcDbLine
 62
7
  6
BYLAYER
 10
67.6765049641
 20
106.6808472953
 11
67.6765049641
 21
105.8643448781
  0
LINE
  5
2EE
100
AcDbEntity
  8
0
100
AcDbLine
 62
7
  6
BYLAYER
 10
40.6441193362
 20
47.7746732058
 11
40.7148297166
 21
47.815522557
  0
LINE
  5
2EF
100
AcDbEntity
  8
0
100
AcDbLine
 62
7
  6
BYLAYER
 10
86.4209371867
 20
78.0582695872
 11
89.735557134
 21
77.3183220272
  0
LINE
  5
2F0
100
AcDbEntity
  8
0
100
AcDbLine
 62
7
  6
BYLAYER
 10
54.6046724255
 20
87.7769333602
 11
23.1382896564
 21
105.9436469364
  0
LINE
  5
2F1
100
AcDbEntity
  8
0
100
AcDbLine
 62
7
  6
BYLAYER
 10
26.5289978255
 20
105.4517966018
 11
34.6607596646
 21
100.7570279248
  0
LINE
  5
2F2
100
AcDbEntity
  8
0
100
AcDbLine
 62
7
  6
BYLAYER
 10
36.0749791149
 20
99.9405464158
 11
44.2067409541
 21
95.2457777388
  0
LINE
  5
2F3
100
AcDbEntity
  8
0
100
AcDbLine
 62
7
  6
BYLAYER
 10
45.6209604044
 20
94.4292962297
 11
53.7527222436
 21
89.7345275528
  0
LINE
  5
2F4
100
AcDbEntity
  8
0
100
AcDbLine
 62
7
  6
BYLAYER
 10
70.3438351925
 20
100.1350756184
 11
70.3456909509
 21
99.3173952486
  0
LINE
  5
2F5
100
AcDbEntity
  8
0
100
AcDbLine
 62
7
  6
BYLAYER
 10
71.433936194
 20
100.7644419682
 11
71.433936194
 21
99.9478329968
  0
LINE
  5
2F6
100
AcDbEntity
  8
0
100
AcDbLine
 62
7
  6
BYLAYER
 10
58.8708812692
 20
53.9060945645
 11
63.9944755244
 21
56.8641854295
  0
LINE
  5
2F7
100
AcDbEntity
  8
0
100
AcDbLine
 62
7
  6
BYLAYER
 10
59.5853921364
 20
53.9631798038
 11
58.8708812692
 21
53.5506592248
  0
LINE
  5
2F8
100
AcDbEntity
  8
0
100
AcDbLine
 62
7
  6
BYLAYER
 10
61.7670798902
 20
54.7768240016
 11
58.8708812692
 21
53.1047129293
  0
LINE
  5
2F9
100
AcDbEntity
  8
0
100
AcDbLine
 62
7
  6
BYLAYER
 10
63.9944755244
 20
53.4908656249
 11
58.8708812692
 21
50.5327747598
  0
LINE
  5
2FA
100
AcDbEntity
  8
0
100
AcDbLine
 62
7
  6
BYLAYER
 10
63.6091435004
 20
87.2584929153
 11
65.7304726758
 21
86.0337706517
  0
LINE
  5
2FB
100
AcDbEntity
  8
0
100
AcDbLine
 62
7
  6
BYLAYER
 10
75.8832118487
 20
111.7398847571
 11
75.8832118487
 21
112.5563871742
  0
LINE
  5
2FC
100
AcDbEntity
  8
0
100
AcDbLine
 62
7
  6
BYLAYER
 10
51.366177757
 20
97.9299890843
 11
50.3408686555
 21
98.5219381784
  0
LINE
  5
2FD
100
AcDbEntity
  8
0
100
AcDbLine
 62
7
  6
BYLAYER
 10
41.749485495
 20
103.4820633458
 11
40.7241763935
 21
104.0740124399
  0
LINE
  5
2FE
100
AcDbEntity
  8
0
100
AcDbLine
 62
7
  6
BYLAYER
 10
89.735557134
 20
77.3183220272
 11
86.4209371867
 21
79.2319754534
  0
LINE
  5
2FF
100
AcDbEntity
  8
0
100
AcDbLine
 62
7
  6
BYLAYER
 10
43.16259384
 20
105.4818250055
 11
44.1879029415
 21
104.8898759114
  0
LINE
  5
300
100
AcDbEntity
  8
0
100
AcDbLine
 62
7
  6
BYLAYER
 10
52.779286102
 20
99.929750744
 11
53.8045952035
 21
99.3378016499
  0
LINE
  5
301
100
AcDbEntity
  8
0
100
AcDbLine
 62
7
  6
BYLAYER
 10
87.3401721751
 20
56.8700226916
 11
86.4209371867
 21
56.3393052915
  0
LINE
  5
302
100
AcDbEntity
  8
0
100
AcDbLine
 62
7
  6
BYLAYER
 10
47.1411423915
 20
107.9625372406
 11
47.3002420796
 21
107.8706830709
  0
LINE
  5
303
100
AcDbEntity
  8
0
100
AcDbLine
 62
7
  6
BYLAYER
 10
48.3255511811
 20
107.2787339768
 11
48.5553618418
 21
107.1460557316
  0
LINE
  5
304
100
AcDbEntity
  8
0
100
AcDbLine
 62
7
  6
BYLAYER
 10
56.687123681
 20
102.4512870546
 11
56.9169343416
 21
102.3186088094
  0
LINE
  5
305
100
AcDbEntity
  8
0
100
AcDbLine
 62
7
  6
BYLAYER
 10
57.9422434431
 20
101.7266597153
 11
58.1013431312
 21
101.6348055456
  0
LINE
  5
306
100
AcDbEntity
  8
0
100
AcDbLine
 62
7
  6
BYLAYER
 10
50.8328627945
 20
107.2504318912
 11
47.2465568313
 21
109.3209397633
  0
LINE
  5
307
100
AcDbEntity
  8
0
100
AcDbLine
 62
7
  6
BYLAYER
 10
60.4553713806
 20
101.695246346
 11
56.8690654174
 21
103.7657542181
  0
LINE
  5
308
100
AcDbEntity
  8
0
100
AcDbLine
 62
7
  6
BYLAYER
 10
50.8328627945
 20
108.0669343083
 11
47.2465568313
 21
110.1374421805
  0
LINE
  5
309
100
AcDbEntity
  8
0
100
AcDbLine
 62
7
  6
BYLAYER
 10
60.4553713806
 20
102.5117487631
 11
56.8690654174
 21
104.5822566353
  0
LINE
  5
30A
100
AcDbEntity
  8
0
100
AcDbLine
 62
7
  6
BYLAYER
 10
83.0975250113
 20
108.3912957548
 11
83.0975250113
 21
107.1636599075
  0
LINE
  5
30B
100
AcDbEntity
  8
0
100
AcDbLine
 62
7
  6
BYLAYER
 10
84.7238638369
 20
106.4317097067
 11
84.7238638369
 21
108.5137548916
  0
LINE
  5
30C
100
AcDbEntity
  8
0
100
AcDbLine
 62
7
  6
BYLAYER
 10
86.1380715113
 20
110.1467456164
 11
86.1380715113
 21
109.3302431993
  0
LINE
  5
30D
100
AcDbEntity
  8
0
100
AcDbLine
 62
7
  6
BYLAYER
 10
86.4209371867
 20
56.3393052915
 11
86.4209371867
 21
63.1979255954
  0
LINE
  5
30E
100
AcDbEntity
  8
0
100
AcDbLine
 62
7
  6
BYLAYER
 10
86.4209371867
 20
78.0582695872
 11
86.4209371867
 21
86.7948454505
  0
LINE
  5
30F
100
AcDbEntity
  8
0
100
AcDbLine
 62
7
  6
BYLAYER
 10
87.3401721751
 20
57.8851580984
 11
87.3401721751
 21
56.8700226916
  0
LINE
  5
310
100
AcDbEntity
  8
0
100
AcDbLine
 62
7
  6
BYLAYER
 10
89.735557134
 20
67.7652437468
 11
86.4209371867
 21
63.1979255954
  0
LINE
  5
311
100
AcDbEntity
  8
0
100
AcDbLine
 62
7
  6
BYLAYER
 10
43.1233677557
 20
27.3440638288
 11
45.94791695
 21
28.9748083323
  0
LINE
  5
312
100
AcDbEntity
  8
0
100
AcDbLine
 62
7
  6
BYLAYER
 10
54.2123574016
 20
33.6707725318
 11
45.9604556213
 21
28.9619988761
  0
LINE
  5
313
100
AcDbEntity
  8
0
100
AcDbLine
 62
7
  6
BYLAYER
 10
70.3456909509
 20
99.3173952486
 11
63.3412733721
 21
103.361412692
  0
LINE
  5
314
100
AcDbEntity
  8
0
100
AcDbLine
 62
7
  6
BYLAYER
 10
59.0478454645
 20
105.8401683733
 11
53.7189784346
 21
108.9167215865
  0
LINE
  5
315
100
AcDbEntity
  8
0
100
AcDbLine
 62
7
  6
BYLAYER
 10
49.425550527
 20
111.3954772678
 11
43.0839827186
 21
115.0567003211
  0
LINE
  5
316
100
AcDbEntity
  8
0
100
AcDbLine
 62
7
  6
BYLAYER
 10
70.3438351925
 20
100.1350756184
 11
63.3412733721
 21
104.1779151091
  0
LINE
  5
317
100
AcDbEntity
  8
0
100
AcDbLine
 62
7
  6
BYLAYER
 10
59.7549674089
 20
106.2484229813
 11
53.7189784346
 21
109.7332240037
  0
LINE
  5
318
100
AcDbEntity
  8
0
100
AcDbLine
 62
7
  6
BYLAYER
 10
50.1326724714
 20
111.8037318758
 11
43.0839827186
 21
115.8732027382
  0
LINE
  5
319
100
AcDbEntity
  8
0
100
AcDbLine
 62
7
  6
BYLAYER
 10
44.1740837201
 20
116.5025690881
 11
51.2227734729
 21
112.4330982256
  0
LINE
  5
31A
100
AcDbEntity
  8
0
100
AcDbLine
 62
7
  6
BYLAYER
 10
54.8090794361
 20
110.3625903535
 11
60.8450684104
 21
106.8777893311
  0
LINE
  5
31B
100
AcDbEntity
  8
0
100
AcDbLine
 62
7
  6
BYLAYER
 10
64.4313743736
 20
104.807281459
 11
71.433936194
 21
100.7644419682
  0
LINE
  5
31C
100
AcDbEntity
  8
0
100
AcDbLine
 62
7
  6
BYLAYER
 10
89.735557134
 20
67.7652437468
 11
89.735557134
 21
77.3183220272
  0
LINE
  5
31D
100
AcDbEntity
  8
0
100
AcDbLine
 62
7
  6
BYLAYER
 10
90.3100082914
 20
37.3555852925
 11
90.3100082914
 21
57.4415447539
  0
LINE
  5
31E
100
AcDbEntity
  8
0
100
AcDbLine
 62
7
  6
BYLAYER
 10
90.3100082914
 20
89.0401882968
 11
90.3100082914
 21
98.5932665772
  0
LINE
  5
31F
100
AcDbEntity
  8
0
100
AcDbLine
 62
7
  6
BYLAYER
 10
54.4676904148
 20
114.3065407126
 11
55.4765672692
 21
113.7240785662
  0
LINE
  5
320
100
AcDbEntity
  8
0
100
AcDbLine
 62
7
  6
BYLAYER
 10
57.076350854
 20
112.8004639778
 11
58.053996378
 21
112.2360328405
  0
LINE
  5
321
100
AcDbEntity
  8
0
100
AcDbLine
 62
7
  6
BYLAYER
 10
64.0901990009
 20
108.7513551674
 11
65.0916694498
 21
108.1731690144
  0
LINE
  5
322
100
AcDbEntity
  8
0
100
AcDbLine
 62
7
  6
BYLAYER
 10
66.6914530346
 20
107.2495544261
 11
67.6765049641
 21
106.6808472953
  0
LINE
  5
323
100
AcDbEntity
  8
0
100
AcDbLine
 62
7
  6
BYLAYER
 10
78.0417475894
 20
102.5738111211
 11
77.0164384879
 21
103.1657602151
  0
LINE
  5
324
100
AcDbEntity
  8
0
100
AcDbLine
 62
7
  6
BYLAYER
 10
49.7927140698
 20
118.8830292642
 11
48.7674049683
 21
119.4749783582
  0
LINE
  5
325
100
AcDbEntity
  8
0
100
AcDbLine
 62
7
  6
BYLAYER
 10
62.3933523197
 20
29.650531778
 11
65.6517784907
 21
31.5317737755
  0
LINE
  5
326
100
AcDbEntity
  8
0
100
AcDbLine
 62
7
  6
BYLAYER
 10
62.4452170848
 20
28.8790941002
 11
62.3933523197
 21
28.8491501428
  0
LINE
  5
327
100
AcDbEntity
  8
0
100
AcDbLine
 62
7
  6
BYLAYER
 10
63.5304493153
 20
29.3831762344
 11
62.5915202088
 21
28.8410884978
  0
LINE
  5
328
100
AcDbEntity
  8
0
100
AcDbLine
 62
7
  6
BYLAYER
 10
65.6517784907
 20
28.1584539708
 11
62.3933523197
 21
26.2772119733
  0
LINE
  5
329
100
AcDbEntity
  8
0
100
AcDbLine
 62
7
  6
BYLAYER
 10
89.0372213844
 20
107.6564561058
 11
90.3100082914
 21
98.5932665772
  0
LINE
  5
32A
100
AcDbEntity
  8
0
100
AcDbLine
 62
7
  6
BYLAYER
 10
54.2123574016
 20
16.5147212373
 11
90.3100082914
 21
37.3555852925
  0
LINE
  5
32B
100
AcDbEntity
  8
0
100
AcDbLine
 62
7
  6
BYLAYER
 10
74.283428264
 20
113.4800017626
 11
66.2669722944
 21
118.1066400668
  0
LINE
  5
32C
100
AcDbEntity
  8
0
100
AcDbLine
 62
7
  6
BYLAYER
 10
83.0975250113
 20
108.3912957548
 11
75.8832118487
 21
112.5563871742
  0
LINE
  5
32D
100
AcDbEntity
  8
0
100
AcDbLine
 62
7
  6
BYLAYER
 10
57.2526510149
 20
124.3739082047
 11
58.3486588696
 21
123.7411420898
  0
LINE
  5
32E
100
AcDbEntity
  8
0
100
AcDbLine
 62
7
  6
BYLAYER
 10
84.7238638369
 20
108.5137548916
 11
86.526993636
 21
107.4727409675
  0
LINE
  5
32F
100
AcDbEntity
  8
0
100
AcDbLine
 62
7
  6
BYLAYER
 10
64.6671887097
 20
119.0302546552
 11
57.4294419884
 21
123.2104351439
  0
LINE
  5
330
100
AcDbEntity
  8
0
100
AcDbLine
 62
7
  6
BYLAYER
 10
89.0372213844
 20
107.6564561058
 11
86.1380715113
 21
109.3302431993
  0
LINE
  5
331
100
AcDbEntity
  8
0
100
AcDbLine
 62
7
  6
BYLAYER
 10
59.7628665441
 20
124.5576303975
 11
57.5708386153
 21
125.8231696819
  0
LINE
  5
332
100
AcDbEntity
  8
0
100
AcDbLine
 62
7
  6
BYLAYER
 10
60.4699884884
 20
124.9658850055
 11
86.1380715113
 21
110.1467456164
  0
ARC
  5
333
100
AcDbEntity
  8
0
100
AcDbCircle
 62
7
  6
BYLAYER
 10
125.9157300893
 20
242.0978399737
 40
180.5330056734
100
AcDbArc
 50
244.1267006022
 51
246.3289907521
  0
ARC
  5
334
100
AcDbEntity
  8
0
100
AcDbCircle
 62
7
  6
BYLAYER
 10
101.1980017566
 20
198.7918599322
 40
130.5989534767
100
AcDbArc
 50
233.8224768875
 51
235.175763725
  0
ARC
  5
335
100
AcDbEntity
  8
0
100
AcDbCircle
 62
7
  6
BYLAYER
 10
98.4484364324
 20
195.0117406081
 40
125.9246338665
100
AcDbArc
 50
232.7637119077
 51
233.8170459598
  0
ARC
  5
336
100
AcDbEntity
  8
0
100
AcDbCircle
 62
7
  6
BYLAYER
 10
-17.753083322
 20
64.707353578
 40
47.3418474247
100
AcDbArc
 50
358.0342135808
 51
359.9848392638
  0
ARC
  5
337
100
AcDbEntity
  8
0
100
AcDbCircle
 62
7
  6
BYLAYER
 10
58.8764898923
 20
123.101271927
 40
23.4877333573
100
AcDbArc
 50
255.6257145394
 51
256.4331555039
  0
ARC
  5
338
100
AcDbEntity
  8
0
100
AcDbCircle
 62
7
  6
BYLAYER
 10
49.3148419579
 20
128.5503683644
 40
23.4236360278
100
AcDbArc
 50
255.6250937442
 51
256.1843580701
  0
ARC
  5
339
100
AcDbEntity
  8
0
100
AcDbCircle
 62
7
  6
BYLAYER
 10
68.3465721444
 20
51.2958461755
 40
23.180525558
100
AcDbArc
 50
255.2511550507
 51
255.6247783976
  0
ARC
  5
33A
100
AcDbEntity
  8
0
100
AcDbCircle
 62
7
  6
BYLAYER
 10
68.3465721441
 20
109.1257290174
 40
23.1805255567
100
AcDbArc
 50
255.2511550506
 51
255.6247783976
  0
ARC
  5
33B
100
AcDbEntity
  8
0
100
AcDbCircle
 62
7
  6
BYLAYER
 10
64.2433933498
 20
131.1680627109
 40
18.966923273
100
AcDbArc
 50
220.3690388067
 51
223.872891651
  0
ARC
  5
33C
100
AcDbEntity
  8
0
100
AcDbCircle
 62
7
  6
BYLAYER
 10
55.6213929861
 20
18.1300903997
 40
13.0291417435
100
AcDbArc
 50
56.5148985877
 51
56.9985596158
  0
ARC
  5
33D
100
AcDbEntity
  8
0
100
AcDbCircle
 62
7
  6
BYLAYER
 10
55.7432494984
 20
18.3179042496
 40
12.8052599849
100
AcDbArc
 50
56.998117045
 51
57.6312445652
  0
ARC
  5
33E
100
AcDbEntity
  8
0
100
AcDbCircle
 62
7
  6
BYLAYER
 10
55.8994602255
 20
18.5646606284
 40
12.5132146571
100
AcDbArc
 50
57.6304829143
 51
58.4560525571
  0
ARC
  5
33F
100
AcDbEntity
  8
0
100
AcDbCircle
 62
7
  6
BYLAYER
 10
60.8580216431
 20
104.4526516034
 40
8.0713789999
100
AcDbArc
 50
216.4226474777
 51
217.5605036996
  0
ARC
  5
340
100
AcDbEntity
  8
0
100
AcDbCircle
 62
7
  6
BYLAYER
 10
51.2565310501
 20
109.9221168181
 40
8.001904178
100
AcDbArc
 50
215.908639101
 51
217.5656235878
  0
ARC
  5
341
100
AcDbEntity
  8
0
100
AcDbCircle
 62
7
  6
BYLAYER
 10
40.4099606457
 20
61.0957542304
 40
5.0019453515
100
AcDbArc
 50
239.6976119817
 51
240.000356092
  0
SPLINE
  5
342
100
AcDbEntity
  8
0
100
AcDbSpline
 62
7
  6
BYLAYER
 70
0
 71
3
 72
22
 73
18
 74
0
 42
0.0000001
 43
0.0000001
 44
0.0000000001
 40
0.0
 40
0.0
 40
0.0
 40
0.0
 40
0.0428096793
 40
0.0873884438
 40
0.1351706728
 40
0.1870818594
 40
0.2435312077
 40
0.3044937516
 40
0.3696001285
 40
0.4382175636
 40
0.5095266233
 40
0.5825764163
 40
0.7296031604
 40
0.8016084062
 40
0.8712205282
 40
0.9376081224
 40
1.0
 40
1.0
 40
1.0
 40
1.0
 10
19.6726039141
 20
67.935334666
 30
0.0
 10
19.7748705477
 20
67.9944001891
 30
0.0
 10
19.9686824652
 20
68.1428902606
 30
0.0
 10
20.2019340933
 20
68.4379822308
 30
0.0
 10
20.3761532222
 20
68.798895679
 30
0.0
 10
20.4888749886
 20
69.216772575
 30
0.0
 10
20.5389834118
 20
69.6828010752
 30
0.0
 10
20.5259781336
 20
70.1874149217
 30
0.0
 10
20.4503668194
 20
70.7202041832
 30
0.0
 10
20.3138963775
 20
71.2700220705
 30
0.0
 10
20.1194697935
 20
71.8253576362
 30
0.0
 10
19.7878753969
 20
72.5584149213
 30
0.0
 10
19.3633365925
 20
73.2487986318
 30
0.0
 10
18.8615730721
 20
73.8681139959
 30
0.0
 10
18.4605272902
 20
74.2798160572
 30
0.0
 10
18.0410253932
 20
74.6327170579
 30
0.0
 10
17.7448343685
 20
74.8306931545
 30
0.0
 10
17.5957738289
 20
74.9167513502
 30
0.0
  0
SPLINE
  5
343
100
AcDbEntity
  8
0
100
AcDbSpline
 62
7
  6
BYLAYER
 70
0
 71
3
 72
20
 73
16
 74
0
 42
0.0000001
 43
0.0000001
 44
0.0000000001
 40
0.0
 40
0.0
 40
0.0
 40
0.0
 40
0.060854277
 40
0.1253944854
 40
0.262758484
 40
0.406200455
 40
0.5486553477
 40
0.6173826345
 40
0.683352207
 40
0.745919918
 40
0.804604882
 40
0.859146179
 40
0.9095721896
 40
0.9562606647
 40
1.0
 40
1.0
 40
1.0
 40
1.0
 10
17.95110744
 20
68.3858825806
 30
0.0
 10
17.8142343016
 20
68.4649045362
 30
0.0
 10
17.5419741652
 20
68.6450895733
 30
0.0
 10
17.0142407055
 20
69.0791810266
 30
0.0
 10
16.4057343376
 20
69.7450135605
 30
0.0
 10
15.8011092358
 20
70.6679139837
 30
0.0
 10
15.4197244596
 20
71.5111251575
 30
0.0
 10
15.2078631413
 20
72.199850827
 30
0.0
 10
15.1017643836
 20
72.7018622941
 30
0.0
 10
15.048483615
 20
73.1860542826
 30
0.0
 10
15.0491417512
 20
73.6436878945
 30
0.0
 10
15.1039579848
 20
74.0664970636
 30
0.0
 10
15.2123692738
 20
74.4469562379
 30
0.0
 10
15.373075936
 20
74.7778455584
 30
0.0
 10
15.5176586111
 20
74.9656772162
 30
0.0
 10
15.5969191796
 20
75.0470529
 30
0.0
  0
SPLINE
  5
344
100
AcDbEntity
  8
0
100
AcDbSpline
 62
7
  6
BYLAYER
 70
0
 71
3
 72
9
 73
5
 74
0
 42
0.0000001
 43
0.0000001
 44
0.0000000001
 40
0.0
 40
0.0
 40
0.0
 40
0.0
 40
0.2529660845
 40
1.0
 40
1.0
 40
1.0
 40
1.0
 10
15.5969191796
 20
75.0470529
 30
0.0
 10
15.6179703022
 20
75.0686657842
 30
0.0
 10
15.7037687913
 20
75.1515439226
 30
0.0
 10
15.8000938374
 20
75.2235800379
 30
0.0
 10
15.8763633398
 20
75.2696366348
 30
0.0
  0
SPLINE
  5
345
100
AcDbEntity
  8
0
100
AcDbSpline
 62
7
  6
BYLAYER
 70
0
 71
3
 72
12
 73
8
 74
0
 42
0.0000001
 43
0.0000001
 44
0.0000000001
 40
0.0
 40
0.0
 40
0.0
 40
0.0
 40
0.1078298499
 40
0.2183645521
 40
0.4527180154
 40
0.7121764983
 40
1.0
 40
1.0
 40
1.0
 40
1.0
 10
19.8952560519
 20
68.1277321193
 30
0.0
 10
19.828993051
 20
68.0968067913
 30
0.0
 10
19.6895485511
 20
68.0448356796
 30
0.0
 10
19.3878281028
 20
67.9828682048
 30
0.0
 10
18.9726383888
 20
67.9903121376
 30
0.0
 10
18.4565039336
 20
68.126343748
 30
0.0
 10
18.1201445186
 20
68.2882911855
 30
0.0
 10
17.95110744
 20
68.3858825806
 30
0.0
  0
SPLINE
  5
346
100
AcDbEntity
  8
0
100
AcDbSpline
 62
7
  6
BYLAYER
 70
0
 71
3
 72
14
 73
10
 74
0
 42
0.0000001
 43
0.0000001
 44
0.0000000001
 40
0.0
 40
0.0
 40
0.0
 40
0.0
 40
0.2892954219
 40
0.4226028452
 40
0.548550071
 40
0.6679287252
 40
0.7818990373
 40
0.8919704441
 40
1.0
 40
1.0
 40
1.0
 40
1.0
 10
17.5957738289
 20
74.9167513502
 30
0.0
 10
17.4135899932
 20
75.0219328572
 30
0.0
 10
17.1338649277
 20
75.1550612542
 30
0.0
 10
16.7502729809
 20
75.2669186043
 30
0.0
 10
16.4780128412
 20
75.3126009256
 30
0.0
 10
16.2160745616
 20
75.3216504765
 30
0.0
 10
15.9669109429
 20
75.2938717509
 30
0.0
 10
15.7331871791
 20
75.229205342
 30
0.0
 10
15.5887611997
 20
75.1615219464
 30
0.0
 10
15.520736251
 20
75.1222331868
 30
0.0
  0
SPLINE
  5
347
100
AcDbEntity
  8
0
100
AcDbSpline
 62
7
  6
BYLAYER
 70
0
 71
3
 72
11
 73
7
 74
0
 42
0.0000001
 43
0.0000001
 44
0.0000000001
 40
0.0
 40
0.0
 40
0.0
 40
0.0
 40
0.2897042895
 40
0.5490907647
 40
0.7822174449
 40
1.0
 40
1.0
 40
1.0
 40
1.0
 10
20.5739994371
 20
57.824361784
 30
0.0
 10
20.5739994371
 20
57.7736934109
 30
0.0
 10
20.5816814653
 20
57.6773330054
 30
0.0
 10
20.6207061763
 20
57.5449389938
 30
0.0
 10
20.6864108663
 20
57.437509055
 30
0.0
 10
20.7481275957
 20
57.3856243654
 30
0.0
 10
20.7811142527
 20
57.3665799576
 30
0.0
  0
SPLINE
  5
348
100
AcDbEntity
  8
0
100
AcDbSpline
 62
7
  6
BYLAYER
 70
0
 71
3
 72
9
 73
5
 74
0
 42
0.0000001
 43
0.0000001
 44
0.0000000001
 40
0.0
 40
0.0
 40
0.0
 40
0.0
 40
0.2605551858
 40
1.0
 40
1.0
 40
1.0
 40
1.0
 10
20.5989843546
 20
58.0539158586
 30
0.0
 10
20.5948943417
 20
58.0342629441
 30
0.0
 10
20.5809185957
 20
57.958501981
 30
0.0
 10
20.5739994371
 20
57.881330948
 30
0.0
 10
20.5739994371
 20
57.824361784
 30
0.0
  0
SPLINE
  5
349
100
AcDbEntity
  8
0
100
AcDbSpline
 62
7
  6
BYLAYER
 70
0
 71
3
 72
9
 73
5
 74
0
 42
0.0000001
 43
0.0000001
 44
0.0000000001
 40
0.0
 40
0.0
 40
0.0
 40
0.0
 40
0.485812116
 40
1.0
 40
1.0
 40
1.0
 40
1.0
 10
21.8105554687
 20
69.1854749995
 30
0.0
 10
21.8105554687
 20
67.3698476416
 30
0.0
 10
21.5889784393
 20
63.6306484627
 30
0.0
 10
20.9905197992
 20
59.9352822446
 30
0.0
 10
20.5989843546
 20
58.0539158586
 30
0.0
  0
SPLINE
  5
34A
100
AcDbEntity
  8
0
100
AcDbSpline
 62
7
  6
BYLAYER
 70
0
 71
3
 72
9
 73
5
 74
0
 42
0.0000001
 43
0.0000001
 44
0.0000000001
 40
0.0
 40
0.0
 40
0.0
 40
0.0
 40
0.2450709729
 40
1.0
 40
1.0
 40
1.0
 40
1.0
 10
21.6364982553
 20
73.069361716
 30
0.0
 10
21.6656809398
 20
72.7530468601
 30
0.0
 10
21.7689973637
 20
71.4609142271
 30
0.0
 10
21.8105554687
 20
70.1640053224
 30
0.0
 10
21.8105554687
 20
69.1854749995
 30
0.0
  0
SPLINE
  5
34B
100
AcDbEntity
  8
0
100
AcDbSpline
 62
7
  6
BYLAYER
 70
0
 71
3
 72
11
 73
7
 74
0
 42
0.0000001
 43
0.0000001
 44
0.0000000001
 40
0.0
 40
0.0
 40
0.0
 40
0.0
 40
0.2433780094
 40
0.4919706125
 40
0.7445943129
 40
1.0
 40
1.0
 40
1.0
 40
1.0
 10
31.2167550005
 20
68.378262403
 30
0.0
 10
30.8532130682
 20
66.9618647984
 30
0.0
 10
30.0341973056
 20
64.1196994881
 30
0.0
 10
28.5593660383
 20
59.8937693354
 30
0.0
 10
26.8345670423
 20
55.6854166497
 30
0.0
 10
25.5316494034
 20
52.9232822499
 30
0.0
 10
24.8419422313
 20
51.5524342185
 30
0.0
  0
SPLINE
  5
34C
100
AcDbEntity
  8
0
100
AcDbSpline
 62
7
  6
BYLAYER
 70
0
 71
3
 72
9
 73
5
 74
0
 42
0.0000001
 43
0.0000001
 44
0.0000000001
 40
0.0
 40
0.0
 40
0.0
 40
0.0
 40
0.5056756463
 40
1.0
 40
1.0
 40
1.0
 40
1.0
 10
41.0368931722
 20
55.3616785264
 30
0.0
 10
40.7208673444
 20
55.4126578366
 30
0.0
 10
40.1029747845
 20
55.5666356644
 30
0.0
 10
39.5235257505
 20
55.8318084681
 30
0.0
 10
39.2525233699
 20
55.9882695106
 30
0.0
  0
SPLINE
  5
34D
100
AcDbEntity
  8
0
100
AcDbSpline
 62
7
  6
BYLAYER
 70
0
 71
3
 72
11
 73
7
 74
0
 42
0.0000001
 43
0.0000001
 44
0.0000000001
 40
0.0
 40
0.0
 40
0.0
 40
0.0
 40
0.2648731882
 40
0.5185873983
 40
0.7628544853
 40
1.0
 40
1.0
 40
1.0
 40
1.0
 10
40.1487799046
 20
49.431212575
 30
0.0
 10
39.751890491
 20
49.3631014662
 30
0.0
 10
38.9673879282
 20
49.2685869639
 30
0.0
 10
37.8050425929
 20
49.2596856785
 30
0.0
 10
36.6918845168
 20
49.3874523003
 30
0.0
 10
35.9793323925
 20
49.5657025269
 30
0.0
 10
35.636483829
 20
49.6772436513
 30
0.0
  0
SPLINE
  5
34E
100
AcDbEntity
  8
0
100
AcDbSpline
 62
7
  6
BYLAYER
 70
0
 71
3
 72
9
 73
5
 74
0
 42
0.0000001
 43
0.0000001
 44
0.0000000001
 40
0.0
 40
0.0
 40
0.0
 40
0.0
 40
0.2549660781
 40
1.0
 40
1.0
 40
1.0
 40
1.0
 10
29.5887624453
 20
64.6948266998
 30
0.0
 10
29.5887624453
 20
65.0253090694
 30
0.0
 10
29.5747078325
 20
66.3214317701
 30
0.0
 10
29.5034222916
 20
67.6170978392
 30
0.0
 10
29.4147052319
 20
68.5787134163
 30
0.0
  0
SPLINE
  5
34F
100
AcDbEntity
  8
0
100
AcDbSpline
 62
7
  6
BYLAYER
 70
0
 71
3
 72
22
 73
18
 74
0
 42
0.0000001
 43
0.0000001
 44
0.0000000001
 40
0.0
 40
0.0
 40
0.0
 40
0.0
 40
0.0428096793
 40
0.0873884438
 40
0.1351706728
 40
0.1870818594
 40
0.2435312077
 40
0.3044937516
 40
0.3696001285
 40
0.4382175636
 40
0.5095266233
 40
0.5825764163
 40
0.7296031604
 40
0.8016084062
 40
0.8712205282
 40
0.9376081224
 40
1.0
 40
1.0
 40
1.0
 40
1.0
 10
15.520736251
 20
75.1222331868
 30
0.0
 10
15.4184696174
 20
75.0631676637
 30
0.0
 10
15.2246576999
 20
74.9146775922
 30
0.0
 10
14.9914060718
 20
74.619585622
 30
0.0
 10
14.8171869429
 20
74.2586721738
 30
0.0
 10
14.7044651765
 20
73.8407952778
 30
0.0
 10
14.6543567533
 20
73.3747667776
 30
0.0
 10
14.6673620315
 20
72.8701529311
 30
0.0
 10
14.7429733457
 20
72.3373636696
 30
0.0
 10
14.8794437876
 20
71.7875457823
 30
0.0
 10
15.0738703716
 20
71.2322102166
 30
0.0
 10
15.4054647682
 20
70.4991529315
 30
0.0
 10
15.8300035726
 20
69.808769221
 30
0.0
 10
16.331767093
 20
69.1894538569
 30
0.0
 10
16.7328128749
 20
68.7777517956
 30
0.0
 10
17.1523147719
 20
68.4248507949
 30
0.0
 10
17.4485057966
 20
68.2268746983
 30
0.0
 10
17.5975663362
 20
68.1408165026
 30
0.0
  0
SPLINE
  5
350
100
AcDbEntity
  8
0
100
AcDbSpline
 62
7
  6
BYLAYER
 70
0
 71
3
 72
14
 73
10
 74
0
 42
0.0000001
 43
0.0000001
 44
0.0000000001
 40
0.0
 40
0.0
 40
0.0
 40
0.0
 40
0.2892954219
 40
0.4226028452
 40
0.548550071
 40
0.6679287252
 40
0.7818990373
 40
0.8919704441
 40
1.0
 40
1.0
 40
1.0
 40
1.0
 10
17.5975663362
 20
68.1408165026
 30
0.0
 10
17.7797501719
 20
68.0356349956
 30
0.0
 10
18.0594752374
 20
67.9025065986
 30
0.0
 10
18.4430671841
 20
67.7906492485
 30
0.0
 10
18.7153273239
 20
67.7449669272
 30
0.0
 10
18.9772656035
 20
67.7359173763
 30
0.0
 10
19.2264292222
 20
67.7636961019
 30
0.0
 10
19.460152986
 20
67.8283625108
 30
0.0
 10
19.6045789654
 20
67.8960459064
 30
0.0
 10
19.6726039141
 20
67.935334666
 30
0.0
  0
SPLINE
  5
351
100
AcDbEntity
  8
0
100
AcDbSpline
 62
7
  6
BYLAYER
 70
0
 71
3
 72
11
 73
7
 74
0
 42
0.0000001
 43
0.0000001
 44
0.0000000001
 40
0.0
 40
0.0
 40
0.0
 40
0.0
 40
0.2554056871
 40
0.5080293875
 40
0.7566219906
 40
1.0
 40
1.0
 40
1.0
 40
1.0
 10
32.6201492079
 20
47.0617859188
 30
0.0
 10
33.30985638
 20
48.4326339501
 30
0.0
 10
34.6127740189
 20
51.1947683499
 30
0.0
 10
36.3375730149
 20
55.4031210357
 30
0.0
 10
37.8124042822
 20
59.6290511884
 30
0.0
 10
38.6314200448
 20
62.4712164987
 30
0.0
 10
38.9949619771
 20
63.8876141033
 30
0.0
  0
SPLINE
  5
352
100
AcDbEntity
  8
0
100
AcDbSpline
 62
7
  6
BYLAYER
 70
0
 71
3
 72
12
 73
8
 74
0
 42
0.0000001
 43
0.0000001
 44
0.0000000001
 40
0.0
 40
0.0
 40
0.0
 40
0.0
 40
0.1081631296
 40
0.2183737778
 40
0.4513417108
 40
0.7104804321
 40
1.0
 40
1.0
 40
1.0
 40
1.0
 10
31.2004801974
 20
92.4286397217
 30
0.0
 10
31.2619693188
 20
92.4641258227
 30
0.0
 10
31.3801758271
 20
92.5466494827
 30
0.0
 10
31.59217959
 20
92.7552469118
 30
0.0
 10
31.8022870903
 20
93.0976087858
 30
0.0
 10
31.9483016939
 20
93.5938945477
 30
0.0
 10
31.9771612208
 20
93.9552879756
 30
0.0
 10
31.9771612208
 20
94.1453176844
 30
0.0
  0
SPLINE
  5
353
100
AcDbEntity
  8
0
100
AcDbSpline
 62
7
  6
BYLAYER
 70
0
 71
3
 72
12
 73
8
 74
0
 42
0.0000001
 43
0.0000001
 44
0.0000000001
 40
0.0
 40
0.0
 40
0.0
 40
0.0
 40
0.1081631296
 40
0.2183737778
 40
0.4513417108
 40
0.7104804321
 40
1.0
 40
1.0
 40
1.0
 40
1.0
 10
49.9001277525
 20
23.5345668677
 30
0.0
 10
49.9616168739
 20
23.5700529687
 30
0.0
 10
50.0798233822
 20
23.6525766287
 30
0.0
 10
50.2918271451
 20
23.8611740578
 30
0.0
 10
50.5019346454
 20
24.2035359318
 30
0.0
 10
50.647949249
 20
24.6998216937
 30
0.0
 10
50.6768087759
 20
25.0612151216
 30
0.0
 10
50.6768087759
 20
25.2512448304
 30
0.0
  0
SPLINE
  5
354
100
AcDbEntity
  8
0
100
AcDbSpline
 62
7
  6
BYLAYER
 70
0
 71
3
 72
12
 73
8
 74
0
 42
0.0000001
 43
0.0000001
 44
0.0000000001
 40
0.0
 40
0.0
 40
0.0
 40
0.0
 40
0.1081631296
 40
0.2183737778
 40
0.4513417108
 40
0.7104804321
 40
1.0
 40
1.0
 40
1.0
 40
1.0
 10
50.2924427763
 20
81.4061393497
 30
0.0
 10
50.3539318978
 20
81.4416254507
 30
0.0
 10
50.4721384061
 20
81.5241491107
 30
0.0
 10
50.684142169
 20
81.7327465397
 30
0.0
 10
50.8942496692
 20
82.0751084138
 30
0.0
 10
51.0402642728
 20
82.5713941757
 30
0.0
 10
51.0691237997
 20
82.9327876035
 30
0.0
 10
51.0691237997
 20
83.1228173124
 30
0.0
  0
SPLINE
  5
355
100
AcDbEntity
  8
0
100
AcDbSpline
 62
7
  6
BYLAYER
 70
0
 71
3
 72
15
 73
11
 74
0
 42
0.0000001
 43
0.0000001
 44
0.0000000001
 40
0.0
 40
0.0
 40
0.0
 40
0.0
 40
0.1155541854
 40
0.2406871559
 40
0.3723426506
 40
0.5069262986
 40
0.6405258004
 40
0.7693413385
 40
0.8900033312
 40
1.0
 40
1.0
 40
1.0
 40
1.0
 10
50.6768087759
 20
25.2512448304
 30
0.0
 10
50.6768087759
 20
25.4753844319
 30
0.0
 10
50.632846618
 20
25.942701161
 30
0.0
 10
50.4592754413
 20
26.6459047806
 30
0.0
 10
50.1822988181
 20
27.3549030534
 30
0.0
 10
49.813885121
 20
28.0394722198
 30
0.0
 10
49.3695136257
 20
28.6706794304
 30
0.0
 10
48.8679436042
 20
29.221853363
 30
0.0
 10
48.3304742465
 20
29.6696354415
 30
0.0
 10
47.9425887203
 20
29.8984725653
 30
0.0
 10
47.7484784859
 20
29.9870366111
 30
0.0
  0
SPLINE
  5
356
100
AcDbEntity
  8
0
100
AcDbSpline
 62
7
  6
BYLAYER
 70
0
 71
3
 72
19
 73
15
 74
0
 42
0.0000001
 43
0.0000001
 44
0.0000000001
 40
0.0
 40
0.0
 40
0.0
 40
0.0
 40
0.1286362507
 40
0.2701579943
 40
0.4172487836
 40
0.5615290737
 40
0.6301790012
 40
0.6953185847
 40
0.7563130481
 40
0.8127935611
 40
0.8647367275
 40
0.9125482117
 40
0.957158566
 40
1.0
 40
1.0
 40
1.0
 40
1.0
 10
31.9771612208
 20
94.1453176844
 30
0.0
 10
31.9771612208
 20
94.4658608542
 30
0.0
 10
31.8874988594
 20
95.1398176688
 30
0.0
 10
31.5527656983
 20
96.1294239119
 30
0.0
 10
31.0370944188
 20
97.0825242083
 30
0.0
 10
30.4818160028
 20
97.7936485318
 30
0.0
 10
29.9820456243
 20
98.2750082733
 30
0.0
 10
29.5991167768
 20
98.5748327672
 30
0.0
 10
29.2099594692
 20
98.812890519
 30
0.0
 10
28.8224921828
 20
98.9841166795
 30
0.0
 10
28.4444333158
 20
99.0846203273
 30
0.0
 10
28.0831813611
 20
99.1111359936
 30
0.0
 10
27.7467615247
 20
99.061906288
 30
0.0
 10
27.5429811633
 20
98.9771621403
 30
0.0
 10
27.4505193056
 20
98.923801306
 30
0.0
  0
SPLINE
  5
357
100
AcDbEntity
  8
0
100
AcDbSpline
 62
7
  6
BYLAYER
 70
0
 71
3
 72
19
 73
15
 74
0
 42
0.0000001
 43
0.0000001
 44
0.0000000001
 40
0.0
 40
0.0
 40
0.0
 40
0.0
 40
0.1286362507
 40
0.2701579943
 40
0.4172487836
 40
0.5615290737
 40
0.6301790012
 40
0.6953185847
 40
0.7563130481
 40
0.8127935611
 40
0.8647367275
 40
0.9125482117
 40
0.957158566
 40
1.0
 40
1.0
 40
1.0
 40
1.0
 10
41.5231425103
 20
88.6340674984
 30
0.0
 10
41.5231425103
 20
88.9546106682
 30
0.0
 10
41.4334801489
 20
89.6285674828
 30
0.0
 10
41.0987469878
 20
90.6181737259
 30
0.0
 10
40.5830757082
 20
91.5712740223
 30
0.0
 10
40.0277972923
 20
92.2823983458
 30
0.0
 10
39.5280269138
 20
92.7637580873
 30
0.0
 10
39.1450980662
 20
93.0635825812
 30
0.0
 10
38.7559407587
 20
93.301640333
 30
0.0
 10
38.3684734722
 20
93.4728664935
 30
0.0
 10
37.9904146053
 20
93.5733701412
 30
0.0
 10
37.6291626506
 20
93.5998858076
 30
0.0
 10
37.2927428142
 20
93.550656102
 30
0.0
 10
37.0889624528
 20
93.4659119543
 30
0.0
 10
36.9965005951
 20
93.4125511199
 30
0.0
  0
SPLINE
  5
358
100
AcDbEntity
  8
0
100
AcDbSpline
 62
7
  6
BYLAYER
 70
0
 71
3
 72
19
 73
15
 74
0
 42
0.0000001
 43
0.0000001
 44
0.0000000001
 40
0.0
 40
0.0
 40
0.0
 40
0.0
 40
0.1286362507
 40
0.2701579943
 40
0.4172487836
 40
0.5615290737
 40
0.6301790012
 40
0.6953185847
 40
0.7563130481
 40
0.8127935611
 40
0.8647367275
 40
0.9125482117
 40
0.957158566
 40
1.0
 40
1.0
 40
1.0
 40
1.0
 10
51.0691237997
 20
83.1228173124
 30
0.0
 10
51.0691237997
 20
83.4433604822
 30
0.0
 10
50.9794614384
 20
84.1173172967
 30
0.0
 10
50.6447282773
 20
85.1069235399
 30
0.0
 10
50.1290569977
 20
86.0600238362
 30
0.0
 10
49.5737785818
 20
86.7711481597
 30
0.0
 10
49.0740082033
 20
87.2525079012
 30
0.0
 10
48.6910793557
 20
87.5523323952
 30
0.0
 10
48.3019220482
 20
87.790390147
 30
0.0
 10
47.9144547617
 20
87.9616163075
 30
0.0
 10
47.5363958947
 20
88.0621199552
 30
0.0
 10
47.1751439401
 20
88.0886356215
 30
0.0
 10
46.8387241037
 20
88.0394059159
 30
0.0
 10
46.6349437423
 20
87.9546617683
 30
0.0
 10
46.5424818845
 20
87.9013009339
 30
0.0
  0
SPLINE
  5
359
100
AcDbEntity
  8
0
100
AcDbSpline
 62
7
  6
BYLAYER
 70
0
 71
3
 72
12
 73
8
 74
0
 42
0.0000001
 43
0.0000001
 44
0.0000000001
 40
0.0
 40
0.0
 40
0.0
 40
0.0
 40
0.1081631296
 40
0.2183737778
 40
0.4513417108
 40
0.7104804321
 40
1.0
 40
1.0
 40
1.0
 40
1.0
 10
40.7464614869
 20
86.9173895357
 30
0.0
 10
40.8079506083
 20
86.9528756367
 30
0.0
 10
40.9261571166
 20
87.0353992967
 30
0.0
 10
41.1381608795
 20
87.2439967258
 30
0.0
 10
41.3482683798
 20
87.5863585998
 30
0.0
 10
41.4942829834
 20
88.0826443617
 30
0.0
 10
41.5231425103
 20
88.4440377896
 30
0.0
 10
41.5231425103
 20
88.6340674984
 30
0.0
  0
SPLINE
  5
35A
100
AcDbEntity
  8
0
100
AcDbSpline
 62
7
  6
BYLAYER
 70
0
 71
3
 72
9
 73
5
 74
0
 42
0.0000001
 43
0.0000001
 44
0.0000000001
 40
0.0
 40
0.0
 40
0.0
 40
0.0
 40
0.4921241965
 40
1.0
 40
1.0
 40
1.0
 40
1.0
 10
36.7821168078
 20
78.5145796528
 30
0.0
 10
39.4321052623
 20
76.984642717
 30
0.0
 10
44.9106669748
 20
74.0360680826
 30
0.0
 10
50.5424891993
 20
71.3933651063
 30
0.0
 10
53.4345420031
 20
70.1252372464
 30
0.0
  0
SPLINE
  5
35B
100
AcDbEntity
  8
0
100
AcDbSpline
 62
7
  6
BYLAYER
 70
0
 71
3
 72
9
 73
5
 74
0
 42
0.0000001
 43
0.0000001
 44
0.0000000001
 40
0.0
 40
0.0
 40
0.0
 40
0.0
 40
0.4909822168
 40
1.0
 40
1.0
 40
1.0
 40
1.0
 10
22.2510031241
 20
88.1286545208
 30
0.0
 10
24.5222751659
 20
86.4021363665
 30
0.0
 10
29.2708200575
 20
83.044781343
 30
0.0
 10
34.2205820403
 20
79.9934489838
 30
0.0
 10
36.7821168078
 20
78.5145796528
 30
0.0
  0
SPLINE
  5
35C
100
AcDbEntity
  8
0
100
AcDbSpline
 62
7
  6
BYLAYER
 70
0
 71
3
 72
9
 73
5
 74
0
 42
0.0000001
 43
0.0000001
 44
0.0000000001
 40
0.0
 40
0.0
 40
0.0
 40
0.0
 40
0.2453762606
 40
1.0
 40
1.0
 40
1.0
 40
1.0
 10
77.0164384879
 20
103.1657602151
 30
0.0
 10
76.9527290605
 20
103.1644613363
 30
0.0
 10
76.6930072005
 20
103.1637886028
 30
0.0
 10
76.4333074087
 20
103.181317645
 30
0.0
 10
76.2386177903
 20
103.2036916149
 30
0.0
  0
SPLINE
  5
35D
100
AcDbEntity
  8
0
100
AcDbSpline
 62
7
  6
BYLAYER
 70
0
 71
3
 72
9
 73
5
 74
0
 42
0.0000001
 43
0.0000001
 44
0.0000000001
 40
0.0
 40
0.0
 40
0.0
 40
0.0
 40
0.2443165748
 40
1.0
 40
1.0
 40
1.0
 40
1.0
 10
37.8427725636
 20
85.7555329615
 30
0.0
 10
39.0907350328
 20
85.0350377938
 30
0.0
 10
44.2404874889
 20
82.1587056266
 30
0.0
 10
49.5485031539
 20
79.5680046719
 30
0.0
 10
53.6227335569
 20
77.7606132585
 30
0.0
  0
SPLINE
  5
35E
100
AcDbEntity
  8
0
100
AcDbSpline
 62
7
  6
BYLAYER
 70
0
 71
3
 72
9
 73
5
 74
0
 42
0.0000001
 43
0.0000001
 44
0.0000000001
 40
0.0
 40
0.0
 40
0.0
 40
0.0
 40
0.243617026
 40
1.0
 40
1.0
 40
1.0
 40
1.0
 10
24.086937011
 20
94.7967663013
 30
0.0
 10
25.1567337477
 20
93.9945128117
 30
0.0
 10
29.601225696
 20
90.7726395776
 30
0.0
 10
34.2472654856
 20
87.8313529795
 30
0.0
 10
37.8427725636
 20
85.7555329615
 30
0.0
  0
SPLINE
  5
35F
100
AcDbEntity
  8
0
100
AcDbSpline
 62
7
  6
BYLAYER
 70
0
 71
3
 72
11
 73
7
 74
0
 42
0.0000001
 43
0.0000001
 44
0.0000000001
 40
0.0
 40
0.0
 40
0.0
 40
0.0
 40
0.2608410088
 40
0.5139665909
 40
0.7598409375
 40
1.0
 40
1.0
 40
1.0
 40
1.0
 10
44.9137770801
 20
105.0435983392
 30
0.0
 10
45.0965089757
 20
104.6283294629
 30
0.0
 10
45.504936448
 20
103.8299226144
 30
0.0
 10
46.2674034639
 20
102.7444116464
 30
0.0
 10
47.1689912305
 20
101.819601979
 30
0.0
 10
47.8620692631
 20
101.325592496
 30
0.0
 10
48.2238289952
 20
101.1167351423
 30
0.0
  0
SPLINE
  5
360
100
AcDbEntity
  8
0
100
AcDbSpline
 62
7
  6
BYLAYER
 70
0
 71
3
 72
11
 73
7
 74
0
 42
0.0000001
 43
0.0000001
 44
0.0000000001
 40
0.0
 40
0.0
 40
0.0
 40
0.0
 40
0.2484550076
 40
0.4965221156
 40
0.7465421087
 40
1.0
 40
1.0
 40
1.0
 40
1.0
 10
48.2238289952
 20
101.1167351423
 30
0.0
 10
48.5809055321
 20
100.9105815714
 30
0.0
 10
49.3355155343
 20
100.5653255957
 30
0.0
 10
50.5453748707
 20
100.2687956888
 30
0.0
 10
51.7961618802
 20
100.1913926163
 30
0.0
 10
52.6312356897
 20
100.2762275893
 30
0.0
 10
53.0455389193
 20
100.3488296622
 30
0.0
  0
SPLINE
  5
361
100
AcDbEntity
  8
0
100
AcDbSpline
 62
7
  6
BYLAYER
 70
0
 71
3
 72
11
 73
7
 74
0
 42
0.0000001
 43
0.0000001
 44
0.0000000001
 40
0.0
 40
0.0
 40
0.0
 40
0.0
 40
0.2608374543
 40
0.5139610932
 40
0.7598410607
 40
1.0
 40
1.0
 40
1.0
 40
1.0
 10
54.4597583696
 20
99.5323481531
 30
0.0
 10
54.6424883464
 20
99.1170836374
 30
0.0
 10
55.0508236556
 20
98.3186388724
 30
0.0
 10
55.8133191087
 20
97.2331287624
 30
0.0
 10
56.7149866073
 20
96.3083901569
 30
0.0
 10
57.4080488283
 20
95.8143424062
 30
0.0
 10
57.7698095058
 20
95.6054845066
 30
0.0
  0
SPLINE
  5
362
100
AcDbEntity
  8
0
100
AcDbSpline
 62
7
  6
BYLAYER
 70
0
 71
3
 72
11
 73
7
 74
0
 42
0.0000001
 43
0.0000001
 44
0.0000000001
 40
0.0
 40
0.0
 40
0.0
 40
0.0
 40
0.2484531314
 40
0.4965273628
 40
0.7465509224
 40
1.0
 40
1.0
 40
1.0
 40
1.0
 10
57.7698095058
 20
95.6054845066
 30
0.0
 10
58.1268825869
 20
95.3993329309
 30
0.0
 10
58.8814912456
 20
95.0540508384
 30
0.0
 10
60.0913832915
 20
94.7575935895
 30
0.0
 10
61.3421634467
 20
94.6801848906
 30
0.0
 10
62.1772322671
 20
94.7649800824
 30
0.0
 10
62.5915202088
 20
94.8375794762
 30
0.0
  0
SPLINE
  5
363
100
AcDbEntity
  8
0
100
AcDbSpline
 62
7
  6
BYLAYER
 70
0
 71
3
 72
11
 73
7
 74
0
 42
0.0000001
 43
0.0000001
 44
0.0000000001
 40
0.0
 40
0.0
 40
0.0
 40
0.0
 40
0.2484544115
 40
0.496518427
 40
0.7465385995
 40
1.0
 40
1.0
 40
1.0
 40
1.0
 10
38.6778481327
 20
106.6279855749
 30
0.0
 10
39.0349240834
 20
106.4218323425
 30
0.0
 10
39.7895275618
 20
106.0765774808
 30
0.0
 10
40.9993780646
 20
105.78003026
 30
0.0
 10
42.2501688452
 20
105.7026363817
 30
0.0
 10
43.0852483502
 20
105.7874767152
 30
0.0
 10
43.4995576298
 20
105.8600798482
 30
0.0
  0
SPLINE
  5
364
100
AcDbEntity
  8
0
100
AcDbSpline
 62
7
  6
BYLAYER
 70
0
 71
3
 72
11
 73
7
 74
0
 42
0.0000001
 43
0.0000001
 44
0.0000000001
 40
0.0
 40
0.0
 40
0.0
 40
0.0
 40
0.2402115051
 40
0.4860701999
 40
0.739125243
 40
1.0
 40
1.0
 40
1.0
 40
1.0
 10
38.677847565
 20
106.6279859413
 30
0.0
 10
38.3160017913
 20
106.83689297
 30
0.0
 10
37.6226620527
 20
107.3306702206
 30
0.0
 10
36.7211571104
 20
108.255559781
 30
0.0
 10
35.9588819238
 20
109.3411154296
 30
0.0
 10
35.550554887
 20
110.1395178336
 30
0.0
 10
35.3677957906
 20
110.5548485252
 30
0.0
  0
SPLINE
  5
365
100
AcDbEntity
  8
0
100
AcDbSpline
 62
7
  6
BYLAYER
 70
0
 71
3
 72
9
 73
5
 74
0
 42
0.0000001
 43
0.0000001
 44
0.0000000001
 40
0.0
 40
0.0
 40
0.0
 40
0.0
 40
0.242949792
 40
1.0
 40
1.0
 40
1.0
 40
1.0
 10
45.4024053743
 20
28.7469119275
 30
0.0
 10
45.3975515524
 20
28.7120184199
 30
0.0
 10
45.3802790914
 20
28.5680237857
 30
0.0
 10
45.3734858373
 20
28.4228282629
 30
0.0
 10
45.3734858373
 20
28.3130504893
 30
0.0
  0
SPLINE
  5
366
100
AcDbEntity
  8
0
100
AcDbSpline
 62
7
  6
BYLAYER
 70
0
 71
3
 72
10
 73
6
 74
0
 42
0.0000001
 43
0.0000001
 44
0.0000000001
 40
0.0
 40
0.0
 40
0.0
 40
0.0
 40
0.5212404895
 40
0.7668451327
 40
1.0
 40
1.0
 40
1.0
 40
1.0
 10
48.5553618418
 20
107.1460557316
 30
0.0
 10
49.1612351313
 20
106.4341170754
 30
0.0
 10
50.1290677432
 20
105.4462985355
 30
0.0
 10
51.5378279905
 20
104.3336786434
 30
0.0
 10
52.2590998294
 20
103.8646465984
 30
0.0
 10
52.6212427614
 20
103.6555680091
 30
0.0
  0
SPLINE
  5
367
100
AcDbEntity
  8
0
100
AcDbSpline
 62
7
  6
BYLAYER
 70
0
 71
3
 72
10
 73
6
 74
0
 42
0.0000001
 43
0.0000001
 44
0.0000000001
 40
0.0
 40
0.0
 40
0.0
 40
0.0
 40
0.2759358822
 40
0.5343970997
 40
1.0
 40
1.0
 40
1.0
 40
1.0
 10
52.6212427614
 20
103.6555680091
 30
0.0
 10
52.9624125413
 20
103.4585980009
 30
0.0
 10
53.6434497835
 20
103.1096907383
 30
0.0
 10
54.9815743106
 20
102.6096623651
 30
0.0
 10
56.0225322666
 20
102.4377376669
 30
0.0
 10
56.687123681
 20
102.4512870546
 30
0.0
  0
SPLINE
  5
368
100
AcDbEntity
  8
0
100
AcDbSpline
 62
7
  6
BYLAYER
 70
0
 71
3
 72
9
 73
5
 74
0
 42
0.0000001
 43
0.0000001
 44
0.0000000001
 40
0.0
 40
0.0
 40
0.0
 40
0.0
 40
0.2545448102
 40
1.0
 40
1.0
 40
1.0
 40
1.0
 10
36.7821168078
 20
85.1431667307
 30
0.0
 10
35.8978462168
 20
85.6536890449
 30
0.0
 10
32.4440625979
 20
87.6939117036
 30
0.0
 10
29.0727140161
 20
89.8744528794
 30
0.0
 10
26.6180504126
 20
91.5821705067
 30
0.0
  0
SPLINE
  5
369
100
AcDbEntity
  8
0
100
AcDbSpline
 62
7
  6
BYLAYER
 70
0
 71
3
 72
9
 73
5
 74
0
 42
0.0000001
 43
0.0000001
 44
0.0000000001
 40
0.0
 40
0.0
 40
0.0
 40
0.0
 40
0.2538640701
 40
1.0
 40
1.0
 40
1.0
 40
1.0
 10
47.1342794305
 20
79.661239512
 30
0.0
 10
46.2424152677
 20
80.0941427989
 30
0.0
 10
42.7439510382
 20
81.8294354157
 30
0.0
 10
39.3055297682
 20
83.6863065373
 30
0.0
 10
36.7821168078
 20
85.1431667307
 30
0.0
  0
SPLINE
  5
36A
100
AcDbEntity
  8
0
100
AcDbSpline
 62
7
  6
BYLAYER
 70
0
 71
3
 72
12
 73
8
 74
0
 42
0.0000001
 43
0.0000001
 44
0.0000000001
 40
0.0
 40
0.0
 40
0.0
 40
0.0
 40
0.1081631296
 40
0.2183737778
 40
0.4513417108
 40
0.7104804321
 40
1.0
 40
1.0
 40
1.0
 40
1.0
 10
46.5424818845
 20
87.9013009339
 30
0.0
 10
46.4809927631
 20
87.8658148329
 30
0.0
 10
46.3627862548
 20
87.7832911729
 30
0.0
 10
46.1507824919
 20
87.5746937439
 30
0.0
 10
45.9406749917
 20
87.2323318698
 30
0.0
 10
45.7946603881
 20
86.736046108
 30
0.0
 10
45.7658008611
 20
86.3746526801
 30
0.0
 10
45.7658008611
 20
86.1846229713
 30
0.0
  0
SPLINE
  5
36B
100
AcDbEntity
  8
0
100
AcDbSpline
 62
7
  6
BYLAYER
 70
0
 71
3
 72
9
 73
5
 74
0
 42
0.0000001
 43
0.0000001
 44
0.0000000001
 40
0.0
 40
0.0
 40
0.0
 40
0.0
 40
0.4768097555
 40
1.0
 40
1.0
 40
1.0
 40
1.0
 10
32.7823547663
 20
88.8188970187
 30
0.0
 10
32.7937018202
 20
89.0153593432
 30
0.0
 10
32.7720774318
 20
89.4303837192
 30
0.0
 10
32.6820232248
 20
89.834891528
 30
0.0
 10
32.620608387
 20
90.0419056194
 30
0.0
  0
SPLINE
  5
36C
100
AcDbEntity
  8
0
100
AcDbSpline
 62
7
  6
BYLAYER
 70
0
 71
3
 72
10
 73
6
 74
0
 42
0.0000001
 43
0.0000001
 44
0.0000000001
 40
0.0
 40
0.0
 40
0.0
 40
0.0
 40
0.5212404895
 40
0.7668451327
 40
1.0
 40
1.0
 40
1.0
 40
1.0
 10
58.1013431312
 20
101.6348055456
 30
0.0
 10
58.7072164208
 20
100.9228668894
 30
0.0
 10
59.6750490327
 20
99.9350483495
 30
0.0
 10
61.0838092799
 20
98.8224284573
 30
0.0
 10
61.8050811188
 20
98.3533964124
 30
0.0
 10
62.1672240508
 20
98.1443178231
 30
0.0
  0
SPLINE
  5
36D
100
AcDbEntity
  8
0
100
AcDbSpline
 62
7
  6
BYLAYER
 70
0
 71
3
 72
10
 73
6
 74
0
 42
0.0000001
 43
0.0000001
 44
0.0000000001
 40
0.0
 40
0.0
 40
0.0
 40
0.0
 40
0.2759358822
 40
0.5343970997
 40
1.0
 40
1.0
 40
1.0
 40
1.0
 10
62.1672240508
 20
98.1443178231
 30
0.0
 10
62.5083938308
 20
97.9473478149
 30
0.0
 10
63.189431073
 20
97.5984405522
 30
0.0
 10
64.5275556001
 20
97.0984121791
 30
0.0
 10
65.5685135561
 20
96.9264874808
 30
0.0
 10
66.2331049704
 20
96.9400368686
 30
0.0
  0
SPLINE
  5
36E
100
AcDbEntity
  8
0
100
AcDbSpline
 62
7
  6
BYLAYER
 70
0
 71
3
 72
9
 73
5
 74
0
 42
0.0000001
 43
0.0000001
 44
0.0000000001
 40
0.0
 40
0.0
 40
0.0
 40
0.0
 40
0.4730502076
 40
1.0
 40
1.0
 40
1.0
 40
1.0
 10
83.0975250113
 20
107.1636599075
 30
0.0
 10
82.5481743179
 20
107.2267919635
 30
0.0
 10
81.4030079207
 20
107.5141893046
 30
0.0
 10
80.3429149276
 20
108.0220288487
 30
0.0
 10
79.8094647893
 20
108.3300094622
 30
0.0
  0
SPLINE
  5
36F
100
AcDbEntity
  8
0
100
AcDbSpline
 62
7
  6
BYLAYER
 70
0
 71
3
 72
10
 73
6
 74
0
 42
0.0000001
 43
0.0000001
 44
0.0000000001
 40
0.0
 40
0.0
 40
0.0
 40
0.0
 40
0.233448635
 40
0.4790791153
 40
1.0
 40
1.0
 40
1.0
 40
1.0
 10
79.8094647893
 20
108.3300094622
 30
0.0
 10
79.4574076327
 20
108.5332651581
 30
0.0
 10
78.7560472109
 20
108.9879000568
 30
0.0
 10
77.3843244689
 20
110.0630745785
 30
0.0
 10
76.4390344063
 20
111.0154835462
 30
0.0
 10
75.8456197716
 20
111.70156646
 30
0.0
  0
SPLINE
  5
370
100
AcDbEntity
  8
0
100
AcDbSpline
 62
7
  6
BYLAYER
 70
0
 71
3
 72
9
 73
5
 74
0
 42
0.0000001
 43
0.0000001
 44
0.0000000001
 40
0.0
 40
0.0
 40
0.0
 40
0.0
 40
0.4785005358
 40
1.0
 40
1.0
 40
1.0
 40
1.0
 10
63.3955940267
 20
118.2857823576
 30
0.0
 10
62.9442609286
 20
118.3807518634
 30
0.0
 10
62.0194564717
 20
118.6714288591
 30
0.0
 10
61.1528230687
 20
119.1011829053
 30
0.0
 10
60.7175022104
 20
119.3525098342
 30
0.0
  0
SPLINE
  5
371
100
AcDbEntity
  8
0
100
AcDbSpline
 62
7
  6
BYLAYER
 70
0
 71
3
 72
9
 73
5
 74
0
 42
0.0000001
 43
0.0000001
 44
0.0000000001
 40
0.0
 40
0.0
 40
0.0
 40
0.0
 40
0.4813974272
 40
1.0
 40
1.0
 40
1.0
 40
1.0
 10
60.7175022104
 20
119.3525098342
 30
0.0
 10
60.1309285336
 20
119.6911606431
 30
0.0
 10
58.9715359216
 20
120.4991733081
 30
0.0
 10
57.9352378804
 20
121.4568964051
 30
0.0
 10
57.4294419884
 20
121.9827992965
 30
0.0
  0
SPLINE
  5
372
100
AcDbEntity
  8
0
100
AcDbSpline
 62
7
  6
BYLAYER
 70
0
 71
3
 72
9
 73
5
 74
0
 42
0.0000001
 43
0.0000001
 44
0.0000000001
 40
0.0
 40
0.0
 40
0.0
 40
0.0
 40
0.4777111862
 40
1.0
 40
1.0
 40
1.0
 40
1.0
 10
73.0305591176
 20
112.7564083908
 30
0.0
 10
72.5646452938
 20
112.8481495649
 30
0.0
 10
71.6079638676
 20
113.140163577
 30
0.0
 10
70.7131019247
 20
113.5816782021
 30
0.0
 10
70.2634834998
 20
113.8412596482
 30
0.0
  0
SPLINE
  5
373
100
AcDbEntity
  8
0
100
AcDbSpline
 62
7
  6
BYLAYER
 70
0
 71
3
 72
10
 73
6
 74
0
 42
0.0000001
 43
0.0000001
 44
0.0000000001
 40
0.0
 40
0.0
 40
0.0
 40
0.0
 40
0.2333023393
 40
0.4789191368
 40
1.0
 40
1.0
 40
1.0
 40
1.0
 10
70.2634834998
 20
113.8412596482
 30
0.0
 10
69.9064486292
 20
114.0473891636
 30
0.0
 10
69.1952593669
 20
114.5091203202
 30
0.0
 10
67.8052328964
 20
115.6027381286
 30
0.0
 10
66.8487789523
 20
116.5725817871
 30
0.0
 10
66.2491744786
 20
117.2713953149
 30
0.0
  0
SPLINE
  5
374
100
AcDbEntity
  8
0
100
AcDbSpline
 62
7
  6
BYLAYER
 70
0
 71
3
 72
15
 73
11
 74
0
 42
0.0000001
 43
0.0000001
 44
0.0000000001
 40
0.0
 40
0.0
 40
0.0
 40
0.0
 40
0.1546200716
 40
0.3046145288
 40
0.4470034222
 40
0.5793901195
 40
0.7002645252
 40
0.8093676984
 40
0.9081284882
 40
1.0
 40
1.0
 40
1.0
 40
1.0
 10
27.1975060575
 20
36.4919503525
 30
0.0
 10
27.3172956881
 20
36.3030243721
 30
0.0
 10
27.5727623208
 20
35.9427228825
 30
0.0
 10
28.0022742076
 20
35.4575102704
 30
0.0
 10
28.4617282792
 20
35.0469958433
 30
0.0
 10
28.936800935
 20
34.7241984192
 30
0.0
 10
29.4131949024
 20
34.4993338674
 30
0.0
 10
29.8773857758
 20
34.3803587171
 30
0.0
 10
30.3156515642
 20
34.3734811939
 30
0.0
 10
30.5861583589
 20
34.448883315
 30
0.0
 10
30.7068395329
 20
34.5045908933
 30
0.0
  0
SPLINE
  5
375
100
AcDbEntity
  8
0
100
AcDbSpline
 62
7
  6
BYLAYER
 70
0
 71
3
 72
15
 73
11
 74
0
 42
0.0000001
 43
0.0000001
 44
0.0000000001
 40
0.0
 40
0.0
 40
0.0
 40
0.0
 40
0.1546200716
 40
0.3046145288
 40
0.4470034222
 40
0.5793901195
 40
0.7002645252
 40
0.8093676984
 40
0.9081284882
 40
1.0
 40
1.0
 40
1.0
 40
1.0
 10
36.743487347
 20
30.9807001665
 30
0.0
 10
36.8632769775
 20
30.7917741861
 30
0.0
 10
37.1187436103
 20
30.4314726965
 30
0.0
 10
37.5482554971
 20
29.9462600844
 30
0.0
 10
38.0077095687
 20
29.5357456573
 30
0.0
 10
38.4827822244
 20
29.2129482332
 30
0.0
 10
38.9591761919
 20
28.9880836814
 30
0.0
 10
39.4233670653
 20
28.869108531
 30
0.0
 10
39.8616328537
 20
28.8622310079
 30
0.0
 10
40.1321396484
 20
28.937633129
 30
0.0
 10
40.2528208224
 20
28.9933407073
 30
0.0
  0
SPLINE
  5
376
100
AcDbEntity
  8
0
100
AcDbSpline
 62
7
  6
BYLAYER
 70
0
 71
3
 72
10
 73
6
 74
0
 42
0.0000001
 43
0.0000001
 44
0.0000000001
 40
0.0
 40
0.0
 40
0.0
 40
0.0
 40
0.2759358822
 40
0.5343970997
 40
1.0
 40
1.0
 40
1.0
 40
1.0
 10
43.0752614719
 20
109.1668181952
 30
0.0
 10
43.4164312518
 20
108.9698481869
 30
0.0
 10
44.097468494
 20
108.6209409243
 30
0.0
 10
45.4355930211
 20
108.1209125511
 30
0.0
 10
46.4765509771
 20
107.9489878529
 30
0.0
 10
47.1411423915
 20
107.9625372406
 30
0.0
  0
SPLINE
  5
377
100
AcDbEntity
  8
0
100
AcDbSpline
 62
7
  6
BYLAYER
 70
0
 71
3
 72
10
 73
6
 74
0
 42
0.0000001
 43
0.0000001
 44
0.0000000001
 40
0.0
 40
0.0
 40
0.0
 40
0.0
 40
0.5212404895
 40
0.7668451327
 40
1.0
 40
1.0
 40
1.0
 40
1.0
 10
39.0093805523
 20
112.6573059176
 30
0.0
 10
39.6152538418
 20
111.9453672614
 30
0.0
 10
40.5830864538
 20
110.9575487215
 30
0.0
 10
41.991846701
 20
109.8449288294
 30
0.0
 10
42.7131185399
 20
109.3758967844
 30
0.0
 10
43.0752614719
 20
109.1668181952
 30
0.0
  0
SPLINE
  5
378
100
AcDbEntity
  8
0
100
AcDbSpline
 62
7
  6
BYLAYER
 70
0
 71
3
 72
19
 73
15
 74
0
 42
0.0000001
 43
0.0000001
 44
0.0000000001
 40
0.0
 40
0.0
 40
0.0
 40
0.0
 40
0.1286362507
 40
0.2701579943
 40
0.4172487836
 40
0.5615290737
 40
0.6301790012
 40
0.6953185847
 40
0.7563130481
 40
0.8127935611
 40
0.8647367275
 40
0.9125482117
 40
0.957158566
 40
1.0
 40
1.0
 40
1.0
 40
1.0
 10
45.3734858373
 20
28.3130504893
 30
0.0
 10
45.3734858373
 20
27.9925073195
 30
0.0
 10
45.4631481987
 20
27.3185505049
 30
0.0
 10
45.7978813597
 20
26.3289442618
 30
0.0
 10
46.3135526393
 20
25.3758439654
 30
0.0
 10
46.8688310553
 20
24.6647196419
 30
0.0
 10
47.3686014337
 20
24.1833599004
 30
0.0
 10
47.7515302813
 20
23.8835354065
 30
0.0
 10
48.1406875888
 20
23.6454776547
 30
0.0
 10
48.5281548753
 20
23.4742514942
 30
0.0
 10
48.9062137423
 20
23.3737478464
 30
0.0
 10
49.2674656969
 20
23.3472321801
 30
0.0
 10
49.6038855333
 20
23.3964618857
 30
0.0
 10
49.8076658947
 20
23.4812060334
 30
0.0
 10
49.9001277525
 20
23.5345668677
 30
0.0
  0
SPLINE
  5
379
100
AcDbEntity
  8
0
100
AcDbSpline
 62
7
  6
BYLAYER
 70
0
 71
3
 72
12
 73
8
 74
0
 42
0.0000001
 43
0.0000001
 44
0.0000000001
 40
0.0
 40
0.0
 40
0.0
 40
0.0
 40
0.1081631296
 40
0.2183737778
 40
0.4513417108
 40
0.7104804321
 40
1.0
 40
1.0
 40
1.0
 40
1.0
 10
36.9965005951
 20
93.4125511199
 30
0.0
 10
36.9350114737
 20
93.377065019
 30
0.0
 10
36.8168049653
 20
93.294541359
 30
0.0
 10
36.6048012024
 20
93.0859439299
 30
0.0
 10
36.3946937022
 20
92.7435820559
 30
0.0
 10
36.2486790986
 20
92.247296294
 30
0.0
 10
36.2198195717
 20
91.8859028661
 30
0.0
 10
36.2198195717
 20
91.6958731573
 30
0.0
  0
SPLINE
  5
37A
100
AcDbEntity
  8
0
100
AcDbSpline
 62
7
  6
BYLAYER
 70
0
 71
3
 72
12
 73
8
 74
0
 42
0.0000001
 43
0.0000001
 44
0.0000000001
 40
0.0
 40
0.0
 40
0.0
 40
0.0
 40
0.1081631296
 40
0.2183737778
 40
0.4513417108
 40
0.7104804321
 40
1.0
 40
1.0
 40
1.0
 40
1.0
 10
27.4505193056
 20
98.923801306
 30
0.0
 10
27.3890301842
 20
98.888315205
 30
0.0
 10
27.2708236758
 20
98.805791545
 30
0.0
 10
27.058819913
 20
98.5971941159
 30
0.0
 10
26.8487124127
 20
98.2548322419
 30
0.0
 10
26.7026978091
 20
97.75854648
 30
0.0
 10
26.6738382822
 20
97.3971530521
 30
0.0
 10
26.6738382822
 20
97.2071233433
 30
0.0
  0
SPLINE
  5
37B
100
AcDbEntity
  8
0
100
AcDbSpline
 62
7
  6
BYLAYER
 70
0
 71
3
 72
19
 73
15
 74
0
 42
0.0000001
 43
0.0000001
 44
0.0000000001
 40
0.0
 40
0.0
 40
0.0
 40
0.0
 40
0.1286362507
 40
0.2701579943
 40
0.4172487836
 40
0.5615290737
 40
0.6301790012
 40
0.6953185847
 40
0.7563130481
 40
0.8127935611
 40
0.8647367275
 40
0.9125482117
 40
0.957158566
 40
1.0
 40
1.0
 40
1.0
 40
1.0
 10
26.6738382822
 20
97.2071233433
 30
0.0
 10
26.6738382822
 20
96.8865801735
 30
0.0
 10
26.7635006436
 20
96.2126233589
 30
0.0
 10
27.0982338046
 20
95.2230171158
 30
0.0
 10
27.6139050842
 20
94.2699168194
 30
0.0
 10
28.1691835002
 20
93.5587924959
 30
0.0
 10
28.6689538786
 20
93.0774327544
 30
0.0
 10
29.0518827262
 20
92.7776082605
 30
0.0
 10
29.4410400337
 20
92.5395505087
 30
0.0
 10
29.8285073202
 20
92.3683243482
 30
0.0
 10
30.2065661872
 20
92.2678207004
 30
0.0
 10
30.5678181419
 20
92.2413050341
 30
0.0
 10
30.9042379782
 20
92.2905347397
 30
0.0
 10
31.1080183396
 20
92.3752788874
 30
0.0
 10
31.2004801974
 20
92.4286397217
 30
0.0
  0
SPLINE
  5
37C
100
AcDbEntity
  8
0
100
AcDbSpline
 62
7
  6
BYLAYER
 70
0
 71
3
 72
19
 73
15
 74
0
 42
0.0000001
 43
0.0000001
 44
0.0000000001
 40
0.0
 40
0.0
 40
0.0
 40
0.0
 40
0.1286362507
 40
0.2701579943
 40
0.4172487836
 40
0.5615290737
 40
0.6301790012
 40
0.6953185847
 40
0.7563130481
 40
0.8127935611
 40
0.8647367275
 40
0.9125482117
 40
0.957158566
 40
1.0
 40
1.0
 40
1.0
 40
1.0
 10
36.2198195717
 20
91.6958731573
 30
0.0
 10
36.2198195717
 20
91.3753299874
 30
0.0
 10
36.3094819331
 20
90.7013731729
 30
0.0
 10
36.6442150941
 20
89.7117669298
 30
0.0
 10
37.1598863737
 20
88.7586666334
 30
0.0
 10
37.7151647897
 20
88.0475423099
 30
0.0
 10
38.2149351681
 20
87.5661825684
 30
0.0
 10
38.5978640157
 20
87.2663580744
 30
0.0
 10
38.9870213232
 20
87.0283003227
 30
0.0
 10
39.3744886097
 20
86.8570741621
 30
0.0
 10
39.7525474767
 20
86.7565705144
 30
0.0
 10
40.1137994313
 20
86.7300548481
 30
0.0
 10
40.4502192677
 20
86.7792845537
 30
0.0
 10
40.6539996291
 20
86.8640287014
 30
0.0
 10
40.7464614869
 20
86.9173895357
 30
0.0
  0
SPLINE
  5
37D
100
AcDbEntity
  8
0
100
AcDbSpline
 62
7
  6
BYLAYER
 70
0
 71
3
 72
19
 73
15
 74
0
 42
0.0000001
 43
0.0000001
 44
0.0000000001
 40
0.0
 40
0.0
 40
0.0
 40
0.0
 40
0.1286362507
 40
0.2701579943
 40
0.4172487836
 40
0.5615290737
 40
0.6301790012
 40
0.6953185847
 40
0.7563130481
 40
0.8127935611
 40
0.8647367275
 40
0.9125482117
 40
0.957158566
 40
1.0
 40
1.0
 40
1.0
 40
1.0
 10
45.7658008611
 20
86.1846229713
 30
0.0
 10
45.7658008611
 20
85.8640798014
 30
0.0
 10
45.8554632225
 20
85.1901229869
 30
0.0
 10
46.1901963836
 20
84.2005167437
 30
0.0
 10
46.7058676632
 20
83.2474164474
 30
0.0
 10
47.2611460791
 20
82.5362921239
 30
0.0
 10
47.7609164576
 20
82.0549323824
 30
0.0
 10
48.1438453052
 20
81.7551078884
 30
0.0
 10
48.5330026127
 20
81.5170501366
 30
0.0
 10
48.9204698992
 20
81.3458239761
 30
0.0
 10
49.2985287662
 20
81.2453203284
 30
0.0
 10
49.6597807208
 20
81.2188046621
 30
0.0
 10
49.9962005572
 20
81.2680343677
 30
0.0
 10
50.1999809186
 20
81.3527785154
 30
0.0
 10
50.2924427763
 20
81.4061393497
 30
0.0
  0
ENDSEC
  0
SECTION
  2
OBJECTS
  0
DICTIONARY
  5
C
100
AcDbDictionary
280
0
281
1
  3
ACAD_GROUP
350
D
  3
ACAD_MLINESTYLE
350
17
  3
ACAD_LAYOUT
350
1A
  3
ACAD_PLOTSETTINGS
350
19
  3
ACAD_PLOTSTYLENAME
350
E
  0
DICTIONARY
  5
D
102
{ACAD_REACTORS
330
C
102
}
100
AcDbDictionary
280
0
281
1
  0
ACDBDICTIONARYWDFLT
  5
E
102
{ACAD_REACTORS
330
C
102
}
100
AcDbDictionary
281
1
  3
Normal
350
F
100
AcDbDictionaryWithDefault
340
F
  0
DICTIONARY
  5
17
102
{ACAD_REACTORS
330
C
102
}
100
AcDbDictionary
280
0
281
1
  3
Standard
350
18
  0
DICTIONARY
  5
19
102
{ACAD_REACTORS
330
C
102
}
100
AcDbDictionary
281
1
  0
DICTIONARY
  5
1A
102
{ACAD_REACTORS
330
C
102
}
100
AcDbDictionary
281
1
  3
Model
350
37E
  3
Layout1
350
37F
  0
ACDBPLACEHOLDER
  5
F
102
{ACAD_REACTORS
330
E
102
}
  0
MLINESTYLE
  5
18
102
{ACAD_REACTORS
330
17
102
}
100
AcDbMlineStyle
  2
STANDARD
 70
0
  3

 62
256
 51
90.0
 52
90.0
 71
2
 49
0.5
 62
256
  6
BYLAYER
 49
-0.5
 62
256
  6
BYLAYER
  0
LAYOUT
  5
37E
102
{ACAD_REACTORS
330
1A
102
}
100
AcDbPlotSettings
  1

  2
none_device
  4

  6

 40
0.0
 41
0.0
 42
0.0
 43
0.0
 44
210.0
 45
297.0
 46
0.0
 47
0.0
 48
0.0
 49
0.0
140
0.0
141
0.0
142
1.0
143
1.0
 70
1024
 72
1
 73
0
 74
0
  7

 75
0
147
1.0
148
0.0
149
0.0
100
AcDbLayout
  1
Model
 70
0
 71
0
 10
0.0
 20
0.0
 11
210.0
 21
297.0
 12
0.0
 22
0.0
 32
0.0
 14
0.0
 24
0.0
 34
0.0
 15
0.0
 25
0.0
 35
0.0
146
0.0
 13
0.0
 23
0.0
 33
0.0
 16
1.0
 26
0.0
 36
0.0
 17
0.0
 27
1.0
 37
0.0
 76
0
330
210
345
0
346
0
  0
LAYOUT
  5
37F
102
{ACAD_REACTORS
330
1A
102
}
100
AcDbPlotSettings
  1

  2
none_device
  4

  6

 40
0.0
 41
0.0
 42
0.0
 43
0.0
 44
210.0
 45
297.0
 46
0.0
 47
0.0
 48
0.0
 49
0.0
140
0.0
141
0.0
142
1.0
143
1.0
 70
0
 72
1
 73
0
 74
0
  7

 75
0
147
1.0
148
0.0
149
0.0
100
AcDbLayout
  1
Layout1
 70
0
 71
1
 10
0.0
 20
0.0
 11
210.0
 21
297.0
 12
0.0
 22
0.0
 32
0.0
 14
0.0
 24
0.0
 34
0.0
 15
0.0
 25
0.0
 35
0.0
146
0.0
 13
0.0
 23
0.0
 33
0.0
 16
1.0
 26
0.0
 36
0.0
 17
0.0
 27
1.0
 37
0.0
 76
0
330
211
345
0
346
0
  0
ENDSEC
  0
EOF
