999
DXF file: C:\Users\sesa63760\Dev\_Creo\CAD\MCADID0001741_3D-CAD\drw0001_5.dxf
999
Pro/ENGINEER 2019471 by Parametric Technology Corporation
  0
SECTION
  2
HEADER
  9
$ACADVER
  1
AC1024
  9
$DWGCODEPAGE
  3
ANSI_1252
  9
$EXTMAX
 10
78.1463631219
 20
110.5212849867
 30
0.0
  9
$EXTMIN
 10
0.0
 20
0.0
 30
0.0
  9
$LIMMIN
 10
0.0
 20
0.0
  9
$LIMMAX
 10
78.1463631219
 20
110.5212849867
  9
$VIEWCTR
 10
39.073181561
 20
55.2606424933
  9
$VIEWSIZE
 40
110.5212849867
  9
$CLAYER
  8
0
  9
$LTSCALE
 40
7.2043504288
  9
$CELTYPE
  6
BYLAYER
  9
$DIMSCALE
 40
1.0
  9
$DIMASZ
 40
0.9303138467
  9
$DIMEXO
 40
1.0
  9
$DIMDLI
 40
4.9775512053
  9
$DIMEXE
 40
1.0
  9
$DIMCEN
 40
1.1788937065
  9
$DIMLFAC
 40
1.0
  9
$DIMBLK
  1
_FILLED
  9
$DIMALT
 70
0
  9
$DIMALTF
 40
0.0393700787
  9
$DIMTXT
 40
1.3024393854
  9
$DIMTOL
 70
1
  9
$DIMLIM
 70
0
  9
$DIMTFAC
 40
1.0
  9
$DIMTP
 40
0.01
  9
$DIMTM
 40
0.01
  9
$DIMGAP
 40
0.625
  9
$DIMDSEP
 70
46
  9
$AUNITS
 70
0
  9
$PDMODE
 70
3
  9
$PDSIZE
 40
0.3125
  9
$HANDSEED
  5
409
  9
$TILEMODE
 70
1
  9
$MEASUREMENT
 70
1
  9
$INSUNITS
 70
4
  0
ENDSEC
  0
SECTION
  2
CLASSES
  0
CLASS
  1
ACDBDICTIONARYWDFLT
  2
AcDbDictionaryWithDefault
  3
AutoCAD 2000
 90
0
 91
1
280
0
281
0
  0
CLASS
  1
ACDBPLACEHOLDER
  2
AcDbPlaceHolder
  3
AutoCAD 2000
 90
0
 91
1
280
0
281
0
  0
CLASS
  1
LAYOUT
  2
AcDbLayout
  3
AutoCAD 2000
 90
0
 91
0
280
0
281
0
  0
ENDSEC
  0
SECTION
  2
TABLES
  0
TABLE
  2
VPORT
  5
8
100
AcDbSymbolTable
 70
2
  0
VPORT
  5
1F4
100
AcDbSymbolTableRecord
100
AcDbViewportTableRecord
  2
*ACTIVE
 70
0
 10
0.0
 20
0.0
 11
1.0
 21
1.0
 12
39.073181561
 22
55.2606424933
 13
0.0
 23
0.0
 14
1.0
 24
1.0
 15
0.0
 25
0.0
 16
0.0
 26
0.0
 36
1.0
 17
0.0
 27
0.0
 37
0.0
 40
110.5212849867
 41
0.7070707071
 42
50.0
 43
0.0
 44
0.0
 50
0.0
 51
0.0
 71
0
 72
100
 73
1
 74
1
 75
0
 76
0
 77
0
 78
0
  0
ENDTAB
  0
TABLE
  2
LTYPE
  5
5
100
AcDbSymbolTable
 70
6
  0
LTYPE
  5
14
100
AcDbSymbolTableRecord
100
AcDbLinetypeTableRecord
  2
BYBLOCK
 70
0
  3

 72
65
 73
0
 40
0.0
  0
LTYPE
  5
15
100
AcDbSymbolTableRecord
100
AcDbLinetypeTableRecord
  2
BYLAYER
 70
0
  3

 72
65
 73
0
 40
0.0
  0
LTYPE
  5
16
100
AcDbSymbolTableRecord
100
AcDbLinetypeTableRecord
  2
CONTINUOUS
 70
64
  3
Solid line
 72
65
 73
0
 40
0.0
  0
LTYPE
  5
1F5
100
AcDbSymbolTableRecord
100
AcDbLinetypeTableRecord
  2
CENTER
 70
64
  3
____ _ ____ _ ____ _ ____ _ ____ _ ____ _ ____
 72
65
 73
4
 40
0.6
 49
0.375
 74
0
 49
-0.075
 74
0
 49
0.075
 74
0
 49
-0.075
 74
0
  0
LTYPE
  5
1F6
100
AcDbSymbolTableRecord
100
AcDbLinetypeTableRecord
  2
HIDDEN
 70
64
  3
- - - - - - - - - - - - - - - - - - - -
 72
65
 73
2
 40
0.2
 49
0.1
 74
0
 49
-0.1
 74
0
  0
LTYPE
  5
1F7
100
AcDbSymbolTableRecord
100
AcDbLinetypeTableRecord
  2
PHANTOM
 70
64
  3
_____ _ _ _____ _ _ _____ _ _ _____
 72
65
 73
6
 40
0.8
 49
0.45
 74
0
 49
-0.05
 74
0
 49
0.1
 74
0
 49
-0.05
 74
0
 49
0.1
 74
0
 49
-0.05
 74
0
  0
LTYPE
  5
1F8
100
AcDbSymbolTableRecord
100
AcDbLinetypeTableRecord
  2
DOT
 70
64
  3
. . . . . . . . . . . . . . . . . . . .
 72
65
 73
2
 40
0.2
 49
0.1
 74
0
 49
-0.1
 74
0
  0
LTYPE
  5
1F9
100
AcDbSymbolTableRecord
100
AcDbLinetypeTableRecord
  2
DASHED
 70
64
  3
- - - - - - - - - - - - - - - - - - - -
 72
65
 73
2
 40
0.2
 49
0.1
 74
0
 49
-0.1
 74
0
  0
ENDTAB
  0
TABLE
  2
LAYER
  5
2
100
AcDbSymbolTable
 70
36
  0
LAYER
  5
10
100
AcDbSymbolTableRecord
100
AcDbLayerTableRecord
  2
0
 70
0
 62
7
  6
CONTINUOUS
370
-3
390
F
  0
LAYER
  5
1FA
100
AcDbSymbolTableRecord
100
AcDbLayerTableRecord
  2
DEFAULT_1
 70
0
 62
7
  6
CENTER
370
-3
390
F
  0
LAYER
  5
1FB
100
AcDbSymbolTableRecord
100
AcDbLayerTableRecord
  2
DEFAULT_2
 70
0
 62
8
  6
HIDDEN
370
-3
390
F
  0
LAYER
  5
1FC
100
AcDbSymbolTableRecord
100
AcDbLayerTableRecord
  2
DEFAULT_3
 70
0
 62
7
  6
PHANTOM
370
-3
390
F
  0
LAYER
  5
1FD
100
AcDbSymbolTableRecord
100
AcDbLayerTableRecord
  2
00_COMPONENTS
 70
0
 62
7
  6
CONTINUOUS
370
-3
390
F
  0
LAYER
  5
1FE
100
AcDbSymbolTableRecord
100
AcDbLayerTableRecord
  2
01_1_DEFAULT_DATUMS
 70
0
 62
7
  6
CONTINUOUS
370
-3
390
F
  0
LAYER
  5
1FF
100
AcDbSymbolTableRecord
100
AcDbLayerTableRecord
  2
01_PLANES
 70
0
 62
7
  6
CONTINUOUS
370
-3
390
F
  0
LAYER
  5
200
100
AcDbSymbolTableRecord
100
AcDbLayerTableRecord
  2
02_COORD_SYS
 70
0
 62
7
  6
CONTINUOUS
370
-3
390
F
  0
LAYER
  5
201
100
AcDbSymbolTableRecord
100
AcDbLayerTableRecord
  2
03_AXES
 70
0
 62
7
  6
CONTINUOUS
370
-3
390
F
  0
LAYER
  5
202
100
AcDbSymbolTableRecord
100
AcDbLayerTableRecord
  2
04_POINTS
 70
0
 62
7
  6
CONTINUOUS
370
-3
390
F
  0
LAYER
  5
203
100
AcDbSymbolTableRecord
100
AcDbLayerTableRecord
  2
05_CURVES
 70
0
 62
7
  6
CONTINUOUS
370
-3
390
F
  0
LAYER
  5
204
100
AcDbSymbolTableRecord
100
AcDbLayerTableRecord
  2
06_SURFS
 70
0
 62
7
  6
CONTINUOUS
370
-3
390
F
  0
LAYER
  5
205
100
AcDbSymbolTableRecord
100
AcDbLayerTableRecord
  2
07_COSMETICS
 70
0
 62
7
  6
CONTINUOUS
370
-3
390
F
  0
LAYER
  5
206
100
AcDbSymbolTableRecord
100
AcDbLayerTableRecord
  2
10_NOTES
 70
0
 62
7
  6
CONTINUOUS
370
-3
390
F
  0
LAYER
  5
207
100
AcDbSymbolTableRecord
100
AcDbLayerTableRecord
  2
11_NOTES_PUB
 70
0
 62
7
  6
CONTINUOUS
370
-3
390
F
  0
LAYER
  5
208
100
AcDbSymbolTableRecord
100
AcDbLayerTableRecord
  2
13_REF_GTOL
 70
0
 62
7
  6
CONTINUOUS
370
-3
390
F
  0
LAYER
  5
209
100
AcDbSymbolTableRecord
100
AcDbLayerTableRecord
  2
16_MISC
 70
0
 62
7
  6
CONTINUOUS
370
-3
390
F
  0
LAYER
  5
20A
100
AcDbSymbolTableRecord
100
AcDbLayerTableRecord
  2
17_NO_PRINT
 70
0
 62
7
  6
CONTINUOUS
370
-3
390
F
  0
LAYER
  5
20B
100
AcDbSymbolTableRecord
100
AcDbLayerTableRecord
  2
18_DATUM_CAMS_JOINTS
 70
0
 62
7
  6
CONTINUOUS
370
-3
390
F
  0
LAYER
  5
20C
100
AcDbSymbolTableRecord
100
AcDbLayerTableRecord
  2
19_DATUM_FUNCTIONAL
 70
0
 62
7
  6
CONTINUOUS
370
-3
390
F
  0
LAYER
  5
20D
100
AcDbSymbolTableRecord
100
AcDbLayerTableRecord
  2
20_DATUM_KINEMATIC_SCHEME
 70
0
 62
7
  6
CONTINUOUS
370
-3
390
F
  0
ENDTAB
  0
TABLE
  2
STYLE
  5
3
100
AcDbSymbolTable
 70
1
  0
STYLE
  5
11
100
AcDbSymbolTableRecord
100
AcDbTextStyleTableRecord
  2
STANDARD
 70
0
 40
0.0
 41
0.8
 50
0.0
 71
0
 42
0.2
  3
txt
  4

  0
STYLE
  5
20E
100
AcDbSymbolTableRecord
100
AcDbTextStyleTableRecord
  2
TEXTSTYLE_1
 70
0
 40
0.0
 41
0.8
 50
0.0
 71
0
 42
0.2
  3
gdt
  4

  0
ENDTAB
  0
TABLE
  2
VIEW
  5
6
100
AcDbSymbolTable
 70
0
  0
ENDTAB
  0
TABLE
  2
UCS
  5
7
100
AcDbSymbolTable
 70
0
  0
ENDTAB
  0
TABLE
  2
APPID
  5
9
100
AcDbSymbolTable
 70
1
  0
APPID
  5
20F
100
AcDbSymbolTableRecord
100
AcDbRegAppTableRecord
  2
ACAD
 70
0
  0
ENDTAB
  0
TABLE
  2
BLOCK_RECORD
  5
1
100
AcDbSymbolTable
 70
0
  0
BLOCK_RECORD
  5
210
100
AcDbSymbolTableRecord
100
AcDbBlockTableRecord
  2
*Model_Space
  0
BLOCK_RECORD
  5
211
100
AcDbSymbolTableRecord
100
AcDbBlockTableRecord
  2
*Paper_Space
  0
BLOCK_RECORD
  5
212
100
AcDbSymbolTableRecord
100
AcDbBlockTableRecord
  2
_FILLED
  0
ENDTAB
  0
TABLE
  2
DIMSTYLE
  5
A
100
AcDbSymbolTable
 70
1
100
AcDbDimStyleTable
 71
0
  0
DIMSTYLE
105
213
100
AcDbSymbolTableRecord
100
AcDbDimStyleTableRecord
  2
STANDARD
 70
0
  3

  4

 40
1.0
 41
0.9303138467
 42
1.0
 43
0.38
 44
1.0
 45
0.0
 46
0.0
 47
0.01
 48
0.01
140
1.3024393854
141
0.09
142
0.0
143
25.4
144
1.0
145
0.0
146
1.0
147
0.625
 71
1
 72
0
 73
0
 74
0
 75
0
 76
0
 77
1
 78
8
 79
2
170
0
171
1
172
0
173
0
174
0
175
0
176
0
177
0
178
0
270
2
179
2
271
2
272
2
273
2
274
2
275
0
280
0
281
0
282
0
283
1
284
8
285
0
286
0
287
3
288
0
340
11
278
46
341
212
342
212
343
212
344
212
  0
ENDTAB
  0
ENDSEC
  0
SECTION
  2
BLOCKS
  0
BLOCK
  5
20
100
AcDbEntity
  8
0
100
AcDbBlockBegin
  2
*Model_Space
 70
0
 10
0.0
 20
0.0
 30
0.0
  3
*Model_Space
  1

  0
ENDBLK
  5
21
100
AcDbEntity
  8
0
100
AcDbBlockEnd
  0
BLOCK
  5
1C
100
AcDbEntity
  8
0
100
AcDbBlockBegin
  2
*Paper_Space
 70
0
 10
0.0
 20
0.0
 30
0.0
  3
*Paper_Space
  1

  0
ENDBLK
  5
1D
100
AcDbEntity
  8
0
100
AcDbBlockEnd
  0
BLOCK
  5
214
100
AcDbEntity
  8
0
100
AcDbBlockBegin
  2
_FILLED
 70
64
 10
0.0
 20
0.0
  3
_FILLED
  1

  0
SOLID
  5
215
100
AcDbEntity
  8
0
  6
BYBLOCK
 62
0
100
AcDbTrace
 10
0.0
 20
0.0
 11
-1.0
 21
0.25
 12
-1.0
 22
-0.25
 13
-1.0
 23
-0.25
  0
ENDBLK
  5
216
100
AcDbEntity
  8
0
  6
BYBLOCK
 62
0
100
AcDbBlockEnd
  0
ENDSEC
  0
SECTION
  2
ENTITIES
  0
LINE
  5
217
100
AcDbEntity
  8
0
100
AcDbLine
 62
7
  6
CONTINUOUS
 10
43.3264110346
 20
8.9959185454
 11
36.984383617
 21
8.9959185454
  0
LINE
  5
218
100
AcDbEntity
  8
0
100
AcDbLine
 62
7
  6
CONTINUOUS
 10
43.1553973258
 20
10.4959185454
 11
37.1553973258
 21
10.4959185454
  0
LINE
  5
219
100
AcDbEntity
  8
0
100
AcDbLine
 62
7
  6
CONTINUOUS
 10
48.605395618
 20
11.7959185454
 11
31.7053985324
 21
11.7959185454
  0
LINE
  5
21A
100
AcDbEntity
  8
0
100
AcDbLine
 62
7
  6
CONTINUOUS
 10
31.2053973258
 20
23.0459185454
 11
49.1053973258
 21
23.0459185454
  0
LINE
  5
21B
100
AcDbEntity
  8
0
100
AcDbLine
 62
7
  6
CONTINUOUS
 10
48.5554580466
 20
23.0659185454
 11
31.7053636242
 21
23.0659185454
  0
LINE
  5
21C
100
AcDbEntity
  8
0
100
AcDbLine
 62
7
  6
CONTINUOUS
 10
43.8298226238
 20
25.4170316483
 11
43.8263002579
 21
25.4163342818
  0
LINE
  5
21D
100
AcDbEntity
  8
0
100
AcDbLine
 62
7
  6
CONTINUOUS
 10
33.4268618558
 20
25.4162377195
 11
33.4299770252
 21
25.4168546355
  0
LINE
  5
21E
100
AcDbEntity
  8
0
100
AcDbLine
 62
7
  6
CONTINUOUS
 10
47.5879661773
 20
26.4187144351
 11
47.6704109904
 21
26.4255900028
  0
LINE
  5
21F
100
AcDbEntity
  8
0
100
AcDbLine
 62
7
  6
CONTINUOUS
 10
44.6379661773
 20
26.4187144351
 11
44.6683149442
 21
26.4212454009
  0
LINE
  5
220
100
AcDbEntity
  8
0
100
AcDbLine
 62
7
  6
CONTINUOUS
 10
40.9129661773
 20
26.4187144326
 11
40.9912277564
 21
26.4252411353
  0
LINE
  5
221
100
AcDbEntity
  8
0
100
AcDbLine
 62
7
  6
CONTINUOUS
 10
37.1879661781
 20
26.4187144351
 11
37.2704109904
 21
26.4255900027
  0
LINE
  5
222
100
AcDbEntity
  8
0
100
AcDbLine
 62
7
  6
CONTINUOUS
 10
34.2379661781
 20
26.4187144351
 11
34.2683149441
 21
26.4212454008
  0
LINE
  5
223
100
AcDbEntity
  8
0
100
AcDbLine
 62
7
  6
CONTINUOUS
 10
33.4301624048
 20
25.4159185454
 11
36.4305313135
 21
25.4159185454
  0
LINE
  5
224
100
AcDbEntity
  8
0
100
AcDbLine
 62
7
  6
CONTINUOUS
 10
43.8300429987
 20
25.4159185454
 11
46.8305291874
 21
25.4159185454
  0
LINE
  5
225
100
AcDbEntity
  8
0
100
AcDbLine
 62
7
  6
CONTINUOUS
 10
49.1053973258
 20
26.1459185454
 11
49.0553973258
 21
26.1459185454
  0
LINE
  5
226
100
AcDbEntity
  8
0
100
AcDbLine
 62
7
  6
CONTINUOUS
 10
32.8553973267
 20
26.1867242765
 11
34.0553973267
 21
26.1867242765
  0
LINE
  5
227
100
AcDbEntity
  8
0
100
AcDbLine
 62
7
  6
CONTINUOUS
 10
35.8053973267
 20
26.1867242765
 11
37.0053973267
 21
26.1867242765
  0
LINE
  5
228
100
AcDbEntity
  8
0
100
AcDbLine
 62
7
  6
CONTINUOUS
 10
39.5303973258
 20
26.186724274
 11
40.7303973258
 21
26.186724274
  0
LINE
  5
229
100
AcDbEntity
  8
0
100
AcDbLine
 62
7
  6
CONTINUOUS
 10
43.2553973258
 20
26.1867242765
 11
44.4553973258
 21
26.1867242765
  0
LINE
  5
22A
100
AcDbEntity
  8
0
100
AcDbLine
 62
7
  6
CONTINUOUS
 10
46.2053973258
 20
26.1867242765
 11
47.4053973258
 21
26.1867242765
  0
LINE
  5
22B
100
AcDbEntity
  8
0
100
AcDbLine
 62
7
  6
CONTINUOUS
 10
43.829823388
 20
25.4163336726
 11
43.8263002579
 21
25.4163342818
  0
LINE
  5
22C
100
AcDbEntity
  8
0
100
AcDbLine
 62
7
  6
CONTINUOUS
 10
33.4268618558
 20
25.4162377195
 11
33.4299774963
 21
25.4162365424
  0
LINE
  5
22D
100
AcDbEntity
  8
0
100
AcDbLine
 62
7
  6
CONTINUOUS
 10
32.5903840772
 20
26.4255899682
 11
32.6728284752
 21
26.4187144351
  0
LINE
  5
22E
100
AcDbEntity
  8
0
100
AcDbLine
 62
7
  6
CONTINUOUS
 10
35.5924778932
 20
26.4212455523
 11
35.6228284752
 21
26.4187144351
  0
LINE
  5
22F
100
AcDbEntity
  8
0
100
AcDbLine
 62
7
  6
CONTINUOUS
 10
39.2695668953
 20
26.4252411353
 11
39.3478284744
 21
26.4187144327
  0
LINE
  5
230
100
AcDbEntity
  8
0
100
AcDbLine
 62
7
  6
CONTINUOUS
 10
42.9903840772
 20
26.4255899681
 11
43.0728284744
 21
26.4187144351
  0
LINE
  5
231
100
AcDbEntity
  8
0
100
AcDbLine
 62
7
  6
CONTINUOUS
 10
45.9924778933
 20
26.4212455522
 11
46.0228284744
 21
26.4187144351
  0
LINE
  5
232
100
AcDbEntity
  8
0
100
AcDbLine
 62
7
  6
CONTINUOUS
 10
33.3454524921
 20
27.756349862
 11
33.5152784891
 21
27.756349862
  0
LINE
  5
233
100
AcDbEntity
  8
0
100
AcDbLine
 62
7
  6
CONTINUOUS
 10
36.3454842039
 20
27.756349862
 11
36.5153330431
 21
27.756349862
  0
LINE
  5
234
100
AcDbEntity
  8
0
100
AcDbLine
 62
7
  6
CONTINUOUS
 10
43.7454524928
 20
27.756349862
 11
43.9152784898
 21
27.756349862
  0
LINE
  5
235
100
AcDbEntity
  8
0
100
AcDbLine
 62
7
  6
CONTINUOUS
 10
46.7454842039
 20
27.756349862
 11
46.9153330431
 21
27.756349862
  0
LINE
  5
236
100
AcDbEntity
  8
0
100
AcDbLine
 62
7
  6
CONTINUOUS
 10
46.8304283157
 20
28.2159185454
 11
43.8303136313
 21
28.2159185454
  0
LINE
  5
237
100
AcDbEntity
  8
0
100
AcDbLine
 62
7
  6
CONTINUOUS
 10
36.430428435
 20
28.2159185454
 11
33.4303141371
 21
28.2159185454
  0
LINE
  5
238
100
AcDbEntity
  8
0
100
AcDbLine
 62
7
  6
CONTINUOUS
 10
32.0019745618
 20
31.3159185454
 11
34.6303972021
 21
31.3159185454
  0
LINE
  5
239
100
AcDbEntity
  8
0
100
AcDbLine
 62
7
  6
CONTINUOUS
 10
35.2303973295
 20
31.3159185454
 11
37.8303973196
 21
31.3159185454
  0
LINE
  5
23A
100
AcDbEntity
  8
0
100
AcDbLine
 62
7
  6
CONTINUOUS
 10
38.8294722713
 20
31.3159185454
 11
41.4313525444
 21
31.3159185454
  0
LINE
  5
23B
100
AcDbEntity
  8
0
100
AcDbLine
 62
7
  6
CONTINUOUS
 10
42.4303973231
 20
31.3159185454
 11
45.0303975148
 21
31.3159185454
  0
LINE
  5
23C
100
AcDbEntity
  8
0
100
AcDbLine
 62
7
  6
CONTINUOUS
 10
45.6303974488
 20
31.3159185454
 11
48.2588222902
 21
31.3159185454
  0
LINE
  5
23D
100
AcDbEntity
  8
0
100
AcDbLine
 62
7
  6
CONTINUOUS
 10
32.0303973267
 20
31.4169842043
 11
34.6303973258
 21
31.4169842043
  0
LINE
  5
23E
100
AcDbEntity
  8
0
100
AcDbLine
 62
7
  6
CONTINUOUS
 10
35.2303973258
 20
31.4169842043
 11
37.8303973267
 21
31.4169842043
  0
LINE
  5
23F
100
AcDbEntity
  8
0
100
AcDbLine
 62
7
  6
CONTINUOUS
 10
38.8303973258
 20
31.4169842018
 11
41.4303973258
 21
31.4169842018
  0
LINE
  5
240
100
AcDbEntity
  8
0
100
AcDbLine
 62
7
  6
CONTINUOUS
 10
42.4303973258
 20
31.4169842043
 11
45.0303973258
 21
31.4169842043
  0
LINE
  5
241
100
AcDbEntity
  8
0
100
AcDbLine
 62
7
  6
CONTINUOUS
 10
45.6303973258
 20
31.4169842043
 11
48.2303973258
 21
31.4169842043
  0
LINE
  5
242
100
AcDbEntity
  8
0
100
AcDbLine
 62
7
  6
CONTINUOUS
 10
32.0303973267
 20
33.0437955521
 11
34.6303973258
 21
33.0437955521
  0
LINE
  5
243
100
AcDbEntity
  8
0
100
AcDbLine
 62
7
  6
CONTINUOUS
 10
35.2303973258
 20
33.0437955521
 11
37.8303973267
 21
33.0437955521
  0
LINE
  5
244
100
AcDbEntity
  8
0
100
AcDbLine
 62
7
  6
CONTINUOUS
 10
38.8303973258
 20
33.0437955497
 11
41.4303973258
 21
33.0437955497
  0
LINE
  5
245
100
AcDbEntity
  8
0
100
AcDbLine
 62
7
  6
CONTINUOUS
 10
42.4303973258
 20
33.0437955521
 11
45.0303973258
 21
33.0437955521
  0
LINE
  5
246
100
AcDbEntity
  8
0
100
AcDbLine
 62
7
  6
CONTINUOUS
 10
45.6303973258
 20
33.0437955521
 11
48.2303973258
 21
33.0437955521
  0
LINE
  5
247
100
AcDbEntity
  8
0
100
AcDbLine
 62
7
  6
CONTINUOUS
 10
32.0303973258
 20
33.6222270251
 11
34.0303973258
 21
33.6222270251
  0
LINE
  5
248
100
AcDbEntity
  8
0
100
AcDbLine
 62
7
  6
CONTINUOUS
 10
35.2303973258
 20
33.6222270251
 11
37.8303973258
 21
33.6222270251
  0
LINE
  5
249
100
AcDbEntity
  8
0
100
AcDbLine
 62
7
  6
CONTINUOUS
 10
38.8303973258
 20
33.6222270251
 11
39.5303973258
 21
33.6222270251
  0
LINE
  5
24A
100
AcDbEntity
  8
0
100
AcDbLine
 62
7
  6
CONTINUOUS
 10
40.7303973258
 20
33.6222270251
 11
41.4303973258
 21
33.6222270251
  0
LINE
  5
24B
100
AcDbEntity
  8
0
100
AcDbLine
 62
7
  6
CONTINUOUS
 10
42.4303973258
 20
33.6222270251
 11
45.0303973258
 21
33.6222270251
  0
LINE
  5
24C
100
AcDbEntity
  8
0
100
AcDbLine
 62
7
  6
CONTINUOUS
 10
46.2303973258
 20
33.6222270251
 11
48.2303973258
 21
33.6222270251
  0
LINE
  5
24D
100
AcDbEntity
  8
0
100
AcDbLine
 62
7
  6
CONTINUOUS
 10
48.480783329
 20
33.8159185454
 11
45.5043466327
 21
33.8159185454
  0
LINE
  5
24E
100
AcDbEntity
  8
0
100
AcDbLine
 62
7
  6
CONTINUOUS
 10
45.2029825116
 20
33.8159185454
 11
42.2817519827
 21
33.8159185454
  0
LINE
  5
24F
100
AcDbEntity
  8
0
100
AcDbLine
 62
7
  6
CONTINUOUS
 10
41.6568858798
 20
33.8159185454
 11
38.6039295136
 21
33.8159185454
  0
LINE
  5
250
100
AcDbEntity
  8
0
100
AcDbLine
 62
7
  6
CONTINUOUS
 10
37.9790171148
 20
33.8159185454
 11
35.0578164737
 21
33.8159185454
  0
LINE
  5
251
100
AcDbEntity
  8
0
100
AcDbLine
 62
7
  6
CONTINUOUS
 10
34.7564437934
 20
33.8159185454
 11
31.7800696944
 21
33.8159185454
  0
LINE
  5
252
100
AcDbEntity
  8
0
100
AcDbLine
 62
7
  6
CONTINUOUS
 10
31.2053973258
 20
34.2959185454
 11
49.1053973258
 21
34.2959185454
  0
LINE
  5
253
100
AcDbEntity
  8
0
100
AcDbLine
 62
7
  6
CONTINUOUS
 10
48.4903973258
 20
34.4959185454
 11
31.7903973258
 21
34.4959185454
  0
LINE
  5
254
100
AcDbEntity
  8
0
100
AcDbLine
 62
7
  6
CONTINUOUS
 10
49.1053973258
 20
34.7959185454
 11
48.9254134188
 21
34.7959185454
  0
LINE
  5
255
100
AcDbEntity
  8
0
100
AcDbLine
 62
7
  6
CONTINUOUS
 10
31.3553812651
 20
34.7959185454
 11
31.2053973258
 21
34.7959185454
  0
LINE
  5
256
100
AcDbEntity
  8
0
100
AcDbLine
 62
7
  6
CONTINUOUS
 10
48.9903973258
 20
34.9959185454
 11
36.0903973258
 21
34.9959185454
  0
LINE
  5
257
100
AcDbEntity
  8
0
100
AcDbLine
 62
7
  6
CONTINUOUS
 10
34.2903973258
 20
34.9959185454
 11
31.2903973258
 21
34.9959185454
  0
LINE
  5
258
100
AcDbEntity
  8
0
100
AcDbLine
 62
7
  6
CONTINUOUS
 10
36.0903973258
 20
35.7959185454
 11
34.2903973258
 21
35.7959185454
  0
LINE
  5
259
100
AcDbEntity
  8
0
100
AcDbLine
 62
7
  6
CONTINUOUS
 10
34.2903973258
 20
35.9459185454
 11
36.0903973258
 21
35.9459185454
  0
LINE
  5
25A
100
AcDbEntity
  8
0
100
AcDbLine
 62
7
  6
CONTINUOUS
 10
34.2903973258
 20
36.3159185519
 11
34.6603973338
 21
36.3159185534
  0
LINE
  5
25B
100
AcDbEntity
  8
0
100
AcDbLine
 62
7
  6
CONTINUOUS
 10
35.7203973133
 20
36.3159185579
 11
36.0903973258
 21
36.3159185595
  0
LINE
  5
25C
100
AcDbEntity
  8
0
100
AcDbLine
 62
7
  6
CONTINUOUS
 10
34.2903973258
 20
36.3959185454
 11
36.0903973258
 21
36.3959185454
  0
LINE
  5
25D
100
AcDbEntity
  8
0
100
AcDbLine
 62
7
  6
CONTINUOUS
 10
35.9553973258
 20
36.5459185454
 11
36.0903973258
 21
36.5459185454
  0
LINE
  5
25E
100
AcDbEntity
  8
0
100
AcDbLine
 62
7
  6
CONTINUOUS
 10
34.2903973258
 20
36.6959185454
 11
36.0903973258
 21
36.6959185454
  0
LINE
  5
25F
100
AcDbEntity
  8
0
100
AcDbLine
 62
7
  6
CONTINUOUS
 10
36.0903973258
 20
36.7398525282
 11
34.2903973258
 21
36.7398525282
  0
LINE
  5
260
100
AcDbEntity
  8
0
100
AcDbLine
 62
7
  6
CONTINUOUS
 10
34.9149556538
 20
11.7959185454
 11
35.5748446859
 21
9.9828883305
  0
LINE
  5
261
100
AcDbEntity
  8
0
100
AcDbLine
 62
7
  6
CONTINUOUS
 10
34.2903973258
 20
37.1519845626
 11
36.0903973258
 21
37.1519845626
  0
LINE
  5
262
100
AcDbEntity
  8
0
100
AcDbLine
 62
7
  6
CONTINUOUS
 10
36.0903973258
 20
37.2580505798
 11
34.2903973258
 21
37.2580505798
  0
LINE
  5
263
100
AcDbEntity
  8
0
100
AcDbLine
 62
7
  6
CONTINUOUS
 10
34.2903973258
 20
37.8337865111
 11
36.0903973258
 21
37.8337865111
  0
LINE
  5
264
100
AcDbEntity
  8
0
100
AcDbLine
 62
7
  6
CONTINUOUS
 10
36.0903973258
 20
37.9398525282
 11
34.2903973258
 21
37.9398525282
  0
LINE
  5
265
100
AcDbEntity
  8
0
100
AcDbLine
 62
7
  6
CONTINUOUS
 10
34.2903973258
 20
38.3519845626
 11
36.0903973258
 21
38.3519845626
  0
LINE
  5
266
100
AcDbEntity
  8
0
100
AcDbLine
 62
7
  6
CONTINUOUS
 10
36.0903973258
 20
38.3959185454
 11
34.2903973258
 21
38.3959185454
  0
LINE
  5
267
100
AcDbEntity
  8
0
100
AcDbLine
 62
7
  6
CONTINUOUS
 10
36.0903973258
 20
38.5459159613
 11
34.2903973258
 21
38.545917296
  0
LINE
  5
268
100
AcDbEntity
  8
0
100
AcDbLine
 62
7
  6
CONTINUOUS
 10
34.2903973258
 20
38.6459185454
 11
36.0903973258
 21
38.6459185454
  0
LINE
  5
269
100
AcDbEntity
  8
0
100
AcDbLine
 62
7
  6
CONTINUOUS
 10
36.0903973258
 20
39.1112397937
 11
34.2903973258
 21
39.1112397937
  0
LINE
  5
26A
100
AcDbEntity
  8
0
100
AcDbLine
 62
7
  6
CONTINUOUS
 10
36.0903973258
 20
35.9459185454
 11
35.6403973258
 21
36.3959185454
  0
LINE
  5
26B
100
AcDbEntity
  8
0
100
AcDbLine
 62
7
  6
CONTINUOUS
 10
31.2053973258
 20
12.2958695055
 11
31.2053973258
 21
101.2959370625
  0
LINE
  5
26C
100
AcDbEntity
  8
0
100
AcDbLine
 62
7
  6
CONTINUOUS
 10
31.2903973258
 20
75.43343273
 11
31.2903973258
 21
34.9959185454
  0
LINE
  5
26D
100
AcDbEntity
  8
0
100
AcDbLine
 62
7
  6
CONTINUOUS
 10
31.6488719021
 20
34.9959185454
 11
31.6488719021
 21
75.5619284223
  0
LINE
  5
26E
100
AcDbEntity
  8
0
100
AcDbLine
 62
7
  6
CONTINUOUS
 10
31.7053973258
 20
34.2959185454
 11
31.7053973258
 21
34.5235367196
  0
LINE
  5
26F
100
AcDbEntity
  8
0
100
AcDbLine
 62
7
  6
CONTINUOUS
 10
31.7053835671
 20
75.5663551527
 11
31.7053973258
 21
79.2959185454
  0
LINE
  5
270
100
AcDbEntity
  8
0
100
AcDbLine
 62
7
  6
CONTINUOUS
 10
32.0303973258
 20
93.5459259515
 11
32.0303973258
 21
91.0459222005
  0
LINE
  5
271
100
AcDbEntity
  8
0
100
AcDbLine
 62
7
  6
CONTINUOUS
 10
32.0303973258
 20
33.8159171326
 11
32.0303973258
 21
31.3159088444
  0
LINE
  5
272
100
AcDbEntity
  8
0
100
AcDbLine
 62
7
  6
CONTINUOUS
 10
32.0353973258
 20
23.0659185454
 11
32.0353973258
 21
23.0459185454
  0
LINE
  5
273
100
AcDbEntity
  8
0
100
AcDbLine
 62
7
  6
CONTINUOUS
 10
32.0803979824
 20
90.5659177433
 11
32.0803979778
 21
90.5459185454
  0
LINE
  5
274
100
AcDbEntity
  8
0
100
AcDbLine
 62
7
  6
CONTINUOUS
 10
32.8353973258
 20
23.0659185454
 11
32.8353973258
 21
23.0459185454
  0
LINE
  5
275
100
AcDbEntity
  8
0
100
AcDbLine
 62
7
  6
CONTINUOUS
 10
32.8553973267
 20
26.1867242765
 11
32.8553973267
 21
26.228795764
  0
LINE
  5
276
100
AcDbEntity
  8
0
100
AcDbLine
 62
7
  6
CONTINUOUS
 10
32.855397325
 20
98.6330413268
 11
32.855397325
 21
98.6751128144
  0
LINE
  5
277
100
AcDbEntity
  8
0
100
AcDbLine
 62
7
  6
CONTINUOUS
 10
33.2053973258
 20
75.7572520581
 11
33.2053973258
 21
79.2345850327
  0
LINE
  5
278
100
AcDbEntity
  8
0
100
AcDbLine
 62
7
  6
CONTINUOUS
 10
33.2620860419
 20
75.7264797255
 11
33.2620860502
 21
76.6672181335
  0
LINE
  5
279
100
AcDbEntity
  8
0
100
AcDbLine
 62
7
  6
CONTINUOUS
 10
33.2620860502
 20
78.3246189544
 11
33.2620860419
 21
79.2613583426
  0
LINE
  5
27A
100
AcDbEntity
  8
0
100
AcDbLine
 62
7
  6
CONTINUOUS
 10
33.2803973258
 20
75.5959185454
 11
33.2803973258
 21
79.1959185454
  0
LINE
  5
27B
100
AcDbEntity
  8
0
100
AcDbLine
 62
7
  6
CONTINUOUS
 10
33.3034969017
 20
79.2959185454
 11
33.3034968991
 21
79.1959185448
  0
LINE
  5
27C
100
AcDbEntity
  8
0
100
AcDbLine
 62
7
  6
CONTINUOUS
 10
33.3834847443
 20
79.1959185454
 11
33.3834847321
 21
79.2959185454
  0
LINE
  5
27D
100
AcDbEntity
  8
0
100
AcDbLine
 62
7
  6
CONTINUOUS
 10
34.0303973258
 20
91.8180415387
 11
34.0303973258
 21
91.0459185454
  0
LINE
  5
27E
100
AcDbEntity
  8
0
100
AcDbLine
 62
7
  6
CONTINUOUS
 10
34.0303973258
 20
33.8159185454
 11
34.0303973258
 21
33.0437955521
  0
LINE
  5
27F
100
AcDbEntity
  8
0
100
AcDbLine
 62
7
  6
CONTINUOUS
 10
34.055397325
 20
98.6751128144
 11
34.055397325
 21
98.6330413268
  0
LINE
  5
280
100
AcDbEntity
  8
0
100
AcDbLine
 62
7
  6
CONTINUOUS
 10
34.0553973267
 20
26.228795764
 11
34.0553973267
 21
26.1867242765
  0
LINE
  5
281
100
AcDbEntity
  8
0
100
AcDbLine
 62
7
  6
CONTINUOUS
 10
34.1303973265
 20
33.0437955521
 11
34.1303973265
 21
33.8159185454
  0
LINE
  5
282
100
AcDbEntity
  8
0
100
AcDbLine
 62
7
  6
CONTINUOUS
 10
34.1303973261
 20
91.0459185454
 11
34.1303973261
 21
91.8180415387
  0
LINE
  5
283
100
AcDbEntity
  8
0
100
AcDbLine
 62
7
  6
CONTINUOUS
 10
33.2620860419
 20
75.7264797255
 11
33.2706326513
 21
75.5952824434
  0
LINE
  5
284
100
AcDbEntity
  8
0
100
AcDbLine
 62
7
  6
CONTINUOUS
 10
34.7564422928
 20
33.8157010296
 11
34.7609198368
 21
31.1200123407
  0
LINE
  5
285
100
AcDbEntity
  8
0
100
AcDbLine
 62
7
  6
CONTINUOUS
 10
35.0620762474
 20
31.0905034063
 11
35.0578085911
 21
33.8160961609
  0
LINE
  5
286
100
AcDbEntity
  8
0
100
AcDbLine
 62
7
  6
CONTINUOUS
 10
34.2903973258
 20
34.4959185454
 11
34.2903973258
 21
41.4634209477
  0
LINE
  5
287
100
AcDbEntity
  8
0
100
AcDbLine
 62
7
  6
CONTINUOUS
 10
34.4053973258
 20
79.1959185454
 11
34.4053973258
 21
79.2959185454
  0
LINE
  5
288
100
AcDbEntity
  8
0
100
AcDbLine
 62
7
  6
CONTINUOUS
 10
34.6303973258
 20
31.1572162923
 11
34.6303973258
 21
33.8159190601
  0
LINE
  5
289
100
AcDbEntity
  8
0
100
AcDbLine
 62
7
  6
CONTINUOUS
 10
34.6303973258
 20
91.0459179558
 11
34.6303973258
 21
93.7046309106
  0
LINE
  5
28A
100
AcDbEntity
  8
0
100
AcDbLine
 62
7
  6
CONTINUOUS
 10
35.2303973258
 20
93.7251237275
 11
35.2303973258
 21
91.0459175608
  0
LINE
  5
28B
100
AcDbEntity
  8
0
100
AcDbLine
 62
7
  6
CONTINUOUS
 10
35.2303973258
 20
33.8159196041
 11
35.2303973258
 21
31.1367218944
  0
LINE
  5
28C
100
AcDbEntity
  8
0
100
AcDbLine
 62
7
  6
CONTINUOUS
 10
35.8053973267
 20
26.1867242765
 11
35.8053973267
 21
26.228795764
  0
LINE
  5
28D
100
AcDbEntity
  8
0
100
AcDbLine
 62
7
  6
CONTINUOUS
 10
35.805397325
 20
98.6330413268
 11
35.805397325
 21
98.6751128144
  0
LINE
  5
28E
100
AcDbEntity
  8
0
100
AcDbLine
 62
7
  6
CONTINUOUS
 10
35.9553973258
 20
36.6959185454
 11
35.9553973258
 21
36.5459185454
  0
LINE
  5
28F
100
AcDbEntity
  8
0
100
AcDbLine
 62
7
  6
CONTINUOUS
 10
36.0903973258
 20
34.4959185454
 11
36.0903973258
 21
41.6373596597
  0
LINE
  5
290
100
AcDbEntity
  8
0
100
AcDbLine
 62
7
  6
CONTINUOUS
 10
37.005397325
 20
98.6751128144
 11
37.005397325
 21
98.6330413268
  0
LINE
  5
291
100
AcDbEntity
  8
0
100
AcDbLine
 62
7
  6
CONTINUOUS
 10
37.0053973267
 20
26.228795764
 11
37.0053973267
 21
26.1867242765
  0
LINE
  5
292
100
AcDbEntity
  8
0
100
AcDbLine
 62
7
  6
CONTINUOUS
 10
37.1553973258
 20
10.4959185454
 11
37.1553973258
 21
11.7959185454
  0
LINE
  5
293
100
AcDbEntity
  8
0
100
AcDbLine
 62
7
  6
CONTINUOUS
 10
35.0578160778
 20
91.0457548748
 11
35.0620756735
 21
93.7713383949
  0
LINE
  5
294
100
AcDbEntity
  8
0
100
AcDbLine
 62
7
  6
CONTINUOUS
 10
34.7609200108
 20
93.7418303556
 11
34.7564492352
 21
91.0461194779
  0
LINE
  5
295
100
AcDbEntity
  8
0
100
AcDbLine
 62
7
  6
CONTINUOUS
 10
37.9784500306
 20
33.8158051734
 11
37.9906858227
 21
31.0738778666
  0
LWPOLYLINE
  5
296
100
AcDbEntity
  8
0
100
AcDbPolyline
 62
7
  6
CONTINUOUS
 90
4
 70
0
 10
37.9790175815
 20
33.8157993402
 10
37.9820360329
 20
32.9402257148
 10
37.9867325291
 20
32.0260176825
 10
37.989959853
 20
31.0738856755
  0
LINE
  5
297
100
AcDbEntity
  8
0
100
AcDbLine
 62
7
  6
CONTINUOUS
 10
38.6122633341
 20
31.0715632898
 11
38.6034337815
 21
33.8159494504
  0
LINE
  5
298
100
AcDbEntity
  8
0
100
AcDbLine
 62
7
  6
CONTINUOUS
 10
37.8303973258
 20
31.3118271578
 11
37.8303973258
 21
33.8159181261
  0
LINE
  5
299
100
AcDbEntity
  8
0
100
AcDbLine
 62
7
  6
CONTINUOUS
 10
37.8303973258
 20
91.0459190187
 11
37.8303973258
 21
93.5500388426
  0
LINE
  5
29A
100
AcDbEntity
  8
0
100
AcDbLine
 62
7
  6
CONTINUOUS
 10
38.8303973258
 20
93.5459182981
 11
38.8303973258
 21
91.0459220962
  0
LINE
  5
29B
100
AcDbEntity
  8
0
100
AcDbLine
 62
7
  6
CONTINUOUS
 10
38.8303973258
 20
33.8159018101
 11
38.8303973258
 21
31.31590286
  0
LINE
  5
29C
100
AcDbEntity
  8
0
100
AcDbLine
 62
7
  6
CONTINUOUS
 10
39.5303973258
 20
91.8180415363
 11
39.5303973258
 21
91.0459185454
  0
LINE
  5
29D
100
AcDbEntity
  8
0
100
AcDbLine
 62
7
  6
CONTINUOUS
 10
39.5303973258
 20
33.8159185454
 11
39.5303973258
 21
33.0437955497
  0
LINE
  5
29E
100
AcDbEntity
  8
0
100
AcDbLine
 62
7
  6
CONTINUOUS
 10
39.5303973258
 20
26.186724274
 11
39.5303973258
 21
26.2287957615
  0
LINE
  5
29F
100
AcDbEntity
  8
0
100
AcDbLine
 62
7
  6
CONTINUOUS
 10
39.5303973258
 20
98.6330413237
 11
39.5303973258
 21
98.6751128112
  0
LINE
  5
2A0
100
AcDbEntity
  8
0
100
AcDbLine
 62
7
  6
CONTINUOUS
 10
39.6303973258
 20
33.0437955497
 11
39.6303973258
 21
33.8159185454
  0
LINE
  5
2A1
100
AcDbEntity
  8
0
100
AcDbLine
 62
7
  6
CONTINUOUS
 10
39.6303973258
 20
91.0459185454
 11
39.6303973258
 21
91.8180415363
  0
LWPOLYLINE
  5
2A2
100
AcDbEntity
  8
0
100
AcDbPolyline
 62
7
  6
CONTINUOUS
 90
4
 70
0
 10
38.6113836504
 20
93.7902785995
 10
38.6090876398
 20
92.8856119954
 10
38.6066822867
 20
91.9703422145
 10
38.6042896941
 20
91.0459297417
  0
LINE
  5
2A3
100
AcDbEntity
  8
0
100
AcDbLine
 62
7
  6
CONTINUOUS
 10
38.6123608506
 20
93.7903162927
 11
38.6035297085
 21
91.045902368
  0
LINE
  5
2A4
100
AcDbEntity
  8
0
100
AcDbLine
 62
7
  6
CONTINUOUS
 10
37.9794892378
 20
91.0459758425
 11
37.9861706735
 21
92.8675683322
  0
LINE
  5
2A5
100
AcDbEntity
  8
0
100
AcDbLine
 62
7
  6
CONTINUOUS
 10
37.9861706735
 20
92.8675683322
 11
37.9894643294
 21
93.7880036965
  0
LINE
  5
2A6
100
AcDbEntity
  8
0
100
AcDbLine
 62
7
  6
CONTINUOUS
 10
37.9786455568
 20
91.0459746546
 11
37.9908826057
 21
93.7879635075
  0
LINE
  5
2A7
100
AcDbEntity
  8
0
100
AcDbLine
 62
7
  6
CONTINUOUS
 10
42.269994099
 20
93.7879604611
 11
42.282229535
 21
91.0459752647
  0
LINE
  5
2A8
100
AcDbEntity
  8
0
100
AcDbLine
 62
7
  6
CONTINUOUS
 10
42.2779126404
 20
91.9725635915
 11
42.2812852312
 21
91.0459575859
  0
LINE
  5
2A9
100
AcDbEntity
  8
0
100
AcDbLine
 62
7
  6
CONTINUOUS
 10
42.2713229111
 20
93.7879876992
 11
42.2779126404
 21
91.9725635915
  0
LINE
  5
2AA
100
AcDbEntity
  8
0
100
AcDbLine
 62
7
  6
CONTINUOUS
 10
41.6573236641
 20
91.045888651
 11
41.6484941338
 21
93.7903322298
  0
LINE
  5
2AB
100
AcDbEntity
  8
0
100
AcDbLine
 62
7
  6
CONTINUOUS
 10
41.6517619132
 20
92.8658378194
 11
41.6493810823
 21
93.7902887448
  0
LINE
  5
2AC
100
AcDbEntity
  8
0
100
AcDbLine
 62
7
  6
CONTINUOUS
 10
41.6564765431
 20
91.0459417591
 11
41.6517619132
 21
92.8658378194
  0
LINE
  5
2AD
100
AcDbEntity
  8
0
100
AcDbLine
 62
7
  6
CONTINUOUS
 10
40.6303973258
 20
33.0437955497
 11
40.6303973258
 21
33.8159185454
  0
LINE
  5
2AE
100
AcDbEntity
  8
0
100
AcDbLine
 62
7
  6
CONTINUOUS
 10
40.6303973258
 20
91.0459185454
 11
40.6303973258
 21
91.8180415363
  0
LINE
  5
2AF
100
AcDbEntity
  8
0
100
AcDbLine
 62
7
  6
CONTINUOUS
 10
40.7303973258
 20
98.6751128112
 11
40.7303973258
 21
98.6330413237
  0
LINE
  5
2B0
100
AcDbEntity
  8
0
100
AcDbLine
 62
7
  6
CONTINUOUS
 10
40.7303973258
 20
26.2287957615
 11
40.7303973258
 21
26.186724274
  0
LINE
  5
2B1
100
AcDbEntity
  8
0
100
AcDbLine
 62
7
  6
CONTINUOUS
 10
40.7303973258
 20
33.0437955497
 11
40.7303973258
 21
33.8159185454
  0
LINE
  5
2B2
100
AcDbEntity
  8
0
100
AcDbLine
 62
7
  6
CONTINUOUS
 10
40.7303973258
 20
91.0459185454
 11
40.7303973258
 21
91.8180415363
  0
LINE
  5
2B3
100
AcDbEntity
  8
0
100
AcDbLine
 62
7
  6
CONTINUOUS
 10
41.4303973258
 20
31.3159188936
 11
41.4303973258
 21
33.8159186728
  0
LINE
  5
2B4
100
AcDbEntity
  8
0
100
AcDbLine
 62
7
  6
CONTINUOUS
 10
41.4303973258
 20
91.0459339655
 11
41.4303973258
 21
93.5459344821
  0
LINE
  5
2B5
100
AcDbEntity
  8
0
100
AcDbLine
 62
7
  6
CONTINUOUS
 10
42.4303973258
 20
93.5500101019
 11
42.4303973258
 21
91.0459191375
  0
LINE
  5
2B6
100
AcDbEntity
  8
0
100
AcDbLine
 62
7
  6
CONTINUOUS
 10
42.4303973258
 20
33.8159179139
 11
42.4303973258
 21
31.311805175
  0
LINE
  5
2B7
100
AcDbEntity
  8
0
100
AcDbLine
 62
7
  6
CONTINUOUS
 10
43.1553973258
 20
11.7959185454
 11
43.1553973258
 21
10.4959185454
  0
LINE
  5
2B8
100
AcDbEntity
  8
0
100
AcDbLine
 62
7
  6
CONTINUOUS
 10
43.2553973258
 20
26.1867242765
 11
43.2553973258
 21
26.228795764
  0
LINE
  5
2B9
100
AcDbEntity
  8
0
100
AcDbLine
 62
7
  6
CONTINUOUS
 10
43.255397325
 20
98.6330413268
 11
43.255397325
 21
98.6751128144
  0
LINE
  5
2BA
100
AcDbEntity
  8
0
100
AcDbLine
 62
7
  6
CONTINUOUS
 10
41.6573300859
 20
33.8159492272
 11
41.6484988145
 21
31.0716077115
  0
LWPOLYLINE
  5
2BB
100
AcDbEntity
  8
0
100
AcDbPolyline
 62
7
  6
CONTINUOUS
 90
4
 70
0
 10
42.2708204544
 20
31.073878414
 10
42.2739981411
 20
32.0259985584
 10
42.2787075997
 20
32.9402026385
 10
42.2817472784
 20
33.8157864156
  0
LINE
  5
2BC
100
AcDbEntity
  8
0
100
AcDbLine
 62
7
  6
CONTINUOUS
 10
42.2700510917
 20
31.0738701392
 11
42.2822885861
 21
33.8157919771
  0
LINE
  5
2BD
100
AcDbEntity
  8
0
100
AcDbLine
 62
7
  6
CONTINUOUS
 10
45.1987184038
 20
93.7713327188
 11
45.2029812599
 21
91.04574057
  0
LINE
  5
2BE
100
AcDbEntity
  8
0
100
AcDbLine
 62
7
  6
CONTINUOUS
 10
45.504353554
 20
91.0461208926
 11
45.4998748215
 21
93.7418233507
  0
LINE
  5
2BF
100
AcDbEntity
  8
0
100
AcDbLine
 62
7
  6
CONTINUOUS
 10
44.455397325
 20
98.6751128144
 11
44.455397325
 21
98.6330413268
  0
LINE
  5
2C0
100
AcDbEntity
  8
0
100
AcDbLine
 62
7
  6
CONTINUOUS
 10
44.4553973258
 20
26.228795764
 11
44.4553973258
 21
26.1867242765
  0
LINE
  5
2C1
100
AcDbEntity
  8
0
100
AcDbLine
 62
7
  6
CONTINUOUS
 10
45.0303973258
 20
31.1367287431
 11
45.0303973258
 21
33.8159193972
  0
LINE
  5
2C2
100
AcDbEntity
  8
0
100
AcDbLine
 62
7
  6
CONTINUOUS
 10
45.0303973258
 20
91.0459176644
 11
45.0303973258
 21
93.7251234543
  0
LINE
  5
2C3
100
AcDbEntity
  8
0
100
AcDbLine
 62
7
  6
CONTINUOUS
 10
45.6303973258
 20
93.7046348274
 11
45.6303973258
 21
91.0459179381
  0
LINE
  5
2C4
100
AcDbEntity
  8
0
100
AcDbLine
 62
7
  6
CONTINUOUS
 10
45.6303973258
 20
33.8159192539
 11
45.6303973258
 21
31.1572143846
  0
LINE
  5
2C5
100
AcDbEntity
  8
0
100
AcDbLine
 62
7
  6
CONTINUOUS
 10
45.9053973258
 20
79.1959185454
 11
45.9053973258
 21
79.2959185454
  0
LINE
  5
2C6
100
AcDbEntity
  8
0
100
AcDbLine
 62
7
  6
CONTINUOUS
 10
46.1303973255
 20
33.0437955521
 11
46.1303973255
 21
33.8159185454
  0
LINE
  5
2C7
100
AcDbEntity
  8
0
100
AcDbLine
 62
7
  6
CONTINUOUS
 10
46.1303973251
 20
91.0459185454
 11
46.1303973251
 21
91.8180415387
  0
LINE
  5
2C8
100
AcDbEntity
  8
0
100
AcDbLine
 62
7
  6
CONTINUOUS
 10
46.2053973258
 20
26.1867242765
 11
46.2053973258
 21
26.228795764
  0
LINE
  5
2C9
100
AcDbEntity
  8
0
100
AcDbLine
 62
7
  6
CONTINUOUS
 10
46.205397325
 20
98.6330413268
 11
46.205397325
 21
98.6751128144
  0
LINE
  5
2CA
100
AcDbEntity
  8
0
100
AcDbLine
 62
7
  6
CONTINUOUS
 10
46.2303973258
 20
33.0437955521
 11
46.2303973258
 21
33.8159185454
  0
LINE
  5
2CB
100
AcDbEntity
  8
0
100
AcDbLine
 62
7
  6
CONTINUOUS
 10
46.2303973258
 20
91.0459185454
 11
46.2303973258
 21
91.8180415387
  0
LINE
  5
2CC
100
AcDbEntity
  8
0
100
AcDbLine
 62
7
  6
CONTINUOUS
 10
45.2029787824
 20
33.8160828032
 11
45.1987189737
 21
31.0904993855
  0
LINE
  5
2CD
100
AcDbEntity
  8
0
100
AcDbLine
 62
7
  6
CONTINUOUS
 10
45.4998746468
 20
31.1200082307
 11
45.5043441987
 21
33.8157022903
  0
LINE
  5
2CE
100
AcDbEntity
  8
0
100
AcDbLine
 62
7
  6
CONTINUOUS
 10
47.0487086097
 20
75.7264797255
 11
47.0402034381
 21
75.5959185454
  0
LINE
  5
2CF
100
AcDbEntity
  8
0
100
AcDbLine
 62
7
  6
CONTINUOUS
 10
46.9273099193
 20
79.2959185454
 11
46.9273099103
 21
79.1959185454
  0
LINE
  5
2D0
100
AcDbEntity
  8
0
100
AcDbLine
 62
7
  6
CONTINUOUS
 10
47.0003973258
 20
75.5959185454
 11
47.0003973258
 21
79.1959185454
  0
LINE
  5
2D1
100
AcDbEntity
  8
0
100
AcDbLine
 62
7
  6
CONTINUOUS
 10
47.0072978726
 20
78.3559184846
 11
47.0073061553
 21
79.2959185454
  0
LINE
  5
2D2
100
AcDbEntity
  8
0
100
AcDbLine
 62
7
  6
CONTINUOUS
 10
47.0487086097
 20
79.2613583426
 11
47.0487086015
 21
78.3245955866
  0
LINE
  5
2D3
100
AcDbEntity
  8
0
100
AcDbLine
 62
7
  6
CONTINUOUS
 10
47.0487086015
 20
76.6672415027
 11
47.0487086097
 21
75.7264797256
  0
LINE
  5
2D4
100
AcDbEntity
  8
0
100
AcDbLine
 62
7
  6
CONTINUOUS
 10
47.1053973258
 20
75.7572520581
 11
47.1053973258
 21
79.2345850327
  0
LINE
  5
2D5
100
AcDbEntity
  8
0
100
AcDbLine
 62
7
  6
CONTINUOUS
 10
47.405397325
 20
98.6751128144
 11
47.405397325
 21
98.6330413268
  0
LINE
  5
2D6
100
AcDbEntity
  8
0
100
AcDbLine
 62
7
  6
CONTINUOUS
 10
47.4053973258
 20
26.228795764
 11
47.4053973258
 21
26.1867242765
  0
LINE
  5
2D7
100
AcDbEntity
  8
0
100
AcDbLine
 62
7
  6
CONTINUOUS
 10
47.5053973258
 20
23.0659185454
 11
47.5053973258
 21
23.0459185454
  0
LINE
  5
2D8
100
AcDbEntity
  8
0
100
AcDbLine
 62
7
  6
CONTINUOUS
 10
48.1803973258
 20
90.5659177424
 11
48.1803973258
 21
90.5459185454
  0
LINE
  5
2D9
100
AcDbEntity
  8
0
100
AcDbLine
 62
7
  6
CONTINUOUS
 10
48.2303973258
 20
31.3159111162
 11
48.2303973258
 21
33.8159148879
  0
LINE
  5
2DA
100
AcDbEntity
  8
0
100
AcDbLine
 62
7
  6
CONTINUOUS
 10
48.2303973258
 20
91.0459134828
 11
48.2303973258
 21
93.5459279798
  0
LINE
  5
2DB
100
AcDbEntity
  8
0
100
AcDbLine
 62
7
  6
CONTINUOUS
 10
48.3353973258
 20
23.0459185454
 11
48.3353973258
 21
23.0659185454
  0
LINE
  5
2DC
100
AcDbEntity
  8
0
100
AcDbLine
 62
7
  6
CONTINUOUS
 10
48.6053973258
 20
34.5332843383
 11
48.6053973258
 21
34.2959185454
  0
LINE
  5
2DD
100
AcDbEntity
  8
0
100
AcDbLine
 62
7
  6
CONTINUOUS
 10
48.6053973258
 20
79.2959185454
 11
48.60540221
 21
75.5640058615
  0
LINE
  5
2DE
100
AcDbEntity
  8
0
100
AcDbLine
 62
7
  6
CONTINUOUS
 10
48.6319227495
 20
75.5619284223
 11
48.6319227495
 21
34.9959185454
  0
LINE
  5
2DF
100
AcDbEntity
  8
0
100
AcDbLine
 62
7
  6
CONTINUOUS
 10
48.9903973258
 20
34.9959185454
 11
48.9903973258
 21
75.43343273
  0
LINE
  5
2E0
100
AcDbEntity
  8
0
100
AcDbLine
 62
7
  6
CONTINUOUS
 10
49.0553973258
 20
101.2959616102
 11
49.0553973258
 21
90.565918216
  0
LINE
  5
2E1
100
AcDbEntity
  8
0
100
AcDbLine
 62
7
  6
CONTINUOUS
 10
49.0553973258
 20
34.2959188866
 11
49.0553973258
 21
23.5658992428
  0
LINE
  5
2E2
100
AcDbEntity
  8
0
100
AcDbLine
 62
7
  6
CONTINUOUS
 10
49.1053973258
 20
12.2958660648
 11
49.1053973258
 21
101.2959185454
  0
LINE
  5
2E3
100
AcDbEntity
  8
0
100
AcDbLine
 62
7
  6
CONTINUOUS
 10
34.7403973258
 20
36.3959185454
 11
34.2903973258
 21
35.9459185454
  0
LINE
  5
2E4
100
AcDbEntity
  8
0
100
AcDbLine
 62
7
  6
CONTINUOUS
 10
35.9553973258
 20
36.5459185454
 11
36.0903973258
 21
36.6809351884
  0
LINE
  5
2E5
100
AcDbEntity
  8
0
100
AcDbLine
 62
7
  6
CONTINUOUS
 10
35.9553973258
 20
36.5459185454
 11
36.096200854
 21
36.6867138502
  0
LINE
  5
2E6
100
AcDbEntity
  8
0
100
AcDbLine
 62
7
  6
CONTINUOUS
 10
44.7359499658
 20
9.9828883304
 11
45.3958389978
 21
11.7959185454
  0
LINE
  5
2E7
100
AcDbEntity
  8
0
100
AcDbLine
 62
7
  6
CONTINUOUS
 10
32.0911737608
 20
75.5959185454
 11
33.2803973258
 21
75.5959185454
  0
LINE
  5
2E8
100
AcDbEntity
  8
0
100
AcDbLine
 62
7
  6
CONTINUOUS
 10
47.0003973258
 20
75.5959185454
 11
48.1896208909
 21
75.5959185454
  0
LINE
  5
2E9
100
AcDbEntity
  8
0
100
AcDbLine
 62
7
  6
CONTINUOUS
 10
31.7053831772
 20
75.757252058
 11
33.205397326
 21
75.7572520581
  0
LINE
  5
2EA
100
AcDbEntity
  8
0
100
AcDbLine
 62
7
  6
CONTINUOUS
 10
47.1053973257
 20
75.7572520581
 11
48.6054022098
 21
75.7572520586
  0
LINE
  5
2EB
100
AcDbEntity
  8
0
100
AcDbLine
 62
7
  6
CONTINUOUS
 10
33.2803973258
 20
76.6359185454
 11
33.2682132988
 21
76.6359185454
  0
LINE
  5
2EC
100
AcDbEntity
  8
0
100
AcDbLine
 62
7
  6
CONTINUOUS
 10
47.0003973258
 20
76.6359185454
 11
47.0425813531
 21
76.6359185454
  0
LINE
  5
2ED
100
AcDbEntity
  8
0
100
AcDbLine
 62
7
  6
CONTINUOUS
 10
33.2803973258
 20
77.3959185454
 11
47.0003973258
 21
77.3959185454
  0
LINE
  5
2EE
100
AcDbEntity
  8
0
100
AcDbLine
 62
7
  6
CONTINUOUS
 10
33.2803973258
 20
78.3559185454
 11
33.2682132988
 21
78.3559185454
  0
LINE
  5
2EF
100
AcDbEntity
  8
0
100
AcDbLine
 62
7
  6
CONTINUOUS
 10
47.0003973258
 20
78.3559185454
 11
47.0425813531
 21
78.3559185454
  0
LINE
  5
2F0
100
AcDbEntity
  8
0
100
AcDbLine
 62
7
  6
CONTINUOUS
 10
33.2803973153
 20
79.1959185454
 11
47.0003973414
 21
79.1959185454
  0
LINE
  5
2F1
100
AcDbEntity
  8
0
100
AcDbLine
 62
7
  6
CONTINUOUS
 10
31.2053973258
 20
79.2959185454
 11
49.1053973258
 21
79.2959185454
  0
LINE
  5
2F2
100
AcDbEntity
  8
0
100
AcDbLine
 62
7
  6
CONTINUOUS
 10
31.2053973258
 20
90.5459185454
 11
49.1053973258
 21
90.5459185454
  0
LINE
  5
2F3
100
AcDbEntity
  8
0
100
AcDbLine
 62
7
  6
CONTINUOUS
 10
31.205397345
 20
90.5659185454
 11
49.0553973068
 21
90.5659185454
  0
LINE
  5
2F4
100
AcDbEntity
  8
0
100
AcDbLine
 62
7
  6
CONTINUOUS
 10
31.7800189037
 20
91.0459185454
 11
34.7564471192
 21
91.0459185454
  0
LINE
  5
2F5
100
AcDbEntity
  8
0
100
AcDbLine
 62
7
  6
CONTINUOUS
 10
35.0578150564
 20
91.0459185454
 11
37.9790918967
 21
91.0459185454
  0
LINE
  5
2F6
100
AcDbEntity
  8
0
100
AcDbLine
 62
7
  6
CONTINUOUS
 10
38.6038967166
 20
91.0459185454
 11
41.6568421332
 21
91.0459185454
  0
LINE
  5
2F7
100
AcDbEntity
  8
0
100
AcDbLine
 62
7
  6
CONTINUOUS
 10
42.2817914181
 20
91.0459185454
 11
45.2029858133
 21
91.0459185454
  0
LINE
  5
2F8
100
AcDbEntity
  8
0
100
AcDbLine
 62
7
  6
CONTINUOUS
 10
45.5043517056
 20
91.0459185454
 11
48.4807311701
 21
91.0459185454
  0
LINE
  5
2F9
100
AcDbEntity
  8
0
100
AcDbLine
 62
7
  6
CONTINUOUS
 10
48.2303973258
 20
91.2396100657
 11
46.2303973258
 21
91.2396100657
  0
LINE
  5
2FA
100
AcDbEntity
  8
0
100
AcDbLine
 62
7
  6
CONTINUOUS
 10
45.0303973258
 20
91.2396100657
 11
42.4303973258
 21
91.2396100657
  0
LINE
  5
2FB
100
AcDbEntity
  8
0
100
AcDbLine
 62
7
  6
CONTINUOUS
 10
41.4303973258
 20
91.2396100657
 11
40.7303973258
 21
91.2396100657
  0
LINE
  5
2FC
100
AcDbEntity
  8
0
100
AcDbLine
 62
7
  6
CONTINUOUS
 10
39.5303973258
 20
91.2396100657
 11
38.8303973258
 21
91.2396100657
  0
LINE
  5
2FD
100
AcDbEntity
  8
0
100
AcDbLine
 62
7
  6
CONTINUOUS
 10
37.8303973258
 20
91.2396100657
 11
35.2303973258
 21
91.2396100657
  0
LINE
  5
2FE
100
AcDbEntity
  8
0
100
AcDbLine
 62
7
  6
CONTINUOUS
 10
34.0303973258
 20
91.2396100657
 11
32.0303973258
 21
91.2396100657
  0
LINE
  5
2FF
100
AcDbEntity
  8
0
100
AcDbLine
 62
7
  6
CONTINUOUS
 10
48.230397325
 20
91.8180415387
 11
45.6303973258
 21
91.8180415387
  0
LINE
  5
300
100
AcDbEntity
  8
0
100
AcDbLine
 62
7
  6
CONTINUOUS
 10
45.0303973258
 20
91.8180415387
 11
42.430397325
 21
91.8180415387
  0
LINE
  5
301
100
AcDbEntity
  8
0
100
AcDbLine
 62
7
  6
CONTINUOUS
 10
41.4303973258
 20
91.8180415363
 11
38.8303973258
 21
91.8180415363
  0
LINE
  5
302
100
AcDbEntity
  8
0
100
AcDbLine
 62
7
  6
CONTINUOUS
 10
37.830397325
 20
91.8180415387
 11
35.2303973258
 21
91.8180415387
  0
LINE
  5
303
100
AcDbEntity
  8
0
100
AcDbLine
 62
7
  6
CONTINUOUS
 10
34.6303973258
 20
91.8180415387
 11
32.030397325
 21
91.8180415387
  0
LINE
  5
304
100
AcDbEntity
  8
0
100
AcDbLine
 62
7
  6
CONTINUOUS
 10
48.230397325
 20
93.4448528866
 11
45.6303973258
 21
93.4448528866
  0
LINE
  5
305
100
AcDbEntity
  8
0
100
AcDbLine
 62
7
  6
CONTINUOUS
 10
45.0303973258
 20
93.4448528866
 11
42.430397325
 21
93.4448528866
  0
LINE
  5
306
100
AcDbEntity
  8
0
100
AcDbLine
 62
7
  6
CONTINUOUS
 10
41.4303973258
 20
93.4448528832
 11
38.8303973258
 21
93.4448528832
  0
LINE
  5
307
100
AcDbEntity
  8
0
100
AcDbLine
 62
7
  6
CONTINUOUS
 10
37.830397325
 20
93.4448528866
 11
35.2303973258
 21
93.4448528866
  0
LINE
  5
308
100
AcDbEntity
  8
0
100
AcDbLine
 62
7
  6
CONTINUOUS
 10
34.6303973258
 20
93.4448528866
 11
32.030397325
 21
93.4448528866
  0
LINE
  5
309
100
AcDbEntity
  8
0
100
AcDbLine
 62
7
  6
CONTINUOUS
 10
48.2588200881
 20
93.5459185454
 11
45.6303975268
 21
93.5459185454
  0
LINE
  5
30A
100
AcDbEntity
  8
0
100
AcDbLine
 62
7
  6
CONTINUOUS
 10
45.0303973207
 20
93.5459185454
 11
42.4303973276
 21
93.5459185454
  0
LINE
  5
30B
100
AcDbEntity
  8
0
100
AcDbLine
 62
7
  6
CONTINUOUS
 10
41.4313247713
 20
93.5459185454
 11
38.8294410738
 21
93.5459185454
  0
LINE
  5
30C
100
AcDbEntity
  8
0
100
AcDbLine
 62
7
  6
CONTINUOUS
 10
37.8303973035
 20
93.5459185454
 11
35.2303970468
 21
93.5459185454
  0
LINE
  5
30D
100
AcDbEntity
  8
0
100
AcDbLine
 62
7
  6
CONTINUOUS
 10
34.6303971248
 20
93.5459185454
 11
32.0019720673
 21
93.5459185454
  0
LINE
  5
30E
100
AcDbEntity
  8
0
100
AcDbLine
 62
7
  6
CONTINUOUS
 10
33.4303818677
 20
96.6459185454
 11
36.4305273714
 21
96.6459185454
  0
LINE
  5
30F
100
AcDbEntity
  8
0
100
AcDbLine
 62
7
  6
CONTINUOUS
 10
43.8303811881
 20
96.6459185454
 11
46.8305263243
 21
96.6459185454
  0
LINE
  5
310
100
AcDbEntity
  8
0
100
AcDbLine
 62
7
  6
CONTINUOUS
 10
36.4343560788
 20
99.4455993391
 11
36.4309485323
 21
99.4449254956
  0
LINE
  5
311
100
AcDbEntity
  8
0
100
AcDbLine
 62
7
  6
CONTINUOUS
 10
46.0228284735
 20
98.4431226557
 11
45.9924795796
 21
98.4405916794
  0
LINE
  5
312
100
AcDbEntity
  8
0
100
AcDbLine
 62
7
  6
CONTINUOUS
 10
43.0728284735
 20
98.4431226557
 11
42.9903834661
 21
98.4362470718
  0
LINE
  5
313
100
AcDbEntity
  8
0
100
AcDbLine
 62
7
  6
CONTINUOUS
 10
39.3478284744
 20
98.4431226525
 11
39.2695668939
 21
98.4365959497
  0
LINE
  5
314
100
AcDbEntity
  8
0
100
AcDbLine
 62
7
  6
CONTINUOUS
 10
35.6228284735
 20
98.4431226557
 11
35.5924795796
 21
98.4405916794
  0
LINE
  5
315
100
AcDbEntity
  8
0
100
AcDbLine
 62
7
  6
CONTINUOUS
 10
32.6728284735
 20
98.4431226557
 11
32.5903833763
 21
98.4362470644
  0
LINE
  5
316
100
AcDbEntity
  8
0
100
AcDbLine
 62
7
  6
CONTINUOUS
 10
33.345463995
 20
97.1054872283
 11
33.515312824
 21
97.1054872283
  0
LINE
  5
317
100
AcDbEntity
  8
0
100
AcDbLine
 62
7
  6
CONTINUOUS
 10
36.3455301577
 20
97.1054872283
 11
36.5153540701
 21
97.1054872283
  0
LINE
  5
318
100
AcDbEntity
  8
0
100
AcDbLine
 62
7
  6
CONTINUOUS
 10
43.7454631659
 20
97.1054872283
 11
43.9153119947
 21
97.1054872283
  0
LINE
  5
319
100
AcDbEntity
  8
0
100
AcDbLine
 62
7
  6
CONTINUOUS
 10
46.7455323633
 20
97.1054872283
 11
46.9153562721
 21
97.1054872283
  0
LINE
  5
31A
100
AcDbEntity
  8
0
100
AcDbLine
 62
7
  6
CONTINUOUS
 10
32.855397325
 20
98.6751128144
 11
34.055397325
 21
98.6751128144
  0
LINE
  5
31B
100
AcDbEntity
  8
0
100
AcDbLine
 62
7
  6
CONTINUOUS
 10
35.805397325
 20
98.6751128144
 11
37.005397325
 21
98.6751128144
  0
LINE
  5
31C
100
AcDbEntity
  8
0
100
AcDbLine
 62
7
  6
CONTINUOUS
 10
39.5303973258
 20
98.6751128112
 11
40.7303973258
 21
98.6751128112
  0
LINE
  5
31D
100
AcDbEntity
  8
0
100
AcDbLine
 62
7
  6
CONTINUOUS
 10
43.255397325
 20
98.6751128144
 11
44.455397325
 21
98.6751128144
  0
LINE
  5
31E
100
AcDbEntity
  8
0
100
AcDbLine
 62
7
  6
CONTINUOUS
 10
46.205397325
 20
98.6751128144
 11
47.405397325
 21
98.6751128144
  0
LINE
  5
31F
100
AcDbEntity
  8
0
100
AcDbLine
 62
7
  6
CONTINUOUS
 10
49.0553973258
 20
98.6959185454
 11
49.1053973258
 21
98.6959185454
  0
LINE
  5
320
100
AcDbEntity
  8
0
100
AcDbLine
 62
7
  6
CONTINUOUS
 10
46.8306322257
 20
99.4459185454
 11
43.8302152901
 21
99.4459185454
  0
LINE
  5
321
100
AcDbEntity
  8
0
100
AcDbLine
 62
7
  6
CONTINUOUS
 10
36.4307521563
 20
99.4459185454
 11
33.4302172459
 21
99.4459185454
  0
LINE
  5
322
100
AcDbEntity
  8
0
100
AcDbLine
 62
7
  6
CONTINUOUS
 10
31.7053373136
 20
101.7959185454
 11
48.5554312068
 21
101.7959185454
  0
LINE
  5
323
100
AcDbEntity
  8
0
100
AcDbLine
 62
7
  6
CONTINUOUS
 10
36.4343560788
 20
99.4455993391
 11
36.4309480647
 21
99.4456012288
  0
LINE
  5
324
100
AcDbEntity
  8
0
100
AcDbLine
 62
7
  6
CONTINUOUS
 10
34.2683167584
 20
98.4405915386
 11
34.2379661764
 21
98.4431226557
  0
LINE
  5
325
100
AcDbEntity
  8
0
100
AcDbLine
 62
7
  6
CONTINUOUS
 10
37.2704104528
 20
98.4362471328
 11
37.1879661764
 21
98.4431226557
  0
LINE
  5
326
100
AcDbEntity
  8
0
100
AcDbLine
 62
7
  6
CONTINUOUS
 10
40.9912277577
 20
98.4365959497
 11
40.9129661773
 21
98.4431226525
  0
LINE
  5
327
100
AcDbEntity
  8
0
100
AcDbLine
 62
7
  6
CONTINUOUS
 10
44.6683167584
 20
98.4405915386
 11
44.6379661764
 21
98.4431226557
  0
LINE
  5
328
100
AcDbEntity
  8
0
100
AcDbLine
 62
7
  6
CONTINUOUS
 10
47.6704104528
 20
98.4362471328
 11
47.5879661764
 21
98.4431226557
  0
ARC
  5
329
100
AcDbEntity
  8
0
100
AcDbCircle
 62
7
  6
CONTINUOUS
 10
-39.3293580896
 20
-20.4369179154
 40
92.9061909653
100
AcDbArc
 50
33.6720503832
 51
33.8485781284
  0
ARC
  5
32A
100
AcDbEntity
  8
0
100
AcDbCircle
 62
7
  6
CONTINUOUS
 10
-23.5288092366
 20
32.2848223334
 40
82.6836726598
100
AcDbArc
 50
47.8089278975
 51
47.9814662827
  0
ARC
  5
32B
100
AcDbEntity
  8
0
100
AcDbCircle
 62
7
  6
CONTINUOUS
 10
40.1899294793
 20
-1410.3128697386
 40
1511.9152274885
100
AcDbArc
 50
89.6818416487
 51
90.322672306
  0
ARC
  5
32C
100
AcDbEntity
  8
0
100
AcDbCircle
 62
7
  6
CONTINUOUS
 10
40.1305765652
 20
-550.8295001639
 40
644.6210253311
100
AcDbArc
 50
89.8650821043
 51
90.1349443924
  0
ARC
  5
32D
100
AcDbEntity
  8
0
100
AcDbCircle
 62
7
  6
CONTINUOUS
 10
39.4904162276
 20
-536.4938804184
 40
630.2534563724
100
AcDbArc
 50
90.4299583176
 51
90.6975783032
  0
ARC
  5
32E
100
AcDbEntity
  8
0
100
AcDbCircle
 62
7
  6
CONTINUOUS
 10
40.2229045914
 20
-525.0170276383
 40
618.8083658424
100
AcDbArc
 50
89.5392819181
 51
89.8103874445
  0
ARC
  5
32F
100
AcDbEntity
  8
0
100
AcDbCircle
 62
7
  6
CONTINUOUS
 10
40.0212589495
 20
-521.9425268131
 40
615.7338364165
100
AcDbArc
 50
90.1890097271
 51
90.4614710558
  0
ARC
  5
330
100
AcDbEntity
  8
0
100
AcDbCircle
 62
7
  6
CONTINUOUS
 10
40.420273939
 20
25.2153647023
 40
3.9992775946
100
AcDbArc
 50
179.992061648
 51
181.2176026998
  0
ARC
  5
331
100
AcDbEntity
  8
0
100
AcDbCircle
 62
7
  6
CONTINUOUS
 10
40.0339291044
 20
25.2133295722
 40
3.8058693783
100
AcDbArc
 50
358.7511990156
 51
0.0389808219
  0
ARC
  5
332
100
AcDbEntity
  8
0
100
AcDbCircle
 62
7
  6
CONTINUOUS
 10
35.5480974086
 20
25.2138206633
 40
2.1347178169
100
AcDbArc
 50
179.9436855903
 51
182.0960926471
  0
ARC
  5
333
100
AcDbEntity
  8
0
100
AcDbCircle
 62
7
  6
CONTINUOUS
 10
36.984383617
 20
10.4959185454
 40
1.5
100
AcDbArc
 50
199.9999999991
 51
270.0
  0
ARC
  5
334
100
AcDbEntity
  8
0
100
AcDbCircle
 62
7
  6
CONTINUOUS
 10
43.3264110346
 20
10.4959185454
 40
1.5
100
AcDbArc
 50
270.0
 51
340.0000000001
  0
ARC
  5
335
100
AcDbEntity
  8
0
100
AcDbCircle
 62
7
  6
CONTINUOUS
 10
36.4321559302
 20
26.8170450839
 40
1.4009059729
100
AcDbArc
 50
180.0486595541
 51
269.966489289
  0
ARC
  5
336
100
AcDbEntity
  8
0
100
AcDbCircle
 62
7
  6
CONTINUOUS
 10
33.4286348592
 20
26.8148065609
 40
1.4008995473
100
AcDbArc
 50
0.0494006912
 51
89.9787843944
  0
ARC
  5
337
100
AcDbEntity
  8
0
100
AcDbCircle
 62
7
  6
CONTINUOUS
 10
43.8286607636
 20
26.8148533617
 40
1.4008510072
100
AcDbArc
 50
0.0553648945
 51
89.9819619072
  0
ARC
  5
338
100
AcDbEntity
  8
0
100
AcDbCircle
 62
7
  6
CONTINUOUS
 10
36.4318608702
 20
26.8150113509
 40
1.4006047975
100
AcDbArc
 50
89.9499518579
 51
179.965473613
  0
CIRCLE
  5
339
100
AcDbEntity
  8
0
100
AcDbCircle
 62
7
  6
CONTINUOUS
 10
40.1303973258
 20
26.8159185454
 40
1.4
  0
ARC
  5
33A
100
AcDbEntity
  8
0
100
AcDbCircle
 62
7
  6
CONTINUOUS
 10
36.4303973258
 20
26.8159185454
 40
1.4
100
AcDbArc
 50
270.0093871629
 51
89.9987268242
  0
ARC
  5
33B
100
AcDbEntity
  8
0
100
AcDbCircle
 62
7
  6
CONTINUOUS
 10
33.4303973258
 20
26.8159185454
 40
1.4
100
AcDbArc
 50
90.0034045486
 51
269.9903857496
  0
ARC
  5
33C
100
AcDbEntity
  8
0
100
AcDbCircle
 62
7
  6
CONTINUOUS
 10
43.8303973258
 20
26.8159185454
 40
1.4
100
AcDbArc
 50
90.0034252517
 51
269.985499277
  0
CIRCLE
  5
33D
100
AcDbEntity
  8
0
100
AcDbCircle
 62
7
  6
CONTINUOUS
 10
33.4303973258
 20
26.8159185454
 40
0.95
  0
CIRCLE
  5
33E
100
AcDbEntity
  8
0
100
AcDbCircle
 62
7
  6
CONTINUOUS
 10
36.4303973258
 20
26.8159185454
 40
0.95
  0
CIRCLE
  5
33F
100
AcDbEntity
  8
0
100
AcDbCircle
 62
7
  6
CONTINUOUS
 10
43.8303973258
 20
26.8159185454
 40
0.95
  0
CIRCLE
  5
340
100
AcDbEntity
  8
0
100
AcDbCircle
 62
7
  6
CONTINUOUS
 10
40.1303973258
 20
26.8159185454
 40
0.9499850593
  0
ARC
  5
341
100
AcDbEntity
  8
0
100
AcDbCircle
 62
7
  6
CONTINUOUS
 10
31.7053973258
 20
23.5659185454
 40
0.5
100
AcDbArc
 50
180.0027429917
 51
270.0
  0
ARC
  5
342
100
AcDbEntity
  8
0
100
AcDbCircle
 62
7
  6
CONTINUOUS
 10
31.7903973258
 20
34.9959185454
 40
0.5
100
AcDbArc
 50
180.0
 51
270.0
  0
ARC
  5
343
100
AcDbEntity
  8
0
100
AcDbCircle
 62
7
  6
CONTINUOUS
 10
31.7053973258
 20
34.7959185454
 40
0.5
100
AcDbArc
 50
180.0
 51
270.0
  0
ARC
  5
344
100
AcDbEntity
  8
0
100
AcDbCircle
 62
7
  6
CONTINUOUS
 10
31.7053973258
 20
12.2959185454
 40
0.5
100
AcDbArc
 50
180.0
 51
270.0
  0
ARC
  5
345
100
AcDbEntity
  8
0
100
AcDbCircle
 62
7
  6
CONTINUOUS
 10
40.0702928117
 20
1536.9540739071
 40
1513.6945987638
100
AcDbArc
 50
269.6822373366
 51
270.3223146527
  0
ARC
  5
346
100
AcDbEntity
  8
0
100
AcDbCircle
 62
7
  6
CONTINUOUS
 10
40.1302180958
 20
675.6127807641
 40
644.5424693081
100
AcDbArc
 50
269.8650181092
 51
270.1350148795
  0
ARC
  5
347
100
AcDbEntity
  8
0
100
AcDbCircle
 62
7
  6
CONTINUOUS
 10
39.4968661383
 20
662.0565612688
 40
630.9543231968
100
AcDbArc
 50
269.3026116853
 51
269.5699335544
  0
ARC
  5
348
100
AcDbEntity
  8
0
100
AcDbCircle
 62
7
  6
CONTINUOUS
 10
40.8718369453
 20
651.0492032409
 40
619.946469914
100
AcDbArc
 50
270.4277296567
 51
270.6997989662
  0
ARC
  5
349
100
AcDbEntity
  8
0
100
AcDbCircle
 62
7
  6
CONTINUOUS
 10
40.0423068115
 20
650.6182980307
 40
619.5478117212
100
AcDbArc
 50
269.5394233341
 51
269.8101986131
  0
ARC
  5
34A
100
AcDbEntity
  8
0
100
AcDbCircle
 62
7
  6
CONTINUOUS
 10
40.2425625
 20
646.2585234032
 40
615.1879885537
100
AcDbArc
 50
270.1889029585
 51
270.46159861
  0
ARC
  5
34B
100
AcDbEntity
  8
0
100
AcDbCircle
 62
7
  6
CONTINUOUS
 10
39.8405009265
 20
99.6464721631
 40
3.9992973807
100
AcDbArc
 50
359.9920649181
 51
1.2176051075
  0
ARC
  5
34C
100
AcDbEntity
  8
0
100
AcDbCircle
 62
7
  6
CONTINUOUS
 10
40.2268718903
 20
99.6485074571
 40
3.8058757213
100
AcDbArc
 50
178.7512042926
 51
180.0389798291
  0
ARC
  5
34D
100
AcDbEntity
  8
0
100
AcDbCircle
 62
7
  6
CONTINUOUS
 10
35.656186276
 20
99.6451809455
 40
2.2427991743
100
AcDbArc
 50
179.9811631907
 51
181.4725569268
  0
ARC
  5
34E
100
AcDbEntity
  8
0
100
AcDbCircle
 62
7
  6
CONTINUOUS
 10
35.3515066671
 20
99.6375724665
 40
1.9380180741
100
AcDbArc
 50
181.47917638
 51
182.049413056
  0
ARC
  5
34F
100
AcDbEntity
  8
0
100
AcDbCircle
 62
7
  6
CONTINUOUS
 10
35.0815885242
 20
99.6275178419
 40
1.6679066133
100
AcDbArc
 50
182.0358331354
 51
182.7954922648
  0
CIRCLE
  5
350
100
AcDbEntity
  8
0
100
AcDbCircle
 62
7
  6
CONTINUOUS
 10
40.1303973258
 20
98.0459185454
 40
1.4
  0
ARC
  5
351
100
AcDbEntity
  8
0
100
AcDbCircle
 62
7
  6
CONTINUOUS
 10
43.8303973258
 20
98.0459185454
 40
1.4
100
AcDbArc
 50
90.009608223
 51
269.999339352
  0
ARC
  5
352
100
AcDbEntity
  8
0
100
AcDbCircle
 62
7
  6
CONTINUOUS
 10
33.4303973258
 20
98.0459185454
 40
1.4
100
AcDbArc
 50
90.0075836617
 51
269.9993673713
  0
ARC
  5
353
100
AcDbEntity
  8
0
100
AcDbCircle
 62
7
  6
CONTINUOUS
 10
36.4303973258
 20
98.0459185454
 40
1.4
100
AcDbArc
 50
270.0106818576
 51
89.9854782789
  0
CIRCLE
  5
354
100
AcDbEntity
  8
0
100
AcDbCircle
 62
7
  6
CONTINUOUS
 10
43.8303973258
 20
98.0459185454
 40
0.95
  0
CIRCLE
  5
355
100
AcDbEntity
  8
0
100
AcDbCircle
 62
7
  6
CONTINUOUS
 10
33.4303973258
 20
98.0459185454
 40
0.95
  0
CIRCLE
  5
356
100
AcDbEntity
  8
0
100
AcDbCircle
 62
7
  6
CONTINUOUS
 10
36.4303973258
 20
98.0459185454
 40
0.95
  0
CIRCLE
  5
357
100
AcDbEntity
  8
0
100
AcDbCircle
 62
7
  6
CONTINUOUS
 10
40.1303973258
 20
98.0459185454
 40
0.9499850593
  0
ARC
  5
358
100
AcDbEntity
  8
0
100
AcDbCircle
 62
7
  6
CONTINUOUS
 10
33.2053973258
 20
77.4959185454
 40
0.9
100
AcDbArc
 50
90.0
 51
270.0
  0
ARC
  5
359
100
AcDbEntity
  8
0
100
AcDbCircle
 62
7
  6
CONTINUOUS
 10
31.7048939508
 20
100.7091000786
 40
0.8697823082
100
AcDbArc
 50
91.9487080616
 51
96.853525203
  0
ARC
  5
35A
100
AcDbEntity
  8
0
100
AcDbCircle
 62
7
  6
CONTINUOUS
 10
31.7053973258
 20
101.2959185454
 40
0.5
100
AcDbArc
 50
90.0052064614
 51
180.0
  0
ARC
  5
35B
100
AcDbEntity
  8
0
100
AcDbCircle
 62
7
  6
CONTINUOUS
 10
31.7053973258
 20
90.0459185454
 40
0.5
100
AcDbArc
 50
90.0
 51
179.9954930403
  0
ARC
  5
35C
100
AcDbEntity
  8
0
100
AcDbCircle
 62
7
  6
CONTINUOUS
 10
31.7053973258
 20
78.7959185454
 40
0.5
100
AcDbArc
 50
90.0
 51
180.0
  0
ARC
  5
35D
100
AcDbEntity
  8
0
100
AcDbCircle
 62
7
  6
CONTINUOUS
 10
31.7025867981
 20
74.8771879056
 40
0.4971894851
100
AcDbArc
 50
179.9869847313
 51
213.4674781028
  0
ARC
  5
35E
100
AcDbEntity
  8
0
100
AcDbCircle
 62
7
  6
CONTINUOUS
 10
127.6963536914
 20
-25.8551454855
 40
102.6564326013
100
AcDbArc
 50
146.1599422654
 51
146.3196963314
  0
ARC
  5
35F
100
AcDbEntity
  8
0
100
AcDbCircle
 62
7
  6
CONTINUOUS
 10
106.3620414218
 20
29.4436939239
 40
86.516354257
100
AcDbArc
 50
132.024729287
 51
132.1896352052
  0
ARC
  5
360
100
AcDbEntity
  8
0
100
AcDbCircle
 62
7
  6
CONTINUOUS
 10
44.554443023
 20
25.2160205282
 40
2.2929638303
100
AcDbArc
 50
359.9974578739
 51
1.4562217399
  0
ARC
  5
361
100
AcDbEntity
  8
0
100
AcDbCircle
 62
7
  6
CONTINUOUS
 10
44.8732565077
 20
25.2231547659
 40
1.9740662009
100
AcDbArc
 50
1.4843830313
 51
2.0442075642
  0
ARC
  5
362
100
AcDbEntity
  8
0
100
AcDbCircle
 62
7
  6
CONTINUOUS
 10
46.8321559301
 20
26.8170451154
 40
1.4009059897
100
AcDbArc
 50
180.048660848
 51
269.9729507662
  0
ARC
  5
363
100
AcDbEntity
  8
0
100
AcDbCircle
 62
7
  6
CONTINUOUS
 10
46.8318608702
 20
26.8150113508
 40
1.4006047975
100
AcDbArc
 50
89.949951886
 51
179.965473615
  0
ARC
  5
364
100
AcDbEntity
  8
0
100
AcDbCircle
 62
7
  6
CONTINUOUS
 10
46.8303973258
 20
26.8159185454
 40
1.4
100
AcDbArc
 50
270.0093479422
 51
89.998731715
  0
CIRCLE
  5
365
100
AcDbEntity
  8
0
100
AcDbCircle
 62
7
  6
CONTINUOUS
 10
46.8303973258
 20
26.8159185454
 40
0.95
  0
ARC
  5
366
100
AcDbEntity
  8
0
100
AcDbCircle
 62
7
  6
CONTINUOUS
 10
48.5559006532
 20
24.1527376375
 40
0.8697829314
100
AcDbArc
 50
271.9487098146
 51
276.8535234318
  0
ARC
  5
367
100
AcDbEntity
  8
0
100
AcDbCircle
 62
7
  6
CONTINUOUS
 10
48.5553973258
 20
23.5659185454
 40
0.5
100
AcDbArc
 50
270.0053039251
 51
360.0
  0
ARC
  5
368
100
AcDbEntity
  8
0
100
AcDbCircle
 62
7
  6
CONTINUOUS
 10
48.4903973258
 20
34.9959185454
 40
0.5
100
AcDbArc
 50
270.0
 51
360.0
  0
ARC
  5
369
100
AcDbEntity
  8
0
100
AcDbCircle
 62
7
  6
CONTINUOUS
 10
48.6053973258
 20
34.7959185454
 40
0.5
100
AcDbArc
 50
270.0
 51
360.0
  0
ARC
  5
36A
100
AcDbEntity
  8
0
100
AcDbCircle
 62
7
  6
CONTINUOUS
 10
48.6053973258
 20
12.2959185454
 40
0.5
100
AcDbArc
 50
270.0
 51
359.9954930403
  0
ARC
  5
36B
100
AcDbEntity
  8
0
100
AcDbCircle
 62
7
  6
CONTINUOUS
 10
44.7126992661
 20
99.6480164576
 40
2.1347157939
100
AcDbArc
 50
359.9436847319
 51
2.0961034429
  0
ARC
  5
36C
100
AcDbEntity
  8
0
100
AcDbCircle
 62
7
  6
CONTINUOUS
 10
46.8318829957
 20
98.0449822339
 40
1.4006353344
100
AcDbArc
 50
89.9284540214
 51
179.9646304492
  0
ARC
  5
36D
100
AcDbEntity
  8
0
100
AcDbCircle
 62
7
  6
CONTINUOUS
 10
46.8303973258
 20
98.0459185454
 40
1.4
100
AcDbArc
 50
270.0104463386
 51
89.9903865998
  0
CIRCLE
  5
36E
100
AcDbEntity
  8
0
100
AcDbCircle
 62
7
  6
CONTINUOUS
 10
46.8303973258
 20
98.0459185454
 40
0.95
  0
ARC
  5
36F
100
AcDbEntity
  8
0
100
AcDbCircle
 62
7
  6
CONTINUOUS
 10
47.1053973258
 20
77.4959185454
 40
0.9
100
AcDbArc
 50
270.0
 51
90.0
  0
ARC
  5
370
100
AcDbEntity
  8
0
100
AcDbCircle
 62
7
  6
CONTINUOUS
 10
48.5553973258
 20
101.2959185454
 40
0.5
100
AcDbArc
 50
0.003381906
 51
90.0
  0
ARC
  5
371
100
AcDbEntity
  8
0
100
AcDbCircle
 62
7
  6
CONTINUOUS
 10
48.6053973258
 20
90.0459185454
 40
0.5
100
AcDbArc
 50
0.0043571184
 51
90.0
  0
ARC
  5
372
100
AcDbEntity
  8
0
100
AcDbCircle
 62
7
  6
CONTINUOUS
 10
48.6053973258
 20
78.7959185454
 40
0.5
100
AcDbArc
 50
359.9999719457
 51
90.0
  0
ARC
  5
373
100
AcDbEntity
  8
0
100
AcDbCircle
 62
7
  6
CONTINUOUS
 10
48.6053973258
 20
101.2959185454
 40
0.5
100
AcDbArc
 50
0.0
 51
90.0
  0
ARC
  5
374
100
AcDbEntity
  8
0
100
AcDbCircle
 62
7
  6
CONTINUOUS
 10
48.6070633064
 20
74.8774049214
 40
0.4983340302
100
AcDbArc
 50
322.436034556
 51
359.9880340658
  0
SPLINE
  5
375
100
AcDbEntity
  8
0
100
AcDbSpline
 62
7
  6
CONTINUOUS
 70
0
 71
3
 72
15
 73
11
 74
0
 42
0.0000001
 43
0.0000001
 44
0.0000000001
 40
0.0
 40
0.0
 40
0.0
 40
0.0
 40
0.1221799933
 40
0.2448528573
 40
0.3682131422
 40
0.4926001726
 40
0.6180908806
 40
0.744608689
 40
0.872067118
 40
1.0
 40
1.0
 40
1.0
 40
1.0
 10
39.5303973258
 20
98.6330413237
 30
0.0
 10
39.5303973258
 20
98.6212719391
 30
0.0
 10
39.5280835402
 20
98.5976228471
 30
0.0
 10
39.5178322393
 20
98.5634466182
 30
0.0
 10
39.5011301312
 20
98.5316664503
 30
0.0
 10
39.4785886874
 20
98.5033865417
 30
0.0
 10
39.4509744651
 20
98.4795746885
 30
0.0
 10
39.4192453577
 20
98.4610199242
 30
0.0
 10
39.3844992361
 20
98.4483735144
 30
0.0
 10
39.3601093924
 20
98.444146832
 30
0.0
 10
39.3478284744
 20
98.4431226525
 30
0.0
  0
SPLINE
  5
376
100
AcDbEntity
  8
0
100
AcDbSpline
 62
7
  6
CONTINUOUS
 70
0
 71
3
 72
15
 73
11
 74
0
 42
0.0000001
 43
0.0000001
 44
0.0000000001
 40
0.0
 40
0.0
 40
0.0
 40
0.0
 40
0.1279328522
 40
0.2553912288
 40
0.381909022
 40
0.5073997256
 40
0.6317867622
 40
0.7551470632
 40
0.8778199779
 40
1.0
 40
1.0
 40
1.0
 40
1.0
 10
40.9129661773
 20
98.4431226525
 30
0.0
 10
40.9006852621
 20
98.4441468318
 30
0.0
 10
40.8762954256
 20
98.4483735094
 30
0.0
 10
40.8415493131
 20
98.4610199164
 30
0.0
 10
40.8098202093
 20
98.4795746727
 30
0.0
 10
40.7822059844
 20
98.5033865208
 30
0.0
 10
40.7596645351
 20
98.5316664272
 30
0.0
 10
40.742962419
 20
98.5634465992
 30
0.0
 10
40.7327111158
 20
98.5976228371
 30
0.0
 10
40.7303973258
 20
98.6212719363
 30
0.0
 10
40.7303973258
 20
98.6330413237
 30
0.0
  0
SPLINE
  5
377
100
AcDbEntity
  8
0
100
AcDbSpline
 62
7
  6
CONTINUOUS
 70
0
 71
3
 72
15
 73
11
 74
0
 42
0.0000001
 43
0.0000001
 44
0.0000000001
 40
0.0
 40
0.0
 40
0.0
 40
0.0
 40
0.1221799933
 40
0.2448528573
 40
0.3682131422
 40
0.4926001726
 40
0.6180908805
 40
0.744608689
 40
0.8720671179
 40
1.0
 40
1.0
 40
1.0
 40
1.0
 10
32.855397325
 20
98.6330413268
 30
0.0
 10
32.855397325
 20
98.6212719423
 30
0.0
 10
32.8530835393
 20
98.5976228503
 30
0.0
 10
32.8428322384
 20
98.5634466213
 30
0.0
 10
32.8261301303
 20
98.5316664535
 30
0.0
 10
32.8035886865
 20
98.5033865449
 30
0.0
 10
32.7759744643
 20
98.4795746917
 30
0.0
 10
32.7442453568
 20
98.4610199274
 30
0.0
 10
32.7094992353
 20
98.4483735175
 30
0.0
 10
32.6851093916
 20
98.4441468352
 30
0.0
 10
32.6728284735
 20
98.4431226557
 30
0.0
  0
SPLINE
  5
378
100
AcDbEntity
  8
0
100
AcDbSpline
 62
7
  6
CONTINUOUS
 70
0
 71
3
 72
15
 73
11
 74
0
 42
0.0000001
 43
0.0000001
 44
0.0000000001
 40
0.0
 40
0.0
 40
0.0
 40
0.0
 40
0.1279328522
 40
0.2553912288
 40
0.381909022
 40
0.5073997257
 40
0.6317867622
 40
0.7551470632
 40
0.8778199779
 40
1.0
 40
1.0
 40
1.0
 40
1.0
 10
34.2379661764
 20
98.4431226557
 30
0.0
 10
34.2256852613
 20
98.4441468349
 30
0.0
 10
34.2012954248
 20
98.4483735125
 30
0.0
 10
34.1665493122
 20
98.4610199196
 30
0.0
 10
34.1348202085
 20
98.4795746759
 30
0.0
 10
34.1072059835
 20
98.503386524
 30
0.0
 10
34.0846645342
 20
98.5316664303
 30
0.0
 10
34.0679624181
 20
98.5634466023
 30
0.0
 10
34.057711115
 20
98.5976228402
 30
0.0
 10
34.055397325
 20
98.6212719395
 30
0.0
 10
34.055397325
 20
98.6330413268
 30
0.0
  0
SPLINE
  5
379
100
AcDbEntity
  8
0
100
AcDbSpline
 62
7
  6
CONTINUOUS
 70
0
 71
3
 72
15
 73
11
 74
0
 42
0.0000001
 43
0.0000001
 44
0.0000000001
 40
0.0
 40
0.0
 40
0.0
 40
0.0
 40
0.1221799933
 40
0.2448528573
 40
0.3682131422
 40
0.4926001726
 40
0.6180908805
 40
0.744608689
 40
0.8720671179
 40
1.0
 40
1.0
 40
1.0
 40
1.0
 10
35.805397325
 20
98.6330413268
 30
0.0
 10
35.805397325
 20
98.6212719423
 30
0.0
 10
35.8030835393
 20
98.5976228503
 30
0.0
 10
35.7928322384
 20
98.5634466213
 30
0.0
 10
35.7761301303
 20
98.5316664535
 30
0.0
 10
35.7535886865
 20
98.5033865449
 30
0.0
 10
35.7259744643
 20
98.4795746917
 30
0.0
 10
35.6942453568
 20
98.4610199274
 30
0.0
 10
35.6594992353
 20
98.4483735175
 30
0.0
 10
35.6351093916
 20
98.4441468352
 30
0.0
 10
35.6228284735
 20
98.4431226557
 30
0.0
  0
SPLINE
  5
37A
100
AcDbEntity
  8
0
100
AcDbSpline
 62
7
  6
CONTINUOUS
 70
0
 71
3
 72
15
 73
11
 74
0
 42
0.0000001
 43
0.0000001
 44
0.0000000001
 40
0.0
 40
0.0
 40
0.0
 40
0.0
 40
0.1279328522
 40
0.2553912288
 40
0.381909022
 40
0.5073997257
 40
0.6317867622
 40
0.7551470632
 40
0.8778199779
 40
1.0
 40
1.0
 40
1.0
 40
1.0
 10
37.1879661764
 20
98.4431226557
 30
0.0
 10
37.1756852613
 20
98.4441468349
 30
0.0
 10
37.1512954248
 20
98.4483735125
 30
0.0
 10
37.1165493122
 20
98.4610199196
 30
0.0
 10
37.0848202085
 20
98.4795746759
 30
0.0
 10
37.0572059835
 20
98.503386524
 30
0.0
 10
37.0346645342
 20
98.5316664303
 30
0.0
 10
37.0179624181
 20
98.5634466023
 30
0.0
 10
37.007711115
 20
98.5976228402
 30
0.0
 10
37.005397325
 20
98.6212719395
 30
0.0
 10
37.005397325
 20
98.6330413268
 30
0.0
  0
SPLINE
  5
37B
100
AcDbEntity
  8
0
100
AcDbSpline
 62
7
  6
CONTINUOUS
 70
0
 71
3
 72
15
 73
11
 74
0
 42
0.0000001
 43
0.0000001
 44
0.0000000001
 40
0.0
 40
0.0
 40
0.0
 40
0.0
 40
0.1221799933
 40
0.2448528573
 40
0.3682131422
 40
0.4926001726
 40
0.6180908805
 40
0.744608689
 40
0.8720671179
 40
1.0
 40
1.0
 40
1.0
 40
1.0
 10
46.205397325
 20
98.6330413268
 30
0.0
 10
46.205397325
 20
98.6212719423
 30
0.0
 10
46.2030835393
 20
98.5976228503
 30
0.0
 10
46.1928322384
 20
98.5634466213
 30
0.0
 10
46.1761301303
 20
98.5316664535
 30
0.0
 10
46.1535886865
 20
98.5033865449
 30
0.0
 10
46.1259744643
 20
98.4795746917
 30
0.0
 10
46.0942453568
 20
98.4610199274
 30
0.0
 10
46.0594992353
 20
98.4483735175
 30
0.0
 10
46.0351093916
 20
98.4441468352
 30
0.0
 10
46.0228284735
 20
98.4431226557
 30
0.0
  0
SPLINE
  5
37C
100
AcDbEntity
  8
0
100
AcDbSpline
 62
7
  6
CONTINUOUS
 70
0
 71
3
 72
15
 73
11
 74
0
 42
0.0000001
 43
0.0000001
 44
0.0000000001
 40
0.0
 40
0.0
 40
0.0
 40
0.0
 40
0.1279328522
 40
0.2553912288
 40
0.381909022
 40
0.5073997257
 40
0.6317867622
 40
0.7551470632
 40
0.8778199779
 40
1.0
 40
1.0
 40
1.0
 40
1.0
 10
47.5879661764
 20
98.4431226557
 30
0.0
 10
47.5756852613
 20
98.4441468349
 30
0.0
 10
47.5512954248
 20
98.4483735125
 30
0.0
 10
47.5165493122
 20
98.4610199196
 30
0.0
 10
47.4848202085
 20
98.4795746759
 30
0.0
 10
47.4572059835
 20
98.503386524
 30
0.0
 10
47.4346645342
 20
98.5316664303
 30
0.0
 10
47.4179624181
 20
98.5634466023
 30
0.0
 10
47.407711115
 20
98.5976228402
 30
0.0
 10
47.405397325
 20
98.6212719395
 30
0.0
 10
47.405397325
 20
98.6330413268
 30
0.0
  0
SPLINE
  5
37D
100
AcDbEntity
  8
0
100
AcDbSpline
 62
7
  6
CONTINUOUS
 70
0
 71
3
 72
15
 73
11
 74
0
 42
0.0000001
 43
0.0000001
 44
0.0000000001
 40
0.0
 40
0.0
 40
0.0
 40
0.0
 40
0.1221799933
 40
0.2448528573
 40
0.3682131422
 40
0.4926001726
 40
0.6180908805
 40
0.744608689
 40
0.8720671179
 40
1.0
 40
1.0
 40
1.0
 40
1.0
 10
43.255397325
 20
98.6330413268
 30
0.0
 10
43.255397325
 20
98.6212719423
 30
0.0
 10
43.2530835393
 20
98.5976228503
 30
0.0
 10
43.2428322384
 20
98.5634466213
 30
0.0
 10
43.2261301303
 20
98.5316664535
 30
0.0
 10
43.2035886865
 20
98.5033865449
 30
0.0
 10
43.1759744643
 20
98.4795746917
 30
0.0
 10
43.1442453568
 20
98.4610199274
 30
0.0
 10
43.1094992353
 20
98.4483735175
 30
0.0
 10
43.0851093916
 20
98.4441468352
 30
0.0
 10
43.0728284735
 20
98.4431226557
 30
0.0
  0
SPLINE
  5
37E
100
AcDbEntity
  8
0
100
AcDbSpline
 62
7
  6
CONTINUOUS
 70
0
 71
3
 72
15
 73
11
 74
0
 42
0.0000001
 43
0.0000001
 44
0.0000000001
 40
0.0
 40
0.0
 40
0.0
 40
0.0
 40
0.1279328522
 40
0.2553912288
 40
0.381909022
 40
0.5073997257
 40
0.6317867622
 40
0.7551470632
 40
0.8778199779
 40
1.0
 40
1.0
 40
1.0
 40
1.0
 10
44.6379661764
 20
98.4431226557
 30
0.0
 10
44.6256852613
 20
98.4441468349
 30
0.0
 10
44.6012954248
 20
98.4483735125
 30
0.0
 10
44.5665493122
 20
98.4610199196
 30
0.0
 10
44.5348202085
 20
98.4795746759
 30
0.0
 10
44.5072059835
 20
98.503386524
 30
0.0
 10
44.4846645342
 20
98.5316664303
 30
0.0
 10
44.4679624181
 20
98.5634466023
 30
0.0
 10
44.457711115
 20
98.5976228402
 30
0.0
 10
44.455397325
 20
98.6212719395
 30
0.0
 10
44.455397325
 20
98.6330413268
 30
0.0
  0
SPLINE
  5
37F
100
AcDbEntity
  8
0
100
AcDbSpline
 62
7
  6
CONTINUOUS
 70
0
 71
3
 72
15
 73
11
 74
0
 42
0.0000001
 43
0.0000001
 44
0.0000000001
 40
0.0
 40
0.0
 40
0.0
 40
0.0
 40
0.1221799933
 40
0.2448528573
 40
0.3682131422
 40
0.4926001726
 40
0.6180908805
 40
0.744608689
 40
0.8720671179
 40
1.0
 40
1.0
 40
1.0
 40
1.0
 10
47.4053973258
 20
26.228795764
 30
0.0
 10
47.4053973258
 20
26.2405651486
 30
0.0
 10
47.4077111115
 20
26.2642142406
 30
0.0
 10
47.4179624124
 20
26.2983904695
 30
0.0
 10
47.4346645205
 20
26.3301706374
 30
0.0
 10
47.4572059642
 20
26.358450546
 30
0.0
 10
47.4848201865
 20
26.3822623992
 30
0.0
 10
47.516549294
 20
26.4008171635
 30
0.0
 10
47.5512954155
 20
26.4134635733
 30
0.0
 10
47.5756852592
 20
26.4176902557
 30
0.0
 10
47.5879661773
 20
26.4187144351
 30
0.0
  0
SPLINE
  5
380
100
AcDbEntity
  8
0
100
AcDbSpline
 62
7
  6
CONTINUOUS
 70
0
 71
3
 72
15
 73
11
 74
0
 42
0.0000001
 43
0.0000001
 44
0.0000000001
 40
0.0
 40
0.0
 40
0.0
 40
0.0
 40
0.1279328522
 40
0.2553912288
 40
0.381909022
 40
0.5073997257
 40
0.6317867622
 40
0.7551470632
 40
0.8778199779
 40
1.0
 40
1.0
 40
1.0
 40
1.0
 10
46.0228284744
 20
26.4187144351
 30
0.0
 10
46.0351093895
 20
26.4176902559
 30
0.0
 10
46.059499226
 20
26.4134635783
 30
0.0
 10
46.0942453386
 20
26.4008171713
 30
0.0
 10
46.1259744423
 20
26.3822624149
 30
0.0
 10
46.1535886673
 20
26.3584505669
 30
0.0
 10
46.1761301165
 20
26.3301706605
 30
0.0
 10
46.1928322327
 20
26.2983904885
 30
0.0
 10
46.2030835358
 20
26.2642142507
 30
0.0
 10
46.2053973258
 20
26.2405651514
 30
0.0
 10
46.2053973258
 20
26.228795764
 30
0.0
  0
SPLINE
  5
381
100
AcDbEntity
  8
0
100
AcDbSpline
 62
7
  6
CONTINUOUS
 70
0
 71
3
 72
15
 73
11
 74
0
 42
0.0000001
 43
0.0000001
 44
0.0000000001
 40
0.0
 40
0.0
 40
0.0
 40
0.0
 40
0.1221799933
 40
0.2448528573
 40
0.3682131422
 40
0.4926001726
 40
0.6180908805
 40
0.744608689
 40
0.8720671179
 40
1.0
 40
1.0
 40
1.0
 40
1.0
 10
37.0053973267
 20
26.228795764
 30
0.0
 10
37.0053973267
 20
26.2405651486
 30
0.0
 10
37.0077111123
 20
26.2642142406
 30
0.0
 10
37.0179624132
 20
26.2983904695
 30
0.0
 10
37.0346645213
 20
26.3301706374
 30
0.0
 10
37.0572059651
 20
26.358450546
 30
0.0
 10
37.0848201873
 20
26.3822623992
 30
0.0
 10
37.1165492948
 20
26.4008171635
 30
0.0
 10
37.1512954164
 20
26.4134635733
 30
0.0
 10
37.1756852601
 20
26.4176902557
 30
0.0
 10
37.1879661781
 20
26.4187144351
 30
0.0
  0
SPLINE
  5
382
100
AcDbEntity
  8
0
100
AcDbSpline
 62
7
  6
CONTINUOUS
 70
0
 71
3
 72
15
 73
11
 74
0
 42
0.0000001
 43
0.0000001
 44
0.0000000001
 40
0.0
 40
0.0
 40
0.0
 40
0.0
 40
0.1279328522
 40
0.2553912288
 40
0.381909022
 40
0.5073997257
 40
0.6317867622
 40
0.7551470632
 40
0.8778199779
 40
1.0
 40
1.0
 40
1.0
 40
1.0
 10
35.6228284752
 20
26.4187144351
 30
0.0
 10
35.6351093904
 20
26.4176902559
 30
0.0
 10
35.6594992268
 20
26.4134635783
 30
0.0
 10
35.6942453394
 20
26.4008171713
 30
0.0
 10
35.7259744431
 20
26.3822624149
 30
0.0
 10
35.7535886681
 20
26.3584505669
 30
0.0
 10
35.7761301174
 20
26.3301706605
 30
0.0
 10
35.7928322335
 20
26.2983904885
 30
0.0
 10
35.8030835367
 20
26.2642142507
 30
0.0
 10
35.8053973267
 20
26.2405651514
 30
0.0
 10
35.8053973267
 20
26.228795764
 30
0.0
  0
SPLINE
  5
383
100
AcDbEntity
  8
0
100
AcDbSpline
 62
7
  6
CONTINUOUS
 70
0
 71
3
 72
15
 73
11
 74
0
 42
0.0000001
 43
0.0000001
 44
0.0000000001
 40
0.0
 40
0.0
 40
0.0
 40
0.0
 40
0.1221799933
 40
0.2448528573
 40
0.3682131422
 40
0.4926001726
 40
0.6180908805
 40
0.744608689
 40
0.8720671179
 40
1.0
 40
1.0
 40
1.0
 40
1.0
 10
44.4553973258
 20
26.228795764
 30
0.0
 10
44.4553973258
 20
26.2405651486
 30
0.0
 10
44.4577111115
 20
26.2642142406
 30
0.0
 10
44.4679624124
 20
26.2983904695
 30
0.0
 10
44.4846645205
 20
26.3301706374
 30
0.0
 10
44.5072059642
 20
26.358450546
 30
0.0
 10
44.5348201865
 20
26.3822623992
 30
0.0
 10
44.566549294
 20
26.4008171635
 30
0.0
 10
44.6012954155
 20
26.4134635733
 30
0.0
 10
44.6256852592
 20
26.4176902557
 30
0.0
 10
44.6379661773
 20
26.4187144351
 30
0.0
  0
SPLINE
  5
384
100
AcDbEntity
  8
0
100
AcDbSpline
 62
7
  6
CONTINUOUS
 70
0
 71
3
 72
15
 73
11
 74
0
 42
0.0000001
 43
0.0000001
 44
0.0000000001
 40
0.0
 40
0.0
 40
0.0
 40
0.0
 40
0.1279328522
 40
0.2553912288
 40
0.381909022
 40
0.5073997257
 40
0.6317867622
 40
0.7551470632
 40
0.8778199779
 40
1.0
 40
1.0
 40
1.0
 40
1.0
 10
43.0728284744
 20
26.4187144351
 30
0.0
 10
43.0851093895
 20
26.4176902559
 30
0.0
 10
43.109499226
 20
26.4134635783
 30
0.0
 10
43.1442453386
 20
26.4008171713
 30
0.0
 10
43.1759744423
 20
26.3822624149
 30
0.0
 10
43.2035886673
 20
26.3584505669
 30
0.0
 10
43.2261301165
 20
26.3301706605
 30
0.0
 10
43.2428322327
 20
26.2983904885
 30
0.0
 10
43.2530835358
 20
26.2642142507
 30
0.0
 10
43.2553973258
 20
26.2405651514
 30
0.0
 10
43.2553973258
 20
26.228795764
 30
0.0
  0
SPLINE
  5
385
100
AcDbEntity
  8
0
100
AcDbSpline
 62
7
  6
CONTINUOUS
 70
0
 71
3
 72
15
 73
11
 74
0
 42
0.0000001
 43
0.0000001
 44
0.0000000001
 40
0.0
 40
0.0
 40
0.0
 40
0.0
 40
0.1221799933
 40
0.2448528573
 40
0.3682131422
 40
0.4926001726
 40
0.6180908805
 40
0.744608689
 40
0.8720671179
 40
1.0
 40
1.0
 40
1.0
 40
1.0
 10
34.0553973267
 20
26.228795764
 30
0.0
 10
34.0553973267
 20
26.2405651486
 30
0.0
 10
34.0577111123
 20
26.2642142406
 30
0.0
 10
34.0679624132
 20
26.2983904695
 30
0.0
 10
34.0846645213
 20
26.3301706374
 30
0.0
 10
34.1072059651
 20
26.358450546
 30
0.0
 10
34.1348201873
 20
26.3822623992
 30
0.0
 10
34.1665492948
 20
26.4008171635
 30
0.0
 10
34.2012954164
 20
26.4134635733
 30
0.0
 10
34.2256852601
 20
26.4176902557
 30
0.0
 10
34.2379661781
 20
26.4187144351
 30
0.0
  0
SPLINE
  5
386
100
AcDbEntity
  8
0
100
AcDbSpline
 62
7
  6
CONTINUOUS
 70
0
 71
3
 72
15
 73
11
 74
0
 42
0.0000001
 43
0.0000001
 44
0.0000000001
 40
0.0
 40
0.0
 40
0.0
 40
0.0
 40
0.1279328522
 40
0.2553912288
 40
0.381909022
 40
0.5073997257
 40
0.6317867622
 40
0.7551470632
 40
0.8778199779
 40
1.0
 40
1.0
 40
1.0
 40
1.0
 10
32.6728284752
 20
26.4187144351
 30
0.0
 10
32.6851093904
 20
26.4176902559
 30
0.0
 10
32.7094992268
 20
26.4134635783
 30
0.0
 10
32.7442453394
 20
26.4008171713
 30
0.0
 10
32.7759744431
 20
26.3822624149
 30
0.0
 10
32.8035886681
 20
26.3584505669
 30
0.0
 10
32.8261301174
 20
26.3301706605
 30
0.0
 10
32.8428322335
 20
26.2983904885
 30
0.0
 10
32.8530835367
 20
26.2642142507
 30
0.0
 10
32.8553973267
 20
26.2405651514
 30
0.0
 10
32.8553973267
 20
26.228795764
 30
0.0
  0
SPLINE
  5
387
100
AcDbEntity
  8
0
100
AcDbSpline
 62
7
  6
CONTINUOUS
 70
0
 71
3
 72
15
 73
11
 74
0
 42
0.0000001
 43
0.0000001
 44
0.0000000001
 40
0.0
 40
0.0
 40
0.0
 40
0.0
 40
0.1221799933
 40
0.2448528573
 40
0.3682131422
 40
0.4926001726
 40
0.6180908805
 40
0.744608689
 40
0.8720671179
 40
1.0
 40
1.0
 40
1.0
 40
1.0
 10
40.7303973258
 20
26.2287957615
 30
0.0
 10
40.7303973258
 20
26.2405651461
 30
0.0
 10
40.7327111115
 20
26.2642142381
 30
0.0
 10
40.7429624124
 20
26.298390467
 30
0.0
 10
40.7596645205
 20
26.3301706349
 30
0.0
 10
40.7822059642
 20
26.3584505435
 30
0.0
 10
40.8098201865
 20
26.3822623967
 30
0.0
 10
40.841549294
 20
26.400817161
 30
0.0
 10
40.8762954155
 20
26.4134635708
 30
0.0
 10
40.9006852592
 20
26.4176902532
 30
0.0
 10
40.9129661773
 20
26.4187144326
 30
0.0
  0
SPLINE
  5
388
100
AcDbEntity
  8
0
100
AcDbSpline
 62
7
  6
CONTINUOUS
 70
0
 71
3
 72
15
 73
11
 74
0
 42
0.0000001
 43
0.0000001
 44
0.0000000001
 40
0.0
 40
0.0
 40
0.0
 40
0.0
 40
0.1279328522
 40
0.2553912288
 40
0.381909022
 40
0.5073997257
 40
0.6317867622
 40
0.7551470632
 40
0.8778199779
 40
1.0
 40
1.0
 40
1.0
 40
1.0
 10
39.3478284744
 20
26.4187144327
 30
0.0
 10
39.3601093895
 20
26.4176902534
 30
0.0
 10
39.384499226
 20
26.4134635758
 30
0.0
 10
39.4192453386
 20
26.4008171688
 30
0.0
 10
39.4509744423
 20
26.3822624125
 30
0.0
 10
39.4785886673
 20
26.3584505644
 30
0.0
 10
39.5011301165
 20
26.330170658
 30
0.0
 10
39.5178322327
 20
26.2983904861
 30
0.0
 10
39.5280835358
 20
26.2642142482
 30
0.0
 10
39.5303973258
 20
26.2405651489
 30
0.0
 10
39.5303973258
 20
26.2287957615
 30
0.0
  0
SPLINE
  5
389
100
AcDbEntity
  8
0
100
AcDbSpline
 62
7
  6
CONTINUOUS
 70
0
 71
3
 72
28
 73
24
 74
0
 42
0.0000001
 43
0.0000001
 44
0.0000000001
 40
0.0
 40
0.0
 40
0.0
 40
0.0
 40
0.0650766407
 40
0.13009178
 40
0.1946372019
 40
0.2266661138
 40
0.258468432
 40
0.2900229108
 40
0.3213250614
 40
0.3831449333
 40
0.4137684937
 40
0.444209929
 40
0.4744864449
 40
0.5046343812
 40
0.5347068199
 40
0.5647410881
 40
0.6247829109
 40
0.6851517615
 40
0.7461674746
 40
0.8081041001
 40
0.871130651
 40
0.9351819275
 40
1.0
 40
1.0
 40
1.0
 40
1.0
 10
43.8452067893
 20
96.5124861191
 30
0.0
 10
43.7358247207
 20
96.5141024701
 30
0.0
 10
43.5165460303
 20
96.5352387897
 30
0.0
 10
43.2026686937
 20
96.6355451888
 30
0.0
 10
42.9638993245
 20
96.769143868
 30
0.0
 10
42.7934663206
 20
96.9020151983
 30
0.0
 10
42.6771587332
 20
97.0127753051
 30
0.0
 10
42.5731448929
 20
97.1335611611
 30
0.0
 10
42.4528056388
 20
97.3054823078
 30
0.0
 10
42.359254639
 20
97.4930264251
 30
0.0
 10
42.2943061952
 20
97.6893518493
 30
0.0
 10
42.2596918885
 20
97.8391841536
 30
0.0
 10
42.2393217209
 20
97.9907972171
 30
0.0
 10
42.2338545326
 20
98.1430697292
 30
0.0
 10
42.2432362902
 20
98.2947399595
 30
0.0
 10
42.2746167177
 20
98.4945038886
 30
0.0
 10
42.3485559655
 20
98.737967914
 30
0.0
 10
42.4901666754
 20
99.0101280818
 30
0.0
 10
42.6838872985
 20
99.2522400951
 30
0.0
 10
42.9232358399
 20
99.4564232469
 30
0.0
 10
43.2031989443
 20
99.6112068099
 30
0.0
 10
43.5125793437
 20
99.7094456435
 30
0.0
 10
43.7299483568
 20
99.7318736859
 30
0.0
 10
43.8389069109
 20
99.7314555136
 30
0.0
  0
SPLINE
  5
38A
100
AcDbEntity
  8
0
100
AcDbSpline
 62
7
  6
CONTINUOUS
 70
0
 71
3
 72
16
 73
12
 74
0
 42
0.0000001
 43
0.0000001
 44
0.0000000001
 40
0.0
 40
0.0
 40
0.0
 40
0.0
 40
0.0542789158
 40
0.0870307772
 40
0.1250872534
 40
0.2191413536
 40
0.3376100817
 40
0.478782091
 40
0.6393620527
 40
0.8151020473
 40
1.0
 40
1.0
 40
1.0
 40
1.0
 10
45.630397245
 20
93.7046348177
 30
0.0
 10
45.6303875588
 20
93.707205076
 30
0.0
 10
45.6287790395
 20
93.7113300992
 30
0.0
 10
45.6248391416
 20
93.7157565137
 30
0.0
 10
45.6187061554
 20
93.7206520685
 30
0.0
 10
45.6080294696
 20
93.7260355314
 30
0.0
 10
45.5921298318
 20
93.7313782142
 30
0.0
 10
45.5726921497
 20
93.7357725613
 30
0.0
 10
45.5503115196
 20
93.7390967292
 30
0.0
 10
45.5257062811
 20
93.7411968215
 30
0.0
 10
45.5086297047
 20
93.7417558839
 30
0.0
 10
45.4998744894
 20
93.7418260812
 30
0.0
  0
SPLINE
  5
38B
100
AcDbEntity
  8
0
100
AcDbSpline
 62
7
  6
CONTINUOUS
 70
0
 71
3
 72
42
 73
38
 74
0
 42
0.0000001
 43
0.0000001
 44
0.0000000001
 40
0.0
 40
0.0
 40
0.0
 40
0.0
 40
0.0636943035
 40
0.0953184263
 40
0.1267218889
 40
0.157938505
 40
0.189026429
 40
0.2199635207
 40
0.235352203
 40
0.2506858237
 40
0.2812809431
 40
0.2965879405
 40
0.3118942342
 40
0.3424187075
 40
0.3576268461
 40
0.372817592
 40
0.403241025
 40
0.4184940595
 40
0.4337509317
 40
0.4642383054
 40
0.4947457154
 40
0.5253521345
 40
0.5560569524
 40
0.5868656557
 40
0.617815434
 40
0.6489099001
 40
0.6801349019
 40
0.711512468
 40
0.7430687504
 40
0.8066039006
 40
0.8386559944
 40
0.8708416829
 40
0.9030903705
 40
0.9353946826
 40
0.9515844532
 40
0.9677810579
 40
1.0
 40
1.0
 40
1.0
 40
1.0
 10
33.4066566516
 20
96.506788709
 30
0.0
 10
33.2994908249
 20
96.5052404989
 30
0.0
 10
33.1383811764
 20
96.522365204
 30
0.0
 10
32.9315889753
 20
96.5749995072
 30
0.0
 10
32.7822243806
 20
96.6291753405
 30
0.0
 10
32.6399233257
 20
96.6976673083
 30
0.0
 10
32.5053308551
 20
96.7786795303
 30
0.0
 10
32.3999662427
 20
96.8556586238
 30
0.0
 10
32.3213924099
 20
96.9234971383
 30
0.0
 10
32.2474462795
 20
96.9955385314
 30
0.0
 10
32.1801458695
 20
97.0738443713
 30
0.0
 10
32.1180831131
 20
97.1560516686
 30
0.0
 10
32.0588193351
 20
97.240150641
 30
0.0
 10
32.0038144422
 20
97.3270622736
 30
0.0
 10
31.955877358
 20
97.4177418012
 30
0.0
 10
31.9137437465
 20
97.5110814747
 30
0.0
 10
31.8805908903
 20
97.6082625754
 30
0.0
 10
31.8546599901
 20
97.7074779814
 30
0.0
 10
31.8328843804
 20
97.8078066368
 30
0.0
 10
31.8132362136
 20
97.9347626036
 30
0.0
 10
31.8032208148
 20
98.0887910654
 30
0.0
 10
31.8079527975
 20
98.2434619641
 30
0.0
 10
31.8279041242
 20
98.3974486078
 30
0.0
 10
31.863818553
 20
98.5491184294
 30
0.0
 10
31.9149233106
 20
98.6970194213
 30
0.0
 10
31.9797441753
 20
98.8401861329
 30
0.0
 10
32.0577241448
 20
98.9774740648
 30
0.0
 10
32.1490519326
 20
99.1072760048
 30
0.0
 10
32.2882554561
 20
99.2685859813
 30
0.0
 10
32.451858757
 20
99.4090679505
 30
0.0
 10
32.6342905305
 20
99.5233487613
 30
0.0
 10
32.7800523806
 20
99.5955144377
 30
0.0
 10
32.9327479667
 20
99.6527031355
 30
0.0
 10
33.064332733
 20
99.6874269653
 30
0.0
 10
33.1712862647
 20
99.7078764366
 30
0.0
 10
33.2788851951
 20
99.7234089604
 30
0.0
 10
33.3606148082
 20
99.7278771587
 30
0.0
 10
33.4147995066
 20
99.7260916661
 30
0.0
  0
SPLINE
  5
38C
100
AcDbEntity
  8
0
100
AcDbSpline
 62
7
  6
CONTINUOUS
 70
0
 71
3
 72
38
 73
34
 74
0
 42
0.0000001
 43
0.0000001
 44
0.0000000001
 40
0.0
 40
0.0
 40
0.0
 40
0.0
 40
0.0162463598
 40
0.0324953822
 40
0.0487262707
 40
0.0648937847
 40
0.0809932937
 40
0.0970305753
 40
0.1289403194
 40
0.1606334507
 40
0.192049153
 40
0.223162795
 40
0.2540076669
 40
0.2846364658
 40
0.3150647319
 40
0.3754065676
 40
0.4054652773
 40
0.4354708634
 40
0.4654838671
 40
0.4805136067
 40
0.4955604744
 40
0.5256972608
 40
0.5559385855
 40
0.5863616775
 40
0.6169967434
 40
0.6478296734
 40
0.6788671307
 40
0.7416270093
 40
0.7734225283
 40
0.8054376022
 40
0.8699563027
 40
0.9349410229
 40
1.0
 40
1.0
 40
1.0
 40
1.0
 10
36.4219121076
 20
99.7314523387
 30
0.0
 10
36.4491948487
 20
99.7326944442
 30
0.0
 10
36.5039134946
 20
99.7323935935
 30
0.0
 10
36.5855789833
 20
99.7253775209
 30
0.0
 10
36.6665666452
 20
99.7138149504
 30
0.0
 10
36.7467464721
 20
99.6989164753
 30
0.0
 10
36.8258245134
 20
99.680316184
 30
0.0
 10
36.9293184476
 20
99.6504925623
 30
0.0
 10
37.0548825821
 20
99.6033033686
 30
0.0
 10
37.1983317941
 20
99.5325148626
 30
0.0
 10
37.3334064247
 20
99.4493375367
 30
0.0
 10
37.4585461679
 20
99.3541207735
 30
0.0
 10
37.5720778462
 20
99.2472565072
 30
0.0
 10
37.6738201477
 20
99.130675055
 30
0.0
 10
37.7934258087
 20
98.9650573452
 30
0.0
 10
37.8888417822
 20
98.7841071347
 30
0.0
 10
37.9568291266
 20
98.5932016223
 30
0.0
 10
37.9937306885
 20
98.446092913
 30
0.0
 10
38.0128322314
 20
98.321197477
 30
0.0
 10
38.0213820109
 20
98.2205177714
 30
0.0
 10
38.0255134665
 20
98.1193535623
 30
0.0
 10
38.022021366
 20
97.9923983378
 30
0.0
 10
38.0024610912
 20
97.8407440034
 30
0.0
 10
37.967304274
 20
97.6910890409
 30
0.0
 10
37.9181074864
 20
97.5444471247
 30
0.0
 10
37.8556124449
 20
97.4017983095
 30
0.0
 10
37.7535542911
 20
97.2185241305
 30
0.0
 10
37.6230238132
 20
97.0504370507
 30
0.0
 10
37.4689642504
 20
96.903295794
 30
0.0
 10
37.2986894841
 20
96.7702918575
 30
0.0
 10
37.0601852969
 20
96.6365665442
 30
0.0
 10
36.746594711
 20
96.5354583281
 30
0.0
 10
36.527399289
 20
96.514788022
 30
0.0
 10
36.4180552799
 20
96.5125152778
 30
0.0
  0
SPLINE
  5
38D
100
AcDbEntity
  8
0
100
AcDbSpline
 62
7
  6
CONTINUOUS
 70
0
 71
3
 72
16
 73
12
 74
0
 42
0.0000001
 43
0.0000001
 44
0.0000000001
 40
0.0
 40
0.0
 40
0.0
 40
0.0
 40
0.124985056
 40
0.2499651555
 40
0.3125270494
 40
0.3750966388
 40
0.5000772568
 40
0.625057955
 40
0.7500385877
 40
0.8750193613
 40
1.0
 40
1.0
 40
1.0
 40
1.0
 10
43.8302113572
 20
96.6461592753
 30
0.0
 10
43.9216465963
 20
96.6462201601
 30
0.0
 10
44.1049344961
 20
96.6647794931
 30
0.0
 10
44.3251638929
 20
96.7315509015
 30
0.0
 10
44.4907804659
 20
96.8099696622
 30
0.0
 10
44.6479268226
 20
96.9041820614
 30
0.0
 10
44.8259024885
 20
97.0502464356
 30
0.0
 10
45.0009920397
 20
97.2636213917
 30
0.0
 10
45.1311759984
 20
97.5071003973
 30
0.0
 10
45.2113178679
 20
97.7711733637
 30
0.0
 10
45.229543778
 20
97.9545297372
 30
0.0
 10
45.229543778
 20
98.045961765
 30
0.0
  0
SPLINE
  5
38E
100
AcDbEntity
  8
0
100
AcDbSpline
 62
7
  6
CONTINUOUS
 70
0
 71
3
 72
16
 73
12
 74
0
 42
0.0000001
 43
0.0000001
 44
0.0000000001
 40
0.0
 40
0.0
 40
0.0
 40
0.0
 40
0.1249850577
 40
0.2499651587
 40
0.3125270527
 40
0.3750966421
 40
0.5000772616
 40
0.6250579609
 40
0.7500385953
 40
0.8750193687
 40
1.0
 40
1.0
 40
1.0
 40
1.0
 10
33.4302120118
 20
96.6461592755
 30
0.0
 10
33.5216469467
 20
96.6462202039
 30
0.0
 10
33.704934225
 20
96.6647794998
 30
0.0
 10
33.9251629131
 20
96.7315505704
 30
0.0
 10
34.0907790116
 20
96.8099689014
 30
0.0
 10
34.2479249687
 20
96.9041807763
 30
0.0
 10
34.4259002979
 20
97.0502443329
 30
0.0
 10
34.6009897978
 20
97.2636181324
 30
0.0
 10
34.7311740476
 20
97.5070959174
 30
0.0
 10
34.8113167729
 20
97.7711676452
 30
0.0
 10
34.8295431195
 20
97.9545234051
 30
0.0
 10
34.8295431195
 20
98.0459551221
 30
0.0
  0
SPLINE
  5
38F
100
AcDbEntity
  8
0
100
AcDbSpline
 62
7
  6
CONTINUOUS
 70
0
 71
3
 72
15
 73
11
 74
0
 42
0.0000001
 43
0.0000001
 44
0.0000000001
 40
0.0
 40
0.0
 40
0.0
 40
0.0
 40
0.1249998474
 40
0.2499996092
 40
0.3749994289
 40
0.4999992076
 40
0.6249990203
 40
0.7499987565
 40
0.8749988596
 40
1.0
 40
1.0
 40
1.0
 40
1.0
 10
34.8295431195
 20
98.0459551221
 30
0.0
 10
34.8295431195
 20
98.1374293607
 30
0.0
 10
34.8112974314
 20
98.3208713271
 30
0.0
 10
34.7310492954
 20
98.5850491262
 30
0.0
 10
34.6007521661
 20
98.828600714
 30
0.0
 10
34.4254750134
 20
99.0420413091
 30
0.0
 10
34.2119397051
 20
99.2171964968
 30
0.0
 10
33.9683190274
 20
99.3473818579
 30
0.0
 10
33.7040866684
 20
99.4274069668
 30
0.0
 10
33.5206586679
 20
99.4457518504
 30
0.0
 10
33.4291834839
 20
99.4457396561
 30
0.0
  0
SPLINE
  5
390
100
AcDbEntity
  8
0
100
AcDbSpline
 62
7
  6
CONTINUOUS
 70
0
 71
3
 72
15
 73
11
 74
0
 42
0.0000001
 43
0.0000001
 44
0.0000000001
 40
0.0
 40
0.0
 40
0.0
 40
0.0
 40
0.1249998344
 40
0.249999588
 40
0.3749994034
 40
0.4999991762
 40
0.6249989845
 40
0.7499987122
 40
0.874998821
 40
1.0
 40
1.0
 40
1.0
 40
1.0
 10
45.229543778
 20
98.045961765
 30
0.0
 10
45.229543778
 20
98.1374388625
 30
0.0
 10
45.2112948143
 20
98.3208864801
 30
0.0
 10
45.131040238
 20
98.5850713346
 30
0.0
 10
45.0007339935
 20
98.8286279806
 30
0.0
 10
44.825446045
 20
99.0420710215
 30
0.0
 10
44.611898858
 20
99.2172253839
 30
0.0
 10
44.3682661363
 20
99.3474071294
 30
0.0
 10
44.1040221445
 20
99.4274228946
 30
0.0
 10
43.9205880323
 20
99.4457651266
 30
0.0
 10
43.8291099522
 20
99.4457492792
 30
0.0
  0
SPLINE
  5
391
100
AcDbEntity
  8
0
100
AcDbSpline
 62
7
  6
CONTINUOUS
 70
0
 71
3
 72
9
 73
5
 74
0
 42
0.0000001
 43
0.0000001
 44
0.0000000001
 40
0.0
 40
0.0
 40
0.0
 40
0.0
 40
0.2494063074
 40
1.0
 40
1.0
 40
1.0
 40
1.0
 10
33.4054413513
 20
96.5067865931
 30
0.0
 10
33.6557892593
 20
96.5071405833
 30
0.0
 10
34.6595644498
 20
96.5086831594
 30
0.0
 10
35.6633388783
 20
96.5107184696
 30
0.0
 10
36.4167649534
 20
96.5125133952
 30
0.0
  0
SPLINE
  5
392
100
AcDbEntity
  8
0
100
AcDbSpline
 62
7
  6
CONTINUOUS
 70
0
 71
3
 72
15
 73
11
 74
0
 42
0.0000001
 43
0.0000001
 44
0.0000000001
 40
0.0
 40
0.0
 40
0.0
 40
0.0
 40
0.0271457919
 40
0.0505322727
 40
0.0813929349
 40
0.1660605239
 40
0.2808884297
 40
0.4242414834
 40
0.5941496638
 40
1.0
 40
1.0
 40
1.0
 40
1.0
 10
33.43022532
 20
99.4459185838
 30
0.0
 10
33.4292982581
 20
99.4459185093
 30
0.0
 10
33.4279558895
 20
99.4475641654
 30
0.0
 10
33.4268400215
 20
99.449973106
 30
0.0
 10
33.4252553829
 20
99.4545161173
 30
0.0
 10
33.4235372936
 20
99.4621663187
 30
0.0
 10
33.4216301377
 20
99.4737384408
 30
0.0
 10
33.4198578997
 20
99.4882476972
 30
0.0
 10
33.4175616111
 20
99.5127031339
 30
0.0
 10
33.4163569348
 20
99.5323334539
 30
0.0
 10
33.4156711128
 20
99.5461767594
 30
0.0
  0
SPLINE
  5
393
100
AcDbEntity
  8
0
100
AcDbSpline
 62
7
  6
CONTINUOUS
 70
0
 71
3
 72
9
 73
5
 74
0
 42
0.0000001
 43
0.0000001
 44
0.0000000001
 40
0.0
 40
0.0
 40
0.0
 40
0.0
 40
0.2724201221
 40
1.0
 40
1.0
 40
1.0
 40
1.0
 10
33.4133794773
 20
99.645918298
 30
0.0
 10
33.4133794807
 20
99.653199977
 30
0.0
 10
33.4135070025
 20
99.6799292994
 30
0.0
 10
33.4140830267
 20
99.7066573535
 30
0.0
 10
33.4148065449
 20
99.7260918046
 30
0.0
  0
SPLINE
  5
394
100
AcDbEntity
  8
0
100
AcDbSpline
 62
7
  6
CONTINUOUS
 70
0
 71
3
 72
16
 73
12
 74
0
 42
0.0000001
 43
0.0000001
 44
0.0000000001
 40
0.0
 40
0.0
 40
0.0
 40
0.0
 40
0.2152127951
 40
0.4144795632
 40
0.5892920697
 40
0.7341167507
 40
0.8453065606
 40
0.9236022128
 40
0.9512840428
 40
0.9723392558
 40
1.0
 40
1.0
 40
1.0
 40
1.0
 10
33.4054424964
 20
96.506786476
 30
0.0
 10
33.4058744129
 20
96.5171087061
 30
0.0
 10
33.4069434064
 20
96.536979274
 30
0.0
 10
33.4092111896
 20
96.5651817274
 30
0.0
 10
33.412061206
 20
96.5899328462
 30
0.0
 10
33.415282348
 20
96.6103733434
 30
0.0
 10
33.4188052211
 20
96.6260419168
 30
0.0
 10
33.4219937156
 20
96.6359958905
 30
0.0
 10
33.4247985618
 20
96.6414604134
 30
0.0
 10
33.4268772051
 20
96.6444210417
 30
0.0
 10
33.4290688313
 20
96.6459250799
 30
0.0
 10
33.4303966817
 20
96.6459251485
 30
0.0
  0
SPLINE
  5
395
100
AcDbEntity
  8
0
100
AcDbSpline
 62
7
  6
CONTINUOUS
 70
0
 71
3
 72
18
 73
14
 74
0
 42
0.0000001
 43
0.0000001
 44
0.0000000001
 40
0.0
 40
0.0
 40
0.0
 40
0.0
 40
0.0256783207
 40
0.0485192312
 40
0.0789303076
 40
0.1170008905
 40
0.1627128522
 40
0.2159761901
 40
0.2766419541
 40
0.4194471959
 40
0.5893009065
 40
0.7839216085
 40
1.0
 40
1.0
 40
1.0
 40
1.0
 10
48.5554529538
 20
101.7959185423
 30
0.0
 10
48.5573460784
 20
101.7959195214
 30
0.0
 10
48.5600044492
 20
101.7923361247
 30
0.0
 10
48.5622235875
 20
101.7872847382
 30
0.0
 10
48.5644099468
 20
101.7807921752
 30
0.0
 10
48.5664990035
 20
101.7726740753
 30
0.0
 10
48.5685608379
 20
101.7627656975
 30
0.0
 10
48.5705419609
 20
101.751167143
 30
0.0
 10
48.5732606075
 20
101.7324324301
 30
0.0
 10
48.5764361402
 20
101.705089287
 30
0.0
 10
48.5798547259
 20
101.6678440079
 30
0.0
 10
48.5829176154
 20
101.6251504872
 30
0.0
 10
48.5846170932
 20
101.5949184447
 30
0.0
 10
48.5854110453
 20
101.5790079412
 30
0.0
  0
SPLINE
  5
396
100
AcDbEntity
  8
0
100
AcDbSpline
 62
7
  6
CONTINUOUS
 70
0
 71
3
 72
15
 73
11
 74
0
 42
0.0000001
 43
0.0000001
 44
0.0000000001
 40
0.0
 40
0.0
 40
0.0
 40
0.0
 40
0.1567818914
 40
0.3087523175
 40
0.4523622203
 40
0.5850688637
 40
0.7052074143
 40
0.8126721139
 40
0.9095010567
 40
1.0
 40
1.0
 40
1.0
 40
1.0
 10
48.5854110453
 20
101.5790079412
 30
0.0
 10
48.6165564431
 20
101.5779503173
 30
0.0
 10
48.6778354473
 20
101.5726106626
 30
0.0
 10
48.7661930781
 20
101.5549511375
 30
0.0
 10
48.8472759998
 20
101.5282573894
 30
0.0
 10
48.9183079423
 20
101.4934613543
 30
0.0
 10
48.9768985611
 20
101.4515969565
 30
0.0
 10
49.021064696
 20
101.4038262824
 30
0.0
 10
49.0488953584
 20
101.3513857395
 30
0.0
 10
49.0553904324
 20
101.3139121767
 30
0.0
 10
49.0553973258
 20
101.2959238108
 30
0.0
  0
SPLINE
  5
397
100
AcDbEntity
  8
0
100
AcDbSpline
 62
7
  6
CONTINUOUS
 70
0
 71
3
 72
15
 73
11
 74
0
 42
0.0000001
 43
0.0000001
 44
0.0000000001
 40
0.0
 40
0.0
 40
0.0
 40
0.0
 40
0.1579968877
 40
0.3094287201
 40
0.4514394604
 40
0.5823685972
 40
0.7013871469
 40
0.8089092883
 40
0.9071786171
 40
1.0
 40
1.0
 40
1.0
 40
1.0
 10
31.6011014965
 20
101.5726928212
 30
0.0
 10
31.5738292221
 20
101.5693983836
 30
0.0
 10
31.5206899221
 20
101.5603283353
 30
0.0
 10
31.4449735016
 20
101.5390741498
 30
0.0
 10
31.3765742962
 20
101.5108873149
 30
0.0
 10
31.3174340792
 20
101.4765370735
 30
0.0
 10
31.2691243895
 20
101.4369239521
 30
0.0
 10
31.2330547197
 20
101.3928683275
 30
0.0
 10
31.2106046933
 20
101.3454052502
 30
0.0
 10
31.2054026695
 20
101.3120023465
 30
0.0
 10
31.2053973288
 20
101.2958637193
 30
0.0
  0
SPLINE
  5
398
100
AcDbEntity
  8
0
100
AcDbSpline
 62
7
  6
CONTINUOUS
 70
0
 71
3
 72
15
 73
11
 74
0
 42
0.0000001
 43
0.0000001
 44
0.0000000001
 40
0.0
 40
0.0
 40
0.0
 40
0.0
 40
0.1744857712
 40
0.3465906938
 40
0.508693823
 40
0.6545938184
 40
0.7789528912
 40
0.8317754643
 40
0.8780183269
 40
1.0
 40
1.0
 40
1.0
 40
1.0
 10
45.1987181493
 20
93.7713354081
 30
0.0
 10
45.188173366
 20
93.7714206068
 30
0.0
 10
45.1672181498
 20
93.7709668862
 30
0.0
 10
45.1365539728
 20
93.7685141065
 30
0.0
 10
45.1078175831
 20
93.7643709905
 30
0.0
 10
45.0822609926
 20
93.7587178309
 30
0.0
 10
45.0636636311
 20
93.7527867566
 30
0.0
 10
45.0512391539
 20
93.7472164331
 30
0.0
 10
45.0398697605
 20
93.7409150803
 30
0.0
 10
45.0304325803
 20
93.732509753
 30
0.0
 10
45.0303974603
 20
93.7251378184
 30
0.0
  0
SPLINE
  5
399
100
AcDbEntity
  8
0
100
AcDbSpline
 62
7
  6
CONTINUOUS
 70
0
 71
3
 72
15
 73
11
 74
0
 42
0.0000001
 43
0.0000001
 44
0.0000000001
 40
0.0
 40
0.0
 40
0.0
 40
0.0
 40
0.1250044458
 40
0.2500030721
 40
0.3750023972
 40
0.500001492
 40
0.625000784
 40
0.7500001993
 40
0.8750001711
 40
1.0
 40
1.0
 40
1.0
 40
1.0
 10
36.4309480647
 20
99.4456012288
 30
0.0
 10
36.3394943245
 20
99.4455379417
 30
0.0
 10
36.1561350195
 20
99.4270634006
 30
0.0
 10
35.8919756045
 20
99.3470573479
 30
0.0
 10
35.6484476904
 20
99.216846869
 30
0.0
 10
35.4350043822
 20
99.0416971296
 30
0.0
 10
35.2598211047
 20
98.8282727189
 30
0.0
 10
35.1296169292
 20
98.584754316
 30
0.0
 10
35.0494534947
 20
98.3206236571
 30
0.0
 10
35.0312702004
 20
98.1372271105
 30
0.0
 10
35.0312702004
 20
98.0457767262
 30
0.0
  0
SPLINE
  5
39A
100
AcDbEntity
  8
0
100
AcDbSpline
 62
7
  6
CONTINUOUS
 70
0
 71
3
 72
15
 73
11
 74
0
 42
0.0000001
 43
0.0000001
 44
0.0000000001
 40
0.0
 40
0.0
 40
0.0
 40
0.0
 40
0.1249999285
 40
0.2499996829
 40
0.3749994763
 40
0.4999992331
 40
0.624999023
 40
0.7499987353
 40
0.8749988242
 40
1.0
 40
1.0
 40
1.0
 40
1.0
 10
35.0312702004
 20
98.0457767262
 30
0.0
 10
35.0312702004
 20
97.9542966233
 30
0.0
 10
35.0495340828
 20
97.7708436755
 30
0.0
 10
35.1298064597
 20
97.5066553554
 30
0.0
 10
35.2601354506
 20
97.2631003682
 30
0.0
 10
35.4354468997
 20
97.0496651011
 30
0.0
 10
35.6490175334
 20
96.8745250218
 30
0.0
 10
35.8926716931
 20
96.7443645187
 30
0.0
 10
36.1569334553
 20
96.6643754743
 30
0.0
 10
36.3403757379
 20
96.6460571871
 30
0.0
 10
36.4318567501
 20
96.6460827995
 30
0.0
  0
SPLINE
  5
39B
100
AcDbEntity
  8
0
100
AcDbSpline
 62
7
  6
CONTINUOUS
 70
0
 71
3
 72
18
 73
14
 74
0
 42
0.0000001
 43
0.0000001
 44
0.0000000001
 40
0.0
 40
0.0
 40
0.0
 40
0.0
 40
0.1295228014
 40
0.2581727114
 40
0.3859467742
 40
0.5127526117
 40
0.6384256734
 40
0.7625760806
 40
0.8238663691
 40
0.8842927134
 40
0.9433966988
 40
0.9721736637
 40
1.0
 40
1.0
 40
1.0
 40
1.0
 10
31.5725971502
 20
90.5659144445
 30
0.0
 10
31.5767745483
 20
91.0413717579
 30
0.0
 10
31.5852176416
 20
91.9890811132
 30
0.0
 10
31.5977221887
 20
93.4058289719
 30
0.0
 10
31.6103392537
 20
94.8126015171
 30
0.0
 10
31.6229904643
 20
96.2084453539
 30
0.0
 10
31.6356198227
 20
97.5909864757
 30
0.0
 10
31.6462413597
 20
98.7330295879
 30
0.0
 10
31.654769159
 20
99.6355623994
 30
0.0
 10
31.6612324196
 20
100.299319857
 30
0.0
 10
31.6668258109
 20
100.8437244452
 30
0.0
 10
31.6716325462
 20
101.2684563709
 30
0.0
 10
31.674291553
 20
101.4762293349
 30
0.0
 10
31.6758243388
 20
101.5783677693
 30
0.0
  0
SPLINE
  5
39C
100
AcDbEntity
  8
0
100
AcDbSpline
 62
7
  6
CONTINUOUS
 70
0
 71
3
 72
18
 73
14
 74
0
 42
0.0000001
 43
0.0000001
 44
0.0000000001
 40
0.0
 40
0.0
 40
0.0
 40
0.0
 40
0.006712415
 40
0.0218082508
 40
0.0459806478
 40
0.0792139944
 40
0.1212220679
 40
0.1716082873
 40
0.295691372
 40
0.4466633695
 40
0.6188483582
 40
0.8058862366
 40
1.0
 40
1.0
 40
1.0
 40
1.0
 10
43.8302312924
 20
99.4459185579
 30
0.0
 10
43.8306806638
 20
99.4459185156
 30
0.0
 10
43.8315602714
 20
99.4475414968
 30
0.0
 10
43.8322695143
 20
99.4502489858
 30
0.0
 10
43.8332101863
 20
99.4551663758
 30
0.0
 10
43.8340407026
 20
99.4617077258
 30
0.0
 10
43.8348835375
 20
99.4701002497
 30
0.0
 10
43.8360141733
 20
99.4845383387
 30
0.0
 10
43.8372273805
 20
99.5063006691
 30
0.0
 10
43.838363911
 20
99.5362182831
 30
0.0
 10
43.8391945054
 20
99.5703656253
 30
0.0
 10
43.8397211106
 20
99.6074059154
 30
0.0
 10
43.8398257284
 20
99.6329231185
 30
0.0
 10
43.8397983474
 20
99.6459182872
 30
0.0
  0
SPLINE
  5
39D
100
AcDbEntity
  8
0
100
AcDbSpline
 62
7
  6
CONTINUOUS
 70
0
 71
3
 72
16
 73
12
 74
0
 42
0.0000001
 43
0.0000001
 44
0.0000000001
 40
0.0
 40
0.0
 40
0.0
 40
0.0
 40
0.2225452371
 40
0.4267973044
 40
0.6044100682
 40
0.7501769819
 40
0.8607160738
 40
0.9367576824
 40
0.9625427072
 40
0.9809647095
 40
1.0
 40
1.0
 40
1.0
 40
1.0
 10
43.8440287679
 20
96.5125146434
 30
0.0
 10
43.8437730109
 20
96.5225346456
 30
0.0
 10
43.843155839
 20
96.5417484076
 30
0.0
 10
43.8418797271
 20
96.5689405227
 30
0.0
 10
43.8403036765
 20
96.5926583121
 30
0.0
 10
43.8385528947
 20
96.6121137789
 30
0.0
 10
43.8366385883
 20
96.6269952515
 30
0.0
 10
43.8349568883
 20
96.6363544168
 30
0.0
 10
43.8334193212
 20
96.6416523725
 30
0.0
 10
43.8324302123
 20
96.6441406996
 30
0.0
 10
43.8312552048
 20
96.6459258049
 30
0.0
 10
43.8303978701
 20
96.6459260542
 30
0.0
  0
SPLINE
  5
39E
100
AcDbEntity
  8
0
100
AcDbSpline
 62
7
  6
CONTINUOUS
 70
0
 71
3
 72
9
 73
5
 74
0
 42
0.0000001
 43
0.0000001
 44
0.0000000001
 40
0.0
 40
0.0
 40
0.0
 40
0.0
 40
0.2497573816
 40
1.0
 40
1.0
 40
1.0
 40
1.0
 10
46.8459868319
 20
99.7260973978
 30
0.0
 10
46.595639315
 20
99.7266835958
 30
0.0
 10
45.59327613
 20
99.7288785676
 30
0.0
 10
44.5909117522
 20
99.7305283539
 30
0.0
 10
43.8388949468
 20
99.7314572266
 30
0.0
  0
SPLINE
  5
39F
100
AcDbEntity
  8
0
100
AcDbSpline
 62
7
  6
CONTINUOUS
 70
0
 71
3
 72
11
 73
7
 74
0
 42
0.0000001
 43
0.0000001
 44
0.0000000001
 40
0.0
 40
0.0
 40
0.0
 40
0.0
 40
0.250895607
 40
0.5011963299
 40
0.7506861701
 40
1.0
 40
1.0
 40
1.0
 40
1.0
 10
42.2707627062
 20
93.7879564873
 30
0.0
 10
42.2840498951
 20
93.7680141968
 30
0.0
 10
42.3109601344
 20
93.7284231275
 30
0.0
 10
42.3509218337
 20
93.6688930105
 30
0.0
 10
42.3905766063
 20
93.6093393591
 30
0.0
 10
42.4171337357
 20
93.5697864549
 30
0.0
 10
42.4303977964
 20
93.5500104294
 30
0.0
  0
SPLINE
  5
3A0
100
AcDbEntity
  8
0
100
AcDbSpline
 62
7
  6
CONTINUOUS
 70
0
 71
3
 72
16
 73
12
 74
0
 42
0.0000001
 43
0.0000001
 44
0.0000000001
 40
0.0
 40
0.0
 40
0.0
 40
0.0
 40
0.192755465
 40
0.3785277126
 40
0.5496385165
 40
0.6997890343
 40
0.8234080125
 40
0.9158631812
 40
0.9742122457
 40
0.9905767665
 40
1.0
 40
1.0
 40
1.0
 40
1.0
 10
46.8474142029
 20
99.6459182739
 30
0.0
 10
46.8473790229
 20
99.6329226706
 30
0.0
 10
46.8471666979
 20
99.6074019517
 30
0.0
 10
46.8462607077
 20
99.5703550181
 30
0.0
 10
46.8447210362
 20
99.5361994295
 30
0.0
 10
46.8427087431
 20
99.5062800507
 30
0.0
 10
46.8403098899
 20
99.4816723431
 30
0.0
 10
46.8377113383
 20
99.4634136308
 30
0.0
 10
46.8350899015
 20
99.4522937046
 30
0.0
 10
46.8327962747
 20
99.4471879077
 30
0.0
 10
46.8312675023
 20
99.445918599
 30
0.0
 10
46.8306321841
 20
99.4459185447
 30
0.0
  0
SPLINE
  5
3A1
100
AcDbEntity
  8
0
100
AcDbSpline
 62
7
  6
CONTINUOUS
 70
0
 71
3
 72
19
 73
15
 74
0
 42
0.0000001
 43
0.0000001
 44
0.0000000001
 40
0.0
 40
0.0
 40
0.0
 40
0.0
 40
0.1105440386
 40
0.2160588697
 40
0.3160441479
 40
0.4102221255
 40
0.5799377122
 40
0.7228351588
 40
0.836961692
 40
0.882726414
 40
0.9208002089
 40
0.9511951521
 40
0.9740788535
 40
1.0
 40
1.0
 40
1.0
 40
1.0
 10
31.6753171657
 20
101.5783539497
 30
0.0
 10
31.6757241373
 20
101.5865187777
 30
0.0
 10
31.6768292162
 20
101.6024600155
 30
0.0
 10
31.6784964427
 20
101.6257723906
 30
0.0
 10
31.6797805642
 20
101.6478974014
 30
0.0
 10
31.6815753312
 20
101.6747476123
 30
0.0
 10
31.6841490616
 20
101.7047229372
 30
0.0
 10
31.6877775095
 20
101.7360826138
 30
0.0
 10
31.6913149782
 20
101.7581932393
 30
0.0
 10
31.6942983853
 20
101.7725470717
 30
0.0
 10
31.6963352284
 20
101.7807083636
 30
0.0
 10
31.698465336
 20
101.787241827
 30
0.0
 10
31.7006992954
 20
101.7923365693
 30
0.0
 10
31.7034090401
 20
101.7959194733
 30
0.0
 10
31.7053259633
 20
101.7959185403
 30
0.0
  0
SPLINE
  5
3A2
100
AcDbEntity
  8
0
100
AcDbSpline
 62
7
  6
CONTINUOUS
 70
0
 71
3
 72
16
 73
12
 74
0
 42
0.0000001
 43
0.0000001
 44
0.0000000001
 40
0.0
 40
0.0
 40
0.0
 40
0.0
 40
0.0276603016
 40
0.0487152665
 40
0.076396914
 40
0.1546924658
 40
0.2658825798
 40
0.4107078671
 40
0.5855209573
 40
0.7847879047
 40
1.0
 40
1.0
 40
1.0
 40
1.0
 10
46.8303976044
 20
96.6459225183
 30
0.0
 10
46.8317254789
 20
96.645922493
 30
0.0
 10
46.8339171928
 20
96.6444184597
 30
0.0
 10
46.8359958908
 20
96.6414577699
 30
0.0
 10
46.8388008287
 20
96.6359930864
 30
0.0
 10
46.8419894141
 20
96.6260387646
 30
0.0
 10
46.8455123818
 20
96.6103696112
 30
0.0
 10
46.8487335925
 20
96.5899283367
 30
0.0
 10
46.8515836475
 20
96.5651763001
 30
0.0
 10
46.8538514269
 20
96.5369728744
 30
0.0
 10
46.8549203954
 20
96.5171016499
 30
0.0
 10
46.8553522915
 20
96.5067790997
 30
0.0
  0
SPLINE
  5
3A3
100
AcDbEntity
  8
0
100
AcDbSpline
 62
7
  6
CONTINUOUS
 70
0
 71
3
 72
36
 73
32
 74
0
 42
0.0000001
 43
0.0000001
 44
0.0000000001
 40
0.0
 40
0.0
 40
0.0
 40
0.0
 40
0.0637132949
 40
0.0953536431
 40
0.1267699362
 40
0.1579977801
 40
0.1890894472
 40
0.2200216779
 40
0.250774299
 40
0.2814123396
 40
0.3119867815
 40
0.3424782796
 40
0.3729269854
 40
0.4033729709
 40
0.4185958375
 40
0.4338201297
 40
0.4643094072
 40
0.4795895924
 40
0.4948836518
 40
0.5254869272
 40
0.5408123794
 40
0.5561680808
 40
0.5869884751
 40
0.6179573368
 40
0.6490522112
 40
0.6802912121
 40
0.7431877728
 40
0.8067501793
 40
0.8709252245
 40
0.935468434
 40
1.0
 40
1.0
 40
1.0
 40
1.0
 10
46.8553524319
 20
96.5067757447
 30
0.0
 10
46.9624986242
 20
96.5069266042
 30
0.0
 10
47.1233651975
 20
96.5232053068
 30
0.0
 10
47.3304638648
 20
96.5747203423
 30
0.0
 10
47.4799358087
 20
96.6285823654
 30
0.0
 10
47.6219541183
 20
96.6976067596
 30
0.0
 10
47.7560339845
 20
96.7793444485
 30
0.0
 10
47.8816867615
 20
96.8722132462
 30
0.0
 10
47.9967984977
 20
96.9768549302
 30
0.0
 10
48.0993186901
 20
97.0930276788
 30
0.0
 10
48.1900244737
 20
97.2179909762
 30
0.0
 10
48.2695561072
 20
97.3499825723
 30
0.0
 10
48.3363833998
 20
97.4886335554
 30
0.0
 10
48.3803933802
 20
97.6090936403
 30
0.0
 10
48.4078959905
 20
97.7077804768
 30
0.0
 10
48.4300248261
 20
97.8078828073
 30
0.0
 10
48.4445185821
 20
97.9096081313
 30
0.0
 10
48.4523671352
 20
98.012017771
 30
0.0
 10
48.4561594385
 20
98.1148496873
 30
0.0
 10
48.4533595066
 20
98.2179428187
 30
0.0
 10
48.4429200096
 20
98.3205154843
 30
0.0
 10
48.4269601969
 20
98.4227483742
 30
0.0
 10
48.396847755
 20
98.5491900994
 30
0.0
 10
48.3459969432
 20
98.6971185446
 30
0.0
 10
48.2812657462
 20
98.8403177397
 30
0.0
 10
48.1766899171
 20
99.0234096201
 30
0.0
 10
48.0125583134
 20
99.234017778
 30
0.0
 10
47.7679302589
 20
99.4445059309
 30
0.0
 10
47.4836242029
 20
99.6030664006
 30
0.0
 10
47.1722407468
 20
99.7032204998
 30
0.0
 10
46.9545090041
 20
99.7259597471
 30
0.0
 10
46.8459867073
 20
99.7260947212
 30
0.0
  0
SPLINE
  5
3A4
100
AcDbEntity
  8
0
100
AcDbSpline
 62
7
  6
CONTINUOUS
 70
0
 71
3
 72
15
 73
11
 74
0
 42
0.0000001
 43
0.0000001
 44
0.0000000001
 40
0.0
 40
0.0
 40
0.0
 40
0.0
 40
0.1219421759
 40
0.1681775486
 40
0.2209949873
 40
0.3453509092
 40
0.4912567006
 40
0.6533727196
 40
0.8254952472
 40
1.0
 40
1.0
 40
1.0
 40
1.0
 10
35.2303972385
 20
93.7251238253
 30
0.0
 10
35.2303689414
 20
93.7324937388
 30
0.0
 10
35.2209349359
 20
93.7409031786
 30
0.0
 10
35.2095687584
 20
93.7472042807
 30
0.0
 10
35.1971451209
 20
93.7527759598
 30
0.0
 10
35.1785474583
 20
93.7587084281
 30
0.0
 10
35.1529890446
 20
93.7643633642
 30
0.0
 10
35.1242493456
 20
93.7685081134
 30
0.0
 10
35.0935809791
 20
93.7709634381
 30
0.0
 10
35.0726225853
 20
93.7714184226
 30
0.0
 10
35.0620761733
 20
93.7713332036
 30
0.0
  0
SPLINE
  5
3A5
100
AcDbEntity
  8
0
100
AcDbSpline
 62
7
  6
CONTINUOUS
 70
0
 71
3
 72
11
 73
7
 74
0
 42
0.0000001
 43
0.0000001
 44
0.0000000001
 40
0.0
 40
0.0
 40
0.0
 40
0.0
 40
0.2493006488
 40
0.4987748362
 40
0.7490859243
 40
1.0
 40
1.0
 40
1.0
 40
1.0
 10
37.8304035672
 20
93.5500397519
 30
0.0
 10
37.8436667348
 20
93.5698144033
 30
0.0
 10
37.870220853
 20
93.6093650989
 30
0.0
 10
37.9098680369
 20
93.6689203263
 30
0.0
 10
37.949838458
 20
93.7284447418
 30
0.0
 10
37.9767630138
 20
93.7680285547
 30
0.0
 10
37.9900509768
 20
93.7879719899
 30
0.0
  0
SPLINE
  5
3A6
100
AcDbEntity
  8
0
100
AcDbSpline
 62
7
  6
CONTINUOUS
 70
0
 71
3
 72
9
 73
5
 74
0
 42
0.0000001
 43
0.0000001
 44
0.0000000001
 40
0.0
 40
0.0
 40
0.0
 40
0.0
 40
0.2505378775
 40
1.0
 40
1.0
 40
1.0
 40
1.0
 10
43.8440298438
 20
96.5125156315
 30
0.0
 10
44.0955131203
 20
96.5119159692
 30
0.0
 10
45.0992868735
 20
96.5096398164
 30
0.0
 10
46.1030617228
 20
96.5078451794
 30
0.0
 10
46.8553533069
 20
96.5067790279
 30
0.0
  0
SPLINE
  5
3A7
100
AcDbEntity
  8
0
100
AcDbSpline
 62
7
  6
CONTINUOUS
 70
0
 71
3
 72
11
 73
7
 74
0
 42
0.0000001
 43
0.0000001
 44
0.0000000001
 40
0.0
 40
0.0
 40
0.0
 40
0.0
 40
0.2495036127
 40
0.4993331719
 40
0.7496798624
 40
1.0
 40
1.0
 40
1.0
 40
1.0
 10
38.6117952876
 20
93.7897274344
 30
0.0
 10
38.6299282091
 20
93.769478993
 30
0.0
 10
38.6660002433
 20
93.7287615139
 30
0.0
 10
38.7203643214
 20
93.667814312
 30
0.0
 10
38.7749451429
 20
93.6069416072
 30
0.0
 10
38.8112709429
 20
93.5662557778
 30
0.0
 10
38.8294408031
 20
93.5459210312
 30
0.0
  0
SPLINE
  5
3A8
100
AcDbEntity
  8
0
100
AcDbSpline
 62
7
  6
CONTINUOUS
 70
0
 71
3
 72
11
 73
7
 74
0
 42
0.0000001
 43
0.0000001
 44
0.0000000001
 40
0.0
 40
0.0
 40
0.0
 40
0.0
 40
0.2503136498
 40
0.5006393993
 40
0.7504774138
 40
1.0
 40
1.0
 40
1.0
 40
1.0
 10
41.4313247784
 20
93.5459140026
 30
0.0
 10
41.449494807
 20
93.5662491322
 30
0.0
 10
41.4858231747
 20
93.6069316202
 30
0.0
 10
41.5403963925
 20
93.6678127996
 30
0.0
 10
41.5947695733
 20
93.7287572489
 30
0.0
 10
41.6308555897
 20
93.7694692362
 30
0.0
 10
41.6489905252
 20
93.7897201267
 30
0.0
  0
SPLINE
  5
3A9
100
AcDbEntity
  8
0
100
AcDbSpline
 62
7
  6
CONTINUOUS
 70
0
 71
3
 72
15
 73
11
 74
0
 42
0.0000001
 43
0.0000001
 44
0.0000000001
 40
0.0
 40
0.0
 40
0.0
 40
0.0
 40
0.0574215575
 40
0.1291110959
 40
0.2236579184
 40
0.344162348
 40
0.4900565754
 40
0.6542899208
 40
0.8276416413
 40
1.0
 40
1.0
 40
1.0
 40
1.0
 10
41.5303883556
 20
98.0459196286
 30
0.0
 10
41.530388556
 20
98.0503738977
 30
0.0
 10
41.5328280625
 20
98.0604622694
 30
0.0
 10
41.543505263
 20
98.0745669215
 30
0.0
 10
41.5615191326
 20
98.0879350835
 30
0.0
 10
41.5868377326
 20
98.1001703463
 30
0.0
 10
41.6187868927
 20
98.1102135453
 30
0.0
 10
41.6555903479
 20
98.1177201419
 30
0.0
 10
41.6949680326
 20
98.1219586374
 30
0.0
 10
41.7218025293
 20
98.1227664428
 30
0.0
 10
41.7351720402
 20
98.1226436606
 30
0.0
  0
SPLINE
  5
3AA
100
AcDbEntity
  8
0
100
AcDbSpline
 62
7
  6
CONTINUOUS
 70
0
 71
3
 72
34
 73
30
 74
0
 42
0.0000001
 43
0.0000001
 44
0.0000000001
 40
0.0
 40
0.0
 40
0.0
 40
0.0
 40
0.0602881731
 40
0.1207614958
 40
0.1816955799
 40
0.2124790853
 40
0.2434804474
 40
0.2747213169
 40
0.3062404839
 40
0.338020102
 40
0.3700105213
 40
0.4022426908
 40
0.4347093327
 40
0.4999300634
 40
0.5326246576
 40
0.5652336338
 40
0.5977071988
 40
0.6299391681
 40
0.6619169719
 40
0.6778368802
 40
0.6937018364
 40
0.7252218781
 40
0.756456953
 40
0.7874520117
 40
0.8182345196
 40
0.8488153636
 40
0.8792361761
 40
0.9397109639
 40
1.0
 40
1.0
 40
1.0
 40
1.0
 10
41.7351720402
 20
98.1226436606
 30
0.0
 10
41.735171619
 20
98.2240409909
 30
0.0
 10
41.7158026228
 20
98.4276899151
 30
0.0
 10
41.6293226686
 20
98.7225537836
 30
0.0
 10
41.511896213
 20
98.9518744422
 30
0.0
 10
41.3926367291
 20
99.1206442404
 30
0.0
 10
41.2901669253
 20
99.2392434536
 30
0.0
 10
41.1750791187
 20
99.3474631578
 30
0.0
 10
41.0487109306
 20
99.4443616711
 30
0.0
 10
40.9131660053
 20
99.5302497891
 30
0.0
 10
40.7692239292
 20
99.6039934037
 30
0.0
 10
40.616970566
 20
99.6621169881
 30
0.0
 10
40.4051296162
 20
99.7171884088
 30
0.0
 10
40.1849851052
 20
99.7373951786
 30
0.0
 10
39.965509883
 20
99.7267685354
 30
0.0
 10
39.8025093085
 20
99.702808291
 30
0.0
 10
39.6436374042
 20
99.6621901303
 30
0.0
 10
39.4912043161
 20
99.6045455753
 30
0.0
 10
39.3711593429
 20
99.5427093654
 30
0.0
 10
39.2794929679
 20
99.4870033703
 30
0.0
 10
39.1909164554
 20
99.4278769139
 30
0.0
 10
39.0858174009
 20
99.3472982649
 30
0.0
 10
38.9706087914
 20
99.2392336675
 30
0.0
 10
38.8681926613
 20
99.120622029
 30
0.0
 10
38.7784356365
 20
98.9935634161
 30
0.0
 10
38.7015129717
 20
98.859449754
 30
0.0
 10
38.6169253073
 20
98.6731897236
 30
0.0
 10
38.5450565528
 20
98.4276369417
 30
0.0
 10
38.5256484246
 20
98.2240428507
 30
0.0
 10
38.5256223823
 20
98.1226440722
 30
0.0
  0
SPLINE
  5
3AB
100
AcDbEntity
  8
0
100
AcDbSpline
 62
7
  6
CONTINUOUS
 70
0
 71
3
 72
15
 73
11
 74
0
 42
0.0000001
 43
0.0000001
 44
0.0000000001
 40
0.0
 40
0.0
 40
0.0
 40
0.0
 40
0.0626230508
 40
0.1406877009
 40
0.2425014468
 40
0.3688903365
 40
0.5165341403
 40
0.677139473
 40
0.8410704957
 40
1.0
 40
1.0
 40
1.0
 40
1.0
 10
38.7304064279
 20
98.0459196924
 30
0.0
 10
38.7304062237
 20
98.0507767308
 30
0.0
 10
38.7274540075
 20
98.0617558542
 30
0.0
 10
38.7152633129
 20
98.0765651425
 30
0.0
 10
38.6955117985
 20
98.0900969115
 30
0.0
 10
38.6688269193
 20
98.1021039274
 30
0.0
 10
38.6363918726
 20
98.1115758237
 30
0.0
 10
38.6003571159
 20
98.1183743263
 30
0.0
 10
38.5630040982
 20
98.1220911454
 30
0.0
 10
38.5379484353
 20
98.1227570798
 30
0.0
 10
38.5256223965
 20
98.1226438714
 30
0.0
  0
SPLINE
  5
3AC
100
AcDbEntity
  8
0
100
AcDbSpline
 62
7
  6
CONTINUOUS
 70
0
 71
3
 72
31
 73
27
 74
0
 42
0.0000001
 43
0.0000001
 44
0.0000000001
 40
0.0
 40
0.0
 40
0.0
 40
0.0
 40
0.060117815
 40
0.1206199186
 40
0.1817324608
 40
0.2126244188
 40
0.2437486673
 40
0.3066307014
 40
0.338445989
 40
0.3704657447
 40
0.4026683047
 40
0.4350318982
 40
0.4675006377
 40
0.5000314144
 40
0.5325657684
 40
0.5650359012
 40
0.597402259
 40
0.6296058167
 40
0.6616020574
 40
0.6934174802
 40
0.7250160481
 40
0.7563595386
 40
0.8182856269
 40
0.8793798074
 40
0.9398787077
 40
1.0
 40
1.0
 40
1.0
 40
1.0
 10
38.5256223965
 20
98.1226438714
 30
0.0
 10
38.5256162499
 20
98.0216208948
 30
0.0
 10
38.5446602158
 20
97.818395156
 30
0.0
 10
38.6303113405
 20
97.5235032616
 30
0.0
 10
38.7477264883
 20
97.2937431219
 30
0.0
 10
38.8680595061
 20
97.1250550765
 30
0.0
 10
39.0064097109
 20
96.9668661634
 30
0.0
 10
39.1685811126
 20
96.8287327008
 30
0.0
 10
39.3492217016
 20
96.7155089863
 30
0.0
 10
39.4940146392
 20
96.643578846
 30
0.0
 10
39.6463258773
 20
96.5866640433
 30
0.0
 10
39.8044996353
 20
96.5458326065
 30
0.0
 10
39.9665941484
 20
96.521567012
 30
0.0
 10
40.130573846
 20
96.5138056317
 30
0.0
 10
40.294527128
 20
96.5218756342
 30
0.0
 10
40.4566558774
 20
96.5459313394
 30
0.0
 10
40.6148973996
 20
96.586528248
 30
0.0
 10
40.7672445911
 20
96.6433236234
 30
0.0
 10
40.9116809983
 20
96.7158937194
 30
0.0
 10
41.0474257263
 20
96.8016172593
 30
0.0
 10
41.1741441981
 20
96.8984280534
 30
0.0
 10
41.3278009101
 20
97.0417959772
 30
0.0
 10
41.4889180233
 20
97.2474615604
 30
0.0
 10
41.6305611256
 20
97.5234355665
 30
0.0
 10
41.716211159
 20
97.8184028126
 30
0.0
 10
41.7352417901
 20
98.0216151266
 30
0.0
 10
41.7351720612
 20
98.1226439227
 30
0.0
  0
LINE
  5
3AD
100
AcDbEntity
  8
0
100
AcDbLine
 62
7
  6
CONTINUOUS
 10
31.7800133473
 20
91.0454537555
 11
31.8172459038
 21
93.7128648061
  0
SPLINE
  5
3AE
100
AcDbEntity
  8
0
100
AcDbSpline
 62
7
  6
CONTINUOUS
 70
0
 71
3
 72
16
 73
12
 74
0
 42
0.0000001
 43
0.0000001
 44
0.0000000001
 40
0.0
 40
0.0
 40
0.0
 40
0.0
 40
0.184875729
 40
0.3606034827
 40
0.5211754591
 40
0.6623436195
 40
0.7808186746
 40
0.8748883808
 40
0.9129531735
 40
0.9457122345
 40
1.0
 40
1.0
 40
1.0
 40
1.0
 10
34.7609202044
 20
93.7418256159
 30
0.0
 10
34.7521666437
 20
93.7417601588
 30
0.0
 10
34.7350926464
 20
93.7412025198
 30
0.0
 10
34.7104918465
 20
93.7390956443
 30
0.0
 10
34.6881141816
 20
93.7357715244
 30
0.0
 10
34.6686775913
 20
93.7313802646
 30
0.0
 10
34.6527777327
 20
93.726039157
 30
0.0
 10
34.6420999677
 20
93.7206569956
 30
0.0
 10
34.6359644567
 20
93.7157632529
 30
0.0
 10
34.6320217522
 20
93.711338451
 30
0.0
 10
34.6304096755
 20
93.7072146611
 30
0.0
 10
34.6303974545
 20
93.7046441822
 30
0.0
  0
SPLINE
  5
3AF
100
AcDbEntity
  8
0
100
AcDbSpline
 62
7
  6
CONTINUOUS
 70
0
 71
3
 72
9
 73
5
 74
0
 42
0.0000001
 43
0.0000001
 44
0.0000000001
 40
0.0
 40
0.0
 40
0.0
 40
0.0
 40
0.4983832907
 40
1.0
 40
1.0
 40
1.0
 40
1.0
 10
48.4435401561
 20
93.7128606108
 30
0.0
 10
48.4497472451
 20
93.2697308486
 30
0.0
 10
48.4623002638
 20
92.3805977559
 30
0.0
 10
48.4745359909
 20
91.49146024
 30
0.0
 10
48.4807246619
 20
91.0454547157
 30
0.0
  0
SPLINE
  5
3B0
100
AcDbEntity
  8
0
100
AcDbSpline
 62
7
  6
CONTINUOUS
 70
0
 71
3
 72
9
 73
5
 74
0
 42
0.0000001
 43
0.0000001
 44
0.0000000001
 40
0.0
 40
0.0
 40
0.0
 40
0.0
 40
0.5016128217
 40
1.0
 40
1.0
 40
1.0
 40
1.0
 10
45.4998748215
 20
93.7418233507
 30
0.0
 10
45.9920766088
 20
93.7378770243
 30
0.0
 10
46.9733159836
 20
93.7299676754
 30
0.0
 10
47.9545215288
 20
93.7186062756
 30
0.0
 10
48.4435401561
 20
93.7128606108
 30
0.0
  0
SPLINE
  5
3B1
100
AcDbEntity
  8
0
100
AcDbSpline
 62
7
  6
CONTINUOUS
 70
0
 71
3
 72
15
 73
11
 74
0
 42
0.0000001
 43
0.0000001
 44
0.0000000001
 40
0.0
 40
0.0
 40
0.0
 40
0.0
 40
0.124999846
 40
0.2499995997
 40
0.3749994125
 40
0.4999991835
 40
0.6249989896
 40
0.7499987159
 40
0.8749988222
 40
1.0
 40
1.0
 40
1.0
 40
1.0
 10
45.4312583851
 20
98.0458468607
 30
0.0
 10
45.4312583851
 20
97.9543645996
 30
0.0
 10
45.4495116336
 20
97.7709065934
 30
0.0
 10
45.5297795849
 20
97.5067093614
 30
0.0
 10
45.6601038382
 20
97.2631444707
 30
0.0
 10
45.8354135511
 20
97.0496989019
 30
0.0
 10
46.0489845435
 20
96.8745486934
 30
0.0
 10
46.2926412833
 20
96.7443784966
 30
0.0
 10
46.556907486
 20
96.6643814867
 30
0.0
 10
46.740353893
 20
96.6460571178
 30
0.0
 10
46.8318371254
 20
96.6460820472
 30
0.0
  0
SPLINE
  5
3B2
100
AcDbEntity
  8
0
100
AcDbSpline
 62
7
  6
CONTINUOUS
 70
0
 71
3
 72
17
 73
13
 74
0
 42
0.0000001
 43
0.0000001
 44
0.0000000001
 40
0.0
 40
0.0
 40
0.0
 40
0.0
 40
0.0565970343
 40
0.1157018726
 40
0.1761275237
 40
0.2374176209
 40
0.3615688543
 40
0.4872430113
 40
0.6140501215
 40
0.741825318
 40
0.8704760523
 40
1.0
 40
1.0
 40
1.0
 40
1.0
 10
48.5849465087
 20
101.5790324332
 30
0.0
 10
48.5880117369
 20
101.3712759085
 30
0.0
 10
48.5929791777
 20
100.9465387264
 30
0.0
 10
48.5995402475
 20
100.2999726688
 30
0.0
 10
48.6059882941
 20
99.6361750057
 30
0.0
 10
48.6145578777
 20
98.7335884061
 30
0.0
 10
48.6251584538
 20
97.5914698269
 30
0.0
 10
48.6377924359
 20
96.2088336298
 30
0.0
 10
48.6504423432
 20
94.8128927195
 30
0.0
 10
48.6630576281
 20
93.4060234359
 30
0.0
 10
48.6755639922
 20
91.9891787325
 30
0.0
 10
48.6840068545
 20
91.0414049704
 30
0.0
 10
48.6881805421
 20
90.5659147347
 30
0.0
  0
SPLINE
  5
3B3
100
AcDbEntity
  8
0
100
AcDbSpline
 62
7
  6
CONTINUOUS
 70
0
 71
3
 72
9
 73
5
 74
0
 42
0.0000001
 43
0.0000001
 44
0.0000000001
 40
0.0
 40
0.0
 40
0.0
 40
0.0
 40
0.2502201805
 40
1.0
 40
1.0
 40
1.0
 40
1.0
 10
36.4219004429
 20
99.7314511202
 30
0.0
 10
36.1710884502
 20
99.7311404278
 30
0.0
 10
35.1687234455
 20
99.7297719068
 30
0.0
 10
34.166359199
 20
99.7278466994
 30
0.0
 10
33.4148075032
 20
99.7260895464
 30
0.0
  0
SPLINE
  5
3B4
100
AcDbEntity
  8
0
100
AcDbSpline
 62
7
  6
CONTINUOUS
 70
0
 71
3
 72
16
 73
12
 74
0
 42
0.0000001
 43
0.0000001
 44
0.0000000001
 40
0.0
 40
0.0
 40
0.0
 40
0.0
 40
0.0190346606
 40
0.037456202
 40
0.0632408001
 40
0.1392813975
 40
0.2498200768
 40
0.3955867444
 40
0.5731998838
 40
0.777453237
 40
1.0
 40
1.0
 40
1.0
 40
1.0
 10
36.4303970303
 20
96.6459233135
 30
0.0
 10
36.4295397283
 20
96.6459231356
 30
0.0
 10
36.4283646437
 20
96.6441381271
 30
0.0
 10
36.4273755516
 20
96.641649886
 30
0.0
 10
36.4258379524
 20
96.6363520557
 30
0.0
 10
36.4241562323
 20
96.6269930287
 30
0.0
 10
36.4222419046
 20
96.6121117125
 30
0.0
 10
36.4204910847
 20
96.5926563638
 30
0.0
 10
36.4189150106
 20
96.5689386354
 30
0.0
 10
36.4176388698
 20
96.5417465193
 30
0.0
 10
36.4170216772
 20
96.5225327309
 30
0.0
 10
36.4167659188
 20
96.5125127121
 30
0.0
  0
SPLINE
  5
3B5
100
AcDbEntity
  8
0
100
AcDbSpline
 62
7
  6
CONTINUOUS
 70
0
 71
3
 72
18
 73
14
 74
0
 42
0.0000001
 43
0.0000001
 44
0.0000000001
 40
0.0
 40
0.0
 40
0.0
 40
0.0
 40
0.1940720246
 40
0.3810785358
 40
0.5532382496
 40
0.704174601
 40
0.8282244347
 40
0.8786029082
 40
0.9206112362
 40
0.9538570879
 40
0.9780610493
 40
0.9932099392
 40
1.0
 40
1.0
 40
1.0
 40
1.0
 10
36.420997351
 20
99.6459182195
 30
0.0
 10
36.42096753
 20
99.6329231085
 30
0.0
 10
36.4210829505
 20
99.6074053887
 30
0.0
 10
36.4216209496
 20
99.5703641215
 30
0.0
 10
36.4224382354
 20
99.5362154771
 30
0.0
 10
36.4235760436
 20
99.50629771
 30
0.0
 10
36.4248035994
 20
99.4845368421
 30
0.0
 10
36.4259533775
 20
99.4700994704
 30
0.0
 10
36.4268153587
 20
99.46170757
 30
0.0
 10
36.4276728711
 20
99.4551628238
 30
0.0
 10
36.4286494732
 20
99.4502493032
 30
0.0
 10
36.4293924615
 20
99.4475301423
 30
0.0
 10
36.430297408
 20
99.4459183748
 30
0.0
 10
36.4307520733
 20
99.4459185056
 30
0.0
  0
SPLINE
  5
3B6
100
AcDbEntity
  8
0
100
AcDbSpline
 62
7
  6
CONTINUOUS
 70
0
 71
3
 72
15
 73
11
 74
0
 42
0.0000001
 43
0.0000001
 44
0.0000000001
 40
0.0
 40
0.0
 40
0.0
 40
0.0
 40
0.1569806151
 40
0.309082509
 40
0.4528298493
 40
0.5855949068
 40
0.7056900665
 40
0.8131123427
 40
0.9094879833
 40
1.0
 40
1.0
 40
1.0
 40
1.0
 10
48.6355883078
 20
12.0140291953
 30
0.0
 10
48.6667212279
 20
12.0152426357
 30
0.0
 10
48.7279691359
 20
12.0204448512
 30
0.0
 10
48.8163309032
 20
12.0379349559
 30
0.0
 10
48.8973570596
 20
12.0646088957
 30
0.0
 10
48.9683471259
 20
12.099267349
 30
0.0
 10
49.0269628543
 20
12.1409220024
 30
0.0
 10
49.0709902767
 20
12.188525353
 30
0.0
 10
49.0989758804
 20
12.240676503
 30
0.0
 10
49.1054000316
 20
12.2780355676
 30
0.0
 10
49.1053973192
 20
12.2959998426
 30
0.0
  0
SPLINE
  5
3B7
100
AcDbEntity
  8
0
100
AcDbSpline
 62
7
  6
CONTINUOUS
 70
0
 71
3
 72
17
 73
13
 74
0
 42
0.0000001
 43
0.0000001
 44
0.0000000001
 40
0.0
 40
0.0
 40
0.0
 40
0.0
 40
0.2158981661
 40
0.4104410509
 40
0.5802722892
 40
0.7231356422
 40
0.8372387262
 40
0.8830717949
 40
0.9212204079
 40
0.951602371
 40
0.9743834349
 40
1.0
 40
1.0
 40
1.0
 40
1.0
 10
31.6752247989
 20
12.0139928272
 30
0.0
 10
31.6760486216
 20
11.9980124258
 30
0.0
 10
31.6778010567
 20
11.9676415123
 30
0.0
 10
31.680868885
 20
11.9247415337
 30
0.0
 10
31.6841338379
 20
11.8872880332
 30
0.0
 10
31.6877090679
 20
11.8558479316
 30
0.0
 10
31.6912570285
 20
11.8336849553
 30
0.0
 10
31.6943600795
 20
11.8193125683
 30
0.0
 10
31.6964833061
 20
11.8111455872
 30
0.0
 10
31.6986482766
 20
11.8046087566
 30
0.0
 10
31.7008373929
 20
11.7995256868
 30
0.0
 10
31.7034985291
 20
11.7959185005
 30
0.0
 10
31.7053971387
 20
11.7959206851
 30
0.0
  0
SPLINE
  5
3B8
100
AcDbEntity
  8
0
100
AcDbSpline
 62
7
  6
CONTINUOUS
 70
0
 71
3
 72
15
 73
11
 74
0
 42
0.0000001
 43
0.0000001
 44
0.0000000001
 40
0.0
 40
0.0
 40
0.0
 40
0.0
 40
0.258165924
 40
0.385932354
 40
0.5127381043
 40
0.6384079057
 40
0.7625536807
 40
0.8842809892
 40
0.9434217242
 40
1.0
 40
1.0
 40
1.0
 40
1.0
 10
48.7382091809
 20
23.045930158
 30
0.0
 10
48.7304875432
 20
22.0965126895
 30
0.0
 10
48.7177467969
 20
20.6772380773
 30
0.0
 10
48.7009077768
 20
18.7916321811
 30
0.0
 10
48.6882876179
 20
17.3932849006
 30
0.0
 10
48.6757575736
 20
16.0082528866
 30
0.0
 10
48.6629695831
 20
14.6419009893
 30
0.0
 10
48.6524758451
 20
13.5202098487
 30
0.0
 10
48.6434401929
 20
12.6470078389
 30
0.0
 10
48.6385478284
 20
12.2214588531
 30
0.0
 10
48.6356238227
 20
12.0134032165
 30
0.0
  0
SPLINE
  5
3B9
100
AcDbEntity
  8
0
100
AcDbSpline
 62
7
  6
CONTINUOUS
 70
0
 71
3
 72
11
 73
7
 74
0
 42
0.0000001
 43
0.0000001
 44
0.0000000001
 40
0.0
 40
0.0
 40
0.0
 40
0.0
 40
0.249853398
 40
0.4999999956
 40
0.7501465957
 40
1.0
 40
1.0
 40
1.0
 40
1.0
 10
31.6752247989
 20
12.0139928272
 30
0.0
 10
33.0877372982
 20
12.0045631632
 30
0.0
 10
35.9144621737
 20
11.9920259866
 30
0.0
 10
40.1554095695
 20
11.9853272434
 30
0.0
 10
44.3963570024
 20
11.9920275605
 30
0.0
 10
47.2230819121
 20
12.0045674706
 30
0.0
 10
48.6355944494
 20
12.0139967084
 30
0.0
  0
SPLINE
  5
3BA
100
AcDbEntity
  8
0
100
AcDbSpline
 62
7
  6
CONTINUOUS
 70
0
 71
3
 72
14
 73
10
 74
0
 42
0.0000001
 43
0.0000001
 44
0.0000000001
 40
0.0
 40
0.0
 40
0.0
 40
0.0
 40
0.3088617065
 40
0.4526969038
 40
0.585550297
 40
0.7057327157
 40
0.8131195031
 40
0.9097633286
 40
1.0
 40
1.0
 40
1.0
 40
1.0
 10
31.675230966
 20
12.0140200992
 30
0.0
 10
31.6140033213
 20
12.0161480403
 30
0.0
 10
31.5240345979
 20
12.028432322
 30
0.0
 10
31.413448328
 20
12.0647358056
 30
0.0
 10
31.3424357795
 20
12.0994094179
 30
0.0
 10
31.2838736625
 20
12.1410861442
 30
0.0
 10
31.2397241186
 20
12.1886285714
 30
0.0
 10
31.2118943554
 20
12.2408127698
 30
0.0
 10
31.2053937652
 20
12.2781228201
 30
0.0
 10
31.2053973365
 20
12.2960218162
 30
0.0
  0
SPLINE
  5
3BB
100
AcDbEntity
  8
0
100
AcDbSpline
 62
7
  6
CONTINUOUS
 70
0
 71
3
 72
16
 73
12
 74
0
 42
0.0000001
 43
0.0000001
 44
0.0000000001
 40
0.0
 40
0.0
 40
0.0
 40
0.0
 40
0.4102528272
 40
0.5800737221
 40
0.7229261623
 40
0.8369208262
 40
0.8826810619
 40
0.9207849839
 40
0.9511952436
 40
0.9740829467
 40
1.0
 40
1.0
 40
1.0
 40
1.0
 10
48.6355883078
 20
12.0140291953
 30
0.0
 10
48.6340788121
 20
11.9836486343
 30
0.0
 10
48.6314659436
 20
11.9407078836
 30
0.0
 10
48.6266177318
 20
11.8873239298
 30
0.0
 10
48.6229316467
 20
11.8558964369
 30
0.0
 10
48.6195077359
 20
11.8337223783
 30
0.0
 10
48.6165232872
 20
11.8193370235
 30
0.0
 10
48.6144515958
 20
11.8111582317
 30
0.0
 10
48.6122790667
 20
11.8046159573
 30
0.0
 10
48.6100264357
 20
11.7995135999
 30
0.0
 10
48.6073148983
 20
11.7959196798
 30
0.0
 10
48.6053932887
 20
11.7959185459
 30
0.0
  0
SPLINE
  5
3BC
100
AcDbEntity
  8
0
100
AcDbSpline
 62
7
  6
CONTINUOUS
 70
0
 71
3
 72
19
 73
15
 74
0
 42
0.0000001
 43
0.0000001
 44
0.0000000001
 40
0.0
 40
0.0
 40
0.0
 40
0.0
 40
0.1295254875
 40
0.2581805365
 40
0.3221797817
 40
0.3859517545
 40
0.4494848542
 40
0.5127619273
 40
0.5757574874
 40
0.6384366204
 40
0.7007394985
 40
0.7625895396
 40
0.8843129948
 40
1.0
 40
1.0
 40
1.0
 40
1.0
 10
31.5725761053
 20
23.04593061
 30
0.0
 10
31.576503216
 20
22.5696223838
 30
0.0
 10
31.5845489175
 20
21.6202085801
 30
0.0
 10
31.5952782835
 20
20.4354548346
 30
0.0
 10
31.6035695991
 20
19.4924947034
 30
0.0
 10
31.6098932607
 20
18.7890097115
 30
0.0
 10
31.6163090919
 20
18.0881814208
 30
0.0
 10
31.6224095902
 20
17.3902056258
 30
0.0
 10
31.6289145773
 20
16.6953740518
 30
0.0
 10
31.63518103
 20
16.0041230072
 30
0.0
 10
31.6414374337
 20
15.3170846692
 30
0.0
 10
31.6499660682
 20
14.4129249442
 30
0.0
 10
31.6603518692
 20
13.3124573277
 30
0.0
 10
31.6693621495
 20
12.4394340944
 30
0.0
 10
31.6752307267
 20
12.0140405816
 30
0.0
  0
SPLINE
  5
3BD
100
AcDbEntity
  8
0
100
AcDbSpline
 62
7
  6
CONTINUOUS
 70
0
 71
3
 72
18
 73
14
 74
0
 42
0.0000001
 43
0.0000001
 44
0.0000000001
 40
0.0
 40
0.0
 40
0.0
 40
0.0
 40
0.1941183286
 40
0.3811612083
 40
0.5533530061
 40
0.7043298937
 40
0.8284139283
 40
0.8787978223
 40
0.9208019806
 40
0.954031018
 40
0.9781993276
 40
0.9932917536
 40
1.0
 40
1.0
 40
1.0
 40
1.0
 10
36.4209964321
 20
25.2159188037
 30
0.0
 10
36.4209689978
 20
25.228913903
 30
0.0
 10
36.4210827805
 20
25.254431019
 30
0.0
 10
36.4216229045
 20
25.2914710994
 30
0.0
 10
36.4224528887
 20
25.3256185521
 30
0.0
 10
36.4235842463
 20
25.3555363278
 30
0.0
 10
36.4247870217
 20
25.3772987573
 30
0.0
 10
36.4259037539
 20
25.3917371144
 30
0.0
 10
36.4267370103
 20
25.400129667
 30
0.0
 10
36.4275600623
 20
25.4066708603
 30
0.0
 10
36.4284964994
 20
25.4115883619
 30
0.0
 10
36.4292043822
 20
25.4142949698
 30
0.0
 10
36.4300823078
 20
25.4159184226
 30
0.0
 10
36.430531387
 20
25.415918533
 30
0.0
  0
SPLINE
  5
3BE
100
AcDbEntity
  8
0
100
AcDbSpline
 62
7
  6
CONTINUOUS
 70
0
 71
3
 72
16
 73
12
 74
0
 42
0.0000001
 43
0.0000001
 44
0.0000000001
 40
0.0
 40
0.0
 40
0.0
 40
0.0
 40
0.009423274
 40
0.0257877054
 40
0.0841399422
 40
0.1766015845
 40
0.3002240503
 40
0.4503804533
 40
0.6214953468
 40
0.8072537364
 40
1.0
 40
1.0
 40
1.0
 40
1.0
 10
33.4301624879
 20
25.4159185462
 30
0.0
 10
33.4295271667
 20
25.4159184826
 30
0.0
 10
33.4279983517
 20
25.414649287
 30
0.0
 10
33.4257044509
 20
25.4095433174
 30
0.0
 10
33.4230831316
 20
25.3984226966
 30
0.0
 10
33.4204849381
 20
25.3801630313
 30
0.0
 10
33.4180865309
 20
25.3555542038
 30
0.0
 10
33.416074093
 20
25.3256339261
 30
0.0
 10
33.41453282
 20
25.2914786644
 30
0.0
 10
33.4136264186
 20
25.2544329882
 30
0.0
 10
33.4134156993
 20
25.2289138041
 30
0.0
 10
33.4133805269
 20
25.2159188169
 30
0.0
  0
SPLINE
  5
3BF
100
AcDbEntity
  8
0
100
AcDbSpline
 62
7
  6
CONTINUOUS
 70
0
 71
3
 72
9
 73
5
 74
0
 42
0.0000001
 43
0.0000001
 44
0.0000000001
 40
0.0
 40
0.0
 40
0.0
 40
0.0
 40
0.2497573853
 40
1.0
 40
1.0
 40
1.0
 40
1.0
 10
33.4148078064
 20
25.135740051
 30
0.0
 10
33.6651553275
 20
25.1351538527
 30
0.0
 10
34.6675185122
 20
25.1329579381
 30
0.0
 10
35.6698828937
 20
25.131309093
 30
0.0
 10
36.4218996968
 20
25.1303802272
 30
0.0
  0
SPLINE
  5
3C0
100
AcDbEntity
  8
0
100
AcDbSpline
 62
7
  6
CONTINUOUS
 70
0
 71
3
 72
16
 73
12
 74
0
 42
0.0000001
 43
0.0000001
 44
0.0000000001
 40
0.0
 40
0.0
 40
0.0
 40
0.0
 40
0.0276673001
 40
0.0487226885
 40
0.0764024405
 40
0.1546875472
 40
0.2658611813
 40
0.4106686671
 40
0.5854723417
 40
0.7847490134
 40
1.0
 40
1.0
 40
1.0
 40
1.0
 10
33.4303970477
 20
28.2159145726
 30
0.0
 10
33.4290699932
 20
28.2159145977
 30
0.0
 10
33.426879559
 20
28.2174167443
 30
0.0
 10
33.4248016814
 20
28.2203745993
 30
0.0
 10
33.4219982486
 20
28.2258333628
 30
0.0
 10
33.4188110725
 20
28.2357771903
 30
0.0
 10
33.4152894833
 20
28.2514301175
 30
0.0
 10
33.4120689747
 20
28.2718511607
 30
0.0
 10
33.4092189219
 20
28.2965805255
 30
0.0
 10
33.4069502144
 20
28.3247610608
 30
0.0
 10
33.4058801899
 20
28.3446172197
 30
0.0
 10
33.4054476126
 20
28.3549326089
 30
0.0
  0
SPLINE
  5
3C1
100
AcDbEntity
  8
0
100
AcDbSpline
 62
7
  6
CONTINUOUS
 70
0
 71
3
 72
9
 73
5
 74
0
 42
0.0000001
 43
0.0000001
 44
0.0000000001
 40
0.0
 40
0.0
 40
0.0
 40
0.0
 40
0.2508052049
 40
1.0
 40
1.0
 40
1.0
 40
1.0
 10
36.4167498686
 20
28.3499479955
 30
0.0
 10
36.1649975828
 20
28.350271407
 30
0.0
 10
35.1612215891
 20
28.3516669322
 30
0.0
 10
34.157446005
 20
28.3535188248
 30
0.0
 10
33.4054241295
 20
28.3555039769
 30
0.0
  0
LINE
  5
3C2
100
AcDbEntity
  8
0
100
AcDbLine
 62
7
  6
CONTINUOUS
 10
48.4807803535
 20
33.8163680331
 11
48.4435484408
 21
31.1489735717
  0
SPLINE
  5
3C3
100
AcDbEntity
  8
0
100
AcDbSpline
 62
7
  6
CONTINUOUS
 70
0
 71
3
 72
9
 73
5
 74
0
 42
0.0000001
 43
0.0000001
 44
0.0000000001
 40
0.0
 40
0.0
 40
0.0
 40
0.0
 40
0.4983849314
 40
1.0
 40
1.0
 40
1.0
 40
1.0
 10
31.8172549863
 20
31.148975696
 30
0.0
 10
31.8110479281
 20
31.5921045345
 30
0.0
 10
31.7984955119
 20
32.4812328537
 30
0.0
 10
31.7862576753
 20
33.3703655585
 30
0.0
 10
31.780069161
 20
33.8163672272
 30
0.0
  0
SPLINE
  5
3C4
100
AcDbEntity
  8
0
100
AcDbSpline
 62
7
  6
CONTINUOUS
 70
0
 71
3
 72
9
 73
5
 74
0
 42
0.0000001
 43
0.0000001
 44
0.0000000001
 40
0.0
 40
0.0
 40
0.0
 40
0.0
 40
0.2491163255
 40
1.0
 40
1.0
 40
1.0
 40
1.0
 10
46.8553708185
 20
28.3555036522
 30
0.0
 10
46.6053144118
 20
28.3548436934
 30
0.0
 10
45.6015400339
 20
28.3524627795
 30
0.0
 10
44.5977638733
 20
28.3509170969
 30
0.0
 10
43.844044613
 20
28.3499491854
 30
0.0
  0
SPLINE
  5
3C5
100
AcDbEntity
  8
0
100
AcDbSpline
 62
7
  6
CONTINUOUS
 70
0
 71
3
 72
9
 73
5
 74
0
 42
0.0000001
 43
0.0000001
 44
0.0000000001
 40
0.0
 40
0.0
 40
0.0
 40
0.0
 40
0.2724202481
 40
1.0
 40
1.0
 40
1.0
 40
1.0
 10
46.8474151744
 20
25.2159187929
 30
0.0
 10
46.8474151709
 20
25.2086370851
 30
0.0
 10
46.8472876481
 20
25.1819076694
 30
0.0
 10
46.8467116199
 20
25.1551795221
 30
0.0
 10
46.8459880964
 20
25.1357450067
 30
0.0
  0
SPLINE
  5
3C6
100
AcDbEntity
  8
0
100
AcDbSpline
 62
7
  6
CONTINUOUS
 70
0
 71
3
 72
34
 73
30
 74
0
 42
0.0000001
 43
0.0000001
 44
0.0000000001
 40
0.0
 40
0.0
 40
0.0
 40
0.0
 40
0.06451182
 40
0.1290367381
 40
0.1612205213
 40
0.193267991
 40
0.2251550186
 40
0.2568843522
 40
0.3197543457
 40
0.3819909025
 40
0.4129548991
 40
0.4437655244
 40
0.474448907
 40
0.5050669041
 40
0.5356254551
 40
0.5661151041
 40
0.5965681615
 40
0.6270192969
 40
0.6574696611
 40
0.6879606775
 40
0.7185478032
 40
0.7492231836
 40
0.7799680228
 40
0.8108488811
 40
0.8419359469
 40
0.8732139887
 40
0.9046527477
 40
0.9362765799
 40
1.0
 40
1.0
 40
1.0
 40
1.0
 10
46.8459880805
 20
25.1357445811
 30
0.0
 10
46.9544819044
 20
25.1359436805
 30
0.0
 10
47.1720862111
 20
25.1587499648
 30
0.0
 10
47.4321001492
 20
25.2421557941
 30
0.0
 10
47.6264463673
 20
25.3383194977
 30
0.0
 10
47.763679447
 20
25.424283138
 30
0.0
 10
47.8908807108
 20
25.5232477638
 30
0.0
 10
48.0452878709
 20
25.6699648731
 30
0.0
 10
48.209185129
 20
25.8789719914
 30
0.0
 10
48.3283530788
 20
26.114693886
 30
0.0
 10
48.3965027679
 20
26.3120494303
 30
0.0
 10
48.4327912878
 20
26.4635458825
 30
0.0
 10
48.4527814359
 20
26.6174434545
 30
0.0
 10
48.457399312
 20
26.7720892609
 30
0.0
 10
48.448123217
 20
26.9261699859
 30
0.0
 10
48.4252608493
 20
27.0785607322
 30
0.0
 10
48.3882907054
 20
27.227993108
 30
0.0
 10
48.3370117309
 20
27.3730858781
 30
0.0
 10
48.2712685356
 20
27.5123273007
 30
0.0
 10
48.1911727352
 20
27.6440897697
 30
0.0
 10
48.0986794803
 20
27.7678591707
 30
0.0
 10
47.9956645599
 20
27.8835725426
 30
0.0
 10
47.8820350332
 20
27.9897135255
 30
0.0
 10
47.7571213553
 20
28.0835433264
 30
0.0
 10
47.6223287962
 20
28.1641995092
 30
0.0
 10
47.4796470752
 20
28.2320155685
 30
0.0
 10
47.3303483468
 20
28.2864884697
 30
0.0
 10
47.1235532557
 20
28.3394765717
 30
0.0
 10
46.9625150072
 20
28.3551968725
 30
0.0
 10
46.8553472321
 20
28.3549330996
 30
0.0
  0
SPLINE
  5
3C7
100
AcDbEntity
  8
0
100
AcDbSpline
 62
7
  6
CONTINUOUS
 70
0
 71
3
 72
16
 73
12
 74
0
 42
0.0000001
 43
0.0000001
 44
0.0000000001
 40
0.0
 40
0.0
 40
0.0
 40
0.0
 40
0.2152508521
 40
0.4145271506
 40
0.5893304378
 40
0.7341376909
 40
0.8453113797
 40
0.9235968009
 40
0.9512767789
 40
0.9723324067
 40
1.0
 40
1.0
 40
1.0
 40
1.0
 10
46.8553470141
 20
28.3549278998
 30
0.0
 10
46.8549144314
 20
28.3446126788
 30
0.0
 10
46.8538444039
 20
28.3247568558
 30
0.0
 10
46.8515757123
 20
28.2965768059
 30
0.0
 10
46.8487256988
 20
28.2718478762
 30
0.0
 10
46.845505243
 20
28.25142718
 30
0.0
 10
46.8419837201
 20
28.2357744874
 30
0.0
 10
46.838796604
 20
28.2258307849
 30
0.0
 10
46.8359932313
 20
28.2203720562
 30
0.0
 10
46.8339153909
 20
28.2174142022
 30
0.0
 10
46.8317250172
 20
28.2159120108
 30
0.0
 10
46.8303979694
 20
28.2159119423
 30
0.0
  0
SPLINE
  5
3C8
100
AcDbEntity
  8
0
100
AcDbSpline
 62
7
  6
CONTINUOUS
 70
0
 71
3
 72
9
 73
5
 74
0
 42
0.0000001
 43
0.0000001
 44
0.0000000001
 40
0.0
 40
0.0
 40
0.0
 40
0.0
 40
0.2502201829
 40
1.0
 40
1.0
 40
1.0
 40
1.0
 10
43.8388942026
 20
25.1303856968
 30
0.0
 10
44.0897061974
 20
25.1306963918
 30
0.0
 10
45.0920711996
 20
25.1320656096
 30
0.0
 10
46.0944354458
 20
25.1339901174
 30
0.0
 10
46.845987138
 20
25.1357472648
 30
0.0
  0
SPLINE
  5
3C9
100
AcDbEntity
  8
0
100
AcDbSpline
 62
7
  6
CONTINUOUS
 70
0
 71
3
 72
18
 73
14
 74
0
 42
0.0000001
 43
0.0000001
 44
0.0000000001
 40
0.0
 40
0.0
 40
0.0
 40
0.0
 40
0.0067920445
 40
0.0219409662
 40
0.0461446128
 40
0.079391882
 40
0.121403
 40
0.1717840604
 40
0.2958376379
 40
0.4467795818
 40
0.6189431318
 40
0.8059367558
 40
1.0
 40
1.0
 40
1.0
 40
1.0
 10
43.8300424407
 20
25.4159185852
 30
0.0
 10
43.8304972395
 20
25.4159184099
 30
0.0
 10
43.8314022734
 20
25.4143071503
 30
0.0
 10
43.8321462314
 20
25.4115876503
 30
0.0
 10
43.8331230333
 20
25.4066743085
 30
0.0
 10
43.8339802236
 20
25.4001291412
 30
0.0
 10
43.8348414453
 20
25.3917367307
 30
0.0
 10
43.8359903033
 20
25.3772986408
 30
0.0
 10
43.8372187927
 20
25.3555370233
 30
0.0
 10
43.8383577571
 20
25.3256183531
 30
0.0
 10
43.8391728669
 20
25.2914698356
 30
0.0
 10
43.8397104438
 20
25.2544297156
 30
0.0
 10
43.8398270817
 20
25.228913413
 30
0.0
 10
43.8397972448
 20
25.2159188714
 30
0.0
  0
SPLINE
  5
3CA
100
AcDbEntity
  8
0
100
AcDbSpline
 62
7
  6
CONTINUOUS
 70
0
 71
3
 72
16
 73
12
 74
0
 42
0.0000001
 43
0.0000001
 44
0.0000000001
 40
0.0
 40
0.0
 40
0.0
 40
0.0
 40
0.1849264324
 40
0.3607001989
 40
0.5212863905
 40
0.6624376858
 40
0.7808759411
 40
0.8749034228
 40
0.912956216
 40
0.9457107198
 40
1.0
 40
1.0
 40
1.0
 40
1.0
 10
34.7609212235
 20
31.1200118173
 30
0.0
 10
34.7521637795
 20
31.1200777848
 30
0.0
 10
34.7350823346
 20
31.1206350553
 30
0.0
 10
34.7104719184
 20
31.1227410293
 30
0.0
 10
34.6880887834
 20
31.1260692346
 30
0.0
 10
34.6686518302
 20
31.1304656214
 30
0.0
 10
34.652754014
 20
31.1358068811
 30
0.0
 10
34.6420788746
 20
31.1411901743
 30
0.0
 10
34.6359481724
 20
31.1460878521
 30
0.0
 10
34.6320098055
 20
31.1505169317
 30
0.0
 10
34.6304038843
 20
31.1546448598
 30
0.0
 10
34.6303973955
 20
31.1572158676
 30
0.0
  0
LINE
  5
3CB
100
AcDbEntity
  8
0
100
AcDbLine
 62
7
  6
CONTINUOUS
 10
31.8172464885
 20
31.1489650264
 11
32.0019745601
 21
31.315918507
  0
SPLINE
  5
3CC
100
AcDbEntity
  8
0
100
AcDbSpline
 62
7
  6
CONTINUOUS
 70
0
 71
3
 72
15
 73
11
 74
0
 42
0.0000001
 43
0.0000001
 44
0.0000000001
 40
0.0
 40
0.0
 40
0.0
 40
0.0
 40
0.4013635455
 40
0.5715112993
 40
0.716292518
 40
0.8328388188
 40
0.9190563043
 40
0.9503579778
 40
0.9738590371
 40
1.0
 40
1.0
 40
1.0
 40
1.0
 10
46.846063324
 20
25.293567213
 30
0.0
 10
46.8454529162
 20
25.3102205063
 30
0.0
 10
46.8443176483
 20
25.3339267828
 30
0.0
 10
46.84195789
 20
25.3635794827
 30
0.0
 10
46.840076761
 20
25.3813890095
 30
0.0
 10
46.8379966419
 20
25.3956983214
 30
0.0
 10
46.8361045906
 20
25.4051819636
 30
0.0
 10
46.8343315536
 20
25.4108657694
 30
0.0
 10
46.833102001
 20
25.4137943197
 30
0.0
 10
46.8316143392
 20
25.415918587
 30
0.0
 10
46.8305289754
 20
25.4159185071
 30
0.0
  0
SPLINE
  5
3CD
100
AcDbEntity
  8
0
100
AcDbSpline
 62
7
  6
CONTINUOUS
 70
0
 71
3
 72
15
 73
11
 74
0
 42
0.0000001
 43
0.0000001
 44
0.0000000001
 40
0.0
 40
0.0
 40
0.0
 40
0.0
 40
0.1250041971
 40
0.2500030046
 40
0.3750024132
 40
0.5000016234
 40
0.6250009843
 40
0.7500004223
 40
0.8750002723
 40
1.0
 40
1.0
 40
1.0
 40
1.0
 10
33.4299774963
 20
25.4162365424
 30
0.0
 10
33.5214237877
 20
25.4163062374
 30
0.0
 10
33.704766716
 20
25.4347974039
 30
0.0
 10
33.9688994987
 20
25.514813738
 30
0.0
 10
34.2124013775
 20
25.6450266974
 30
0.0
 10
34.4258211725
 20
25.8201703897
 30
0.0
 10
34.6009855943
 20
26.0335816838
 30
0.0
 10
34.7311778849
 20
26.277081467
 30
0.0
 10
34.8113352315
 20
26.5411901597
 30
0.0
 10
34.8295251033
 20
26.7245713669
 30
0.0
 10
34.8295251033
 20
26.8160144153
 30
0.0
  0
SPLINE
  5
3CE
100
AcDbEntity
  8
0
100
AcDbSpline
 62
7
  6
CONTINUOUS
 70
0
 71
3
 72
15
 73
11
 74
0
 42
0.0000001
 43
0.0000001
 44
0.0000000001
 40
0.0
 40
0.0
 40
0.0
 40
0.0
 40
0.1249998485
 40
0.2499994432
 40
0.3749983693
 40
0.4999971587
 40
0.6249959145
 40
0.7499949282
 40
0.8749941529
 40
1.0
 40
1.0
 40
1.0
 40
1.0
 10
45.2295019454
 20
26.8162069945
 30
0.0
 10
45.2295019454
 20
26.7247502384
 30
0.0
 10
45.2114009952
 20
26.5413333793
 30
0.0
 10
45.1312106151
 20
26.2771851368
 30
0.0
 10
45.001015918
 20
26.0336443445
 30
0.0
 10
44.8258284544
 20
25.8202000434
 30
0.0
 10
44.6123813236
 20
25.6450207447
 30
0.0
 10
44.3688413576
 20
25.5148133502
 30
0.0
 10
44.1046754045
 20
25.4346908937
 30
0.0
 10
43.9212844783
 20
25.4164338087
 30
0.0
 10
43.829823388
 20
25.4163336726
 30
0.0
  0
SPLINE
  5
3CF
100
AcDbEntity
  8
0
100
AcDbSpline
 62
7
  6
CONTINUOUS
 70
0
 71
3
 72
16
 73
12
 74
0
 42
0.0000001
 43
0.0000001
 44
0.0000000001
 40
0.0
 40
0.0
 40
0.0
 40
0.0
 40
0.0190385606
 40
0.0374588383
 40
0.063240039
 40
0.1392658117
 40
0.2497854576
 40
0.3955304122
 40
0.5731334188
 40
0.7774023623
 40
1.0
 40
1.0
 40
1.0
 40
1.0
 10
43.8303976209
 20
28.2159137774
 30
0.0
 10
43.8312541083
 20
28.2159139529
 30
0.0
 10
43.8324285757
 20
28.2176962281
 30
0.0
 10
43.833417091
 20
28.2201815474
 30
0.0
 10
43.834953656
 20
28.2254720062
 30
0.0
 10
43.8366344328
 20
28.2348184605
 30
0.0
 10
43.838547705
 20
28.2496798715
 30
0.0
 10
43.8402980487
 20
28.2691103379
 30
0.0
 10
43.8418739919
 20
28.2927998265
 30
0.0
 10
43.8431506914
 20
28.3199629839
 30
0.0
 10
43.8437685813
 20
28.3391575305
 30
0.0
 10
43.8440247429
 20
28.3491682496
 30
0.0
  0
SPLINE
  5
3D0
100
AcDbEntity
  8
0
100
AcDbSpline
 62
7
  6
CONTINUOUS
 70
0
 71
3
 72
39
 73
35
 74
0
 42
0.0000001
 43
0.0000001
 44
0.0000000001
 40
0.0
 40
0.0
 40
0.0
 40
0.0
 40
0.0322328234
 40
0.0645821823
 40
0.0968960352
 40
0.1291474818
 40
0.1613244992
 40
0.1933740569
 40
0.2252588365
 40
0.2569757278
 40
0.3198310114
 40
0.3510510646
 40
0.3821267265
 40
0.4130552356
 40
0.4438508773
 40
0.4745359039
 40
0.505126036
 40
0.5356545712
 40
0.5661340862
 40
0.5965718174
 40
0.6270042807
 40
0.6574528755
 40
0.6879363805
 40
0.718500869
 40
0.7491650606
 40
0.7799191285
 40
0.8108009407
 40
0.8418731737
 40
0.8731435758
 40
0.9045776189
 40
0.9203610115
 40
0.9361960094
 40
0.9680269711
 40
1.0
 40
1.0
 40
1.0
 40
1.0
 10
33.4148172457
 20
25.1357419828
 30
0.0
 10
33.360582946
 20
25.1351232805
 30
0.0
 10
33.2517612566
 20
25.1410041417
 30
0.0
 10
33.0905983865
 20
25.1672384892
 30
0.0
 10
32.9326079656
 20
25.2087190981
 30
0.0
 10
32.7799500228
 20
25.266082891
 30
0.0
 10
32.6343669515
 20
25.3385373189
 30
0.0
 10
32.4971673275
 20
25.4246401888
 30
0.0
 10
32.3696927557
 20
25.5233657452
 30
0.0
 10
32.2151788294
 20
25.6700711305
 30
0.0
 10
32.0840338422
 20
25.8382740373
 30
0.0
 10
31.9796463767
 20
26.0214311333
 30
0.0
 10
31.9148339976
 20
26.1645493204
 30
0.0
 10
31.8641047544
 20
26.3124906548
 30
0.0
 10
31.828476097
 20
26.464116222
 30
0.0
 10
31.8080709033
 20
26.6179459699
 30
0.0
 10
31.8028269715
 20
26.7725750124
 30
0.0
 10
31.8121390945
 20
26.9266397249
 30
0.0
 10
31.8352228564
 20
27.0789864372
 30
0.0
 10
31.8724377437
 20
27.2283769123
 30
0.0
 10
31.9243068805
 20
27.373290929
 30
0.0
 10
31.990337946
 20
27.5124098289
 30
0.0
 10
32.0700309657
 20
27.6444313066
 30
0.0
 10
32.1621362498
 20
27.7685245266
 30
0.0
 10
32.2653014091
 20
27.8841894048
 30
0.0
 10
32.3793522866
 20
27.9899973602
 30
0.0
 10
32.5044076094
 20
28.0837423809
 30
0.0
 10
32.6391585819
 20
28.1645475703
 30
0.0
 10
32.7817020038
 20
28.2327371638
 30
0.0
 10
32.9059400916
 20
28.2782476439
 30
0.0
 10
33.0081695836
 20
28.3068092691
 30
0.0
 10
33.1124802308
 20
28.329810692
 30
0.0
 10
33.2454337744
 20
28.3482775367
 30
0.0
 10
33.3527592505
 20
28.3539424612
 30
0.0
 10
33.4065508487
 20
28.354930706
 30
0.0
  0
SPLINE
  5
3D1
100
AcDbEntity
  8
0
100
AcDbSpline
 62
7
  6
CONTINUOUS
 70
0
 71
3
 72
28
 73
24
 74
0
 42
0.0000001
 43
0.0000001
 44
0.0000000001
 40
0.0
 40
0.0
 40
0.0
 40
0.0
 40
0.0650668863
 40
0.130078037
 40
0.1946229784
 40
0.2583731684
 40
0.2899266579
 40
0.3212304294
 40
0.38305364
 40
0.4440459801
 40
0.4743220712
 40
0.5044749161
 40
0.5645147651
 40
0.6245570325
 40
0.6547177307
 40
0.6849986339
 40
0.746016115
 40
0.8079475056
 40
0.8709710336
 40
0.9029113485
 40
0.9350964517
 40
0.9675012376
 40
1.0
 40
1.0
 40
1.0
 40
1.0
 10
36.4155661298
 20
28.3491690443
 30
0.0
 10
36.5249429435
 20
28.3482288709
 30
0.0
 10
36.7442040783
 20
28.3263545247
 30
0.0
 10
37.0581337138
 20
28.2263745443
 30
0.0
 10
37.3435978869
 20
28.0666212201
 30
0.0
 10
37.54851654
 20
27.8898056141
 30
0.0
 10
37.6875069305
 20
27.7282312713
 30
0.0
 10
37.8079330719
 20
27.5563133732
 30
0.0
 10
37.9246652461
 20
27.3230752028
 30
0.0
 10
37.9943816154
 20
27.0736550907
 30
0.0
 10
38.021163499
 20
26.871034729
 30
0.0
 10
38.0284287195
 20
26.668376441
 30
0.0
 10
38.0012595642
 20
26.4156740221
 30
0.0
 10
37.9273650899
 20
26.1725271278
 30
0.0
 10
37.8419058912
 20
25.9886124703
 30
0.0
 10
37.7386963119
 20
25.8121306172
 30
0.0
 10
37.5769316979
 20
25.6094560625
 30
0.0
 10
37.3373532655
 20
25.4056908126
 30
0.0
 10
37.1051112734
 20
25.2766433253
 30
0.0
 10
36.9045051882
 20
25.2019953527
 30
0.0
 10
36.7472246567
 20
25.1609224025
 30
0.0
 10
36.5857694997
 20
25.1353641072
 30
0.0
 10
36.4765212094
 20
25.1298591776
 30
0.0
 10
36.4218915835
 20
25.1303819371
 30
0.0
  0
SPLINE
  5
3D2
100
AcDbEntity
  8
0
100
AcDbSpline
 62
7
  6
CONTINUOUS
 70
0
 71
3
 72
32
 73
28
 74
0
 42
0.0000001
 43
0.0000001
 44
0.0000000001
 40
0.0
 40
0.0
 40
0.0
 40
0.0
 40
0.0324843141
 40
0.0487164666
 40
0.0649008901
 40
0.097069267
 40
0.1289939664
 40
0.1606814396
 40
0.1920915264
 40
0.2539976415
 40
0.314989122
 40
0.3452569853
 40
0.3754069383
 40
0.4054704445
 40
0.4354826585
 40
0.4654991455
 40
0.4955694842
 40
0.5257153779
 40
0.5559714428
 40
0.5864003025
 40
0.6170326378
 40
0.6788649905
 40
0.7416481738
 40
0.805400193
 40
0.8699425545
 40
0.9349431994
 40
1.0
 40
1.0
 40
1.0
 40
1.0
 10
43.8388867153
 20
25.1303844811
 30
0.0
 10
43.7842842959
 20
25.1290071763
 30
0.0
 10
43.702157567
 20
25.1331587476
 30
0.0
 10
43.5940345432
 20
25.148045383
 30
0.0
 10
43.4872498674
 20
25.1679953447
 30
0.0
 10
43.3564135888
 20
25.2021030624
 30
0.0
 10
43.2051950401
 20
25.2582962431
 30
0.0
 10
43.0616104712
 20
25.3290116382
 30
0.0
 10
42.8829156307
 20
25.4402079029
 30
0.0
 10
42.6837522014
 20
25.6092565106
 30
0.0
 10
42.522305399
 20
25.8120638684
 30
0.0
 10
42.4190361529
 20
25.9884453854
 30
0.0
 10
42.354637179
 20
26.1265336954
 30
0.0
 10
42.3035751618
 20
26.2696281357
 30
0.0
 10
42.2665399981
 20
26.4167600521
 30
0.0
 10
42.2438093479
 20
26.5667649094
 30
0.0
 10
42.2348139311
 20
26.7184177508
 30
0.0
 10
42.2394594082
 20
26.8706870028
 30
0.0
 10
42.2588558239
 20
27.0224277272
 30
0.0
 10
42.2935287604
 20
27.1722720469
 30
0.0
 10
42.3592205297
 20
27.3684433437
 30
0.0
 10
42.4767065915
 20
27.6034758303
 30
0.0
 10
42.6720144384
 20
27.8554303652
 30
0.0
 10
42.9171422946
 20
28.0664627007
 30
0.0
 10
43.2025945443
 20
28.2263934407
 30
0.0
 10
43.5165778765
 20
28.3263080276
 30
0.0
 10
43.7358444084
 20
28.3482407713
 30
0.0
 10
43.845228286
 20
28.3491706028
 30
0.0
  0
SPLINE
  5
3D3
100
AcDbEntity
  8
0
100
AcDbSpline
 62
7
  6
CONTINUOUS
 70
0
 71
3
 72
15
 73
11
 74
0
 42
0.0000001
 43
0.0000001
 44
0.0000000001
 40
0.0
 40
0.0
 40
0.0
 40
0.0
 40
0.1745293593
 40
0.3466743736
 40
0.5087957243
 40
0.6546932295
 40
0.7790312684
 40
0.8318393415
 40
0.8780682742
 40
1.0
 40
1.0
 40
1.0
 40
1.0
 10
45.1987184498
 20
31.0905041275
 30
0.0
 10
45.1881698296
 20
31.0904188906
 30
0.0
 10
45.1672071658
 20
31.0908792198
 30
0.0
 10
45.1365340693
 20
31.0933384859
 30
0.0
 10
45.1077903688
 20
31.0974769696
 30
0.0
 10
45.0822306169
 20
31.1031292374
 30
0.0
 10
45.0636344294
 20
31.1090639014
 30
0.0
 10
45.0512135322
 20
31.1146397601
 30
0.0
 10
45.039852008
 20
31.1209457655
 30
0.0
 10
45.0304148723
 20
31.129359092
 30
0.0
 10
45.0303959972
 20
31.1367289078
 30
0.0
  0
SPLINE
  5
3D4
100
AcDbEntity
  8
0
100
AcDbSpline
 62
7
  6
CONTINUOUS
 70
0
 71
3
 72
18
 73
14
 74
0
 42
0.0000001
 43
0.0000001
 44
0.0000000001
 40
0.0
 40
0.0
 40
0.0
 40
0.0
 40
0.0256784127
 40
0.0485193174
 40
0.0789303641
 40
0.1170009084
 40
0.1627128348
 40
0.2159761308
 40
0.276641822
 40
0.4194467822
 40
0.5893004946
 40
0.7839218545
 40
1.0
 40
1.0
 40
1.0
 40
1.0
 10
31.7053416978
 20
23.0659185485
 30
0.0
 10
31.703448597
 20
23.0659175695
 30
0.0
 10
31.7007902464
 20
23.0695008902
 30
0.0
 10
31.6985711235
 20
23.0745521962
 30
0.0
 10
31.6963847832
 20
23.081044641
 30
0.0
 10
31.6942957425
 20
23.0891625982
 30
0.0
 10
31.6922339199
 20
23.0990708025
 30
0.0
 10
31.6902528057
 20
23.1106691546
 30
0.0
 10
31.6875341795
 20
23.1294035322
 30
0.0
 10
31.6843587245
 20
23.1567462111
 30
0.0
 10
31.680940156
 20
23.1939909114
 30
0.0
 10
31.6778769624
 20
23.2366837466
 30
0.0
 10
31.6761773054
 20
23.2669153208
 30
0.0
 10
31.6753833252
 20
23.2828255472
 30
0.0
  0
SPLINE
  5
3D5
100
AcDbEntity
  8
0
100
AcDbSpline
 62
7
  6
CONTINUOUS
 70
0
 71
3
 72
11
 73
7
 74
0
 42
0.0000001
 43
0.0000001
 44
0.0000000001
 40
0.0
 40
0.0
 40
0.0
 40
0.0
 40
0.2498681451
 40
0.4994859082
 40
0.7496230093
 40
1.0
 40
1.0
 40
1.0
 40
1.0
 10
41.4313550806
 20
31.315919131
 30
0.0
 10
41.4495270699
 20
31.2955819772
 30
0.0
 10
41.4858355677
 20
31.2549125975
 30
0.0
 10
41.5404571145
 20
31.1939928411
 30
0.0
 10
41.5949585365
 20
31.1328911505
 30
0.0
 10
41.6311835407
 20
31.0919969342
 30
0.0
 10
41.6494150038
 20
31.0716384625
 30
0.0
  0
SPLINE
  5
3D6
100
AcDbEntity
  8
0
100
AcDbSpline
 62
7
  6
CONTINUOUS
 70
0
 71
3
 72
11
 73
7
 74
0
 42
0.0000001
 43
0.0000001
 44
0.0000000001
 40
0.0
 40
0.0
 40
0.0
 40
0.0
 40
0.2504204174
 40
0.5005760844
 40
0.7501688594
 40
1.0
 40
1.0
 40
1.0
 40
1.0
 10
38.6114071896
 20
31.071592835
 30
0.0
 10
38.6296436222
 20
31.0919570648
 30
0.0
 10
38.6658581558
 20
31.1328773141
 30
0.0
 10
38.7203598928
 20
31.1939956468
 30
0.0
 10
38.7749842607
 20
31.2549180268
 30
0.0
 10
38.8112950743
 20
31.2955839239
 30
0.0
 10
38.8294661798
 20
31.3159202835
 30
0.0
  0
SPLINE
  5
3D7
100
AcDbEntity
  8
0
100
AcDbSpline
 62
7
  6
CONTINUOUS
 70
0
 71
3
 72
15
 73
11
 74
0
 42
0.0000001
 43
0.0000001
 44
0.0000000001
 40
0.0
 40
0.0
 40
0.0
 40
0.0
 40
0.1567820148
 40
0.3087529187
 40
0.4523632185
 40
0.5850703215
 40
0.7052091134
 40
0.8126737051
 40
0.909501874
 40
1.0
 40
1.0
 40
1.0
 40
1.0
 10
31.6753833252
 20
23.2828255472
 30
0.0
 10
31.6442378513
 20
23.283883204
 30
0.0
 10
31.5829587095
 20
23.2892245272
 30
0.0
 10
31.494601164
 20
23.3068859477
 30
0.0
 10
31.4135181279
 20
23.3335806386
 30
0.0
 10
31.3424862823
 20
23.36837766
 30
0.0
 10
31.2838957388
 20
23.4102425381
 30
0.0
 10
31.2397297343
 20
23.4580132712
 30
0.0
 10
31.2118990999
 20
23.5104535725
 30
0.0
 10
31.2054042212
 20
23.5479269076
 30
0.0
 10
31.2053973258
 20
23.5659151414
 30
0.0
  0
SPLINE
  5
3D8
100
AcDbEntity
  8
0
100
AcDbSpline
 62
7
  6
CONTINUOUS
 70
0
 71
3
 72
15
 73
11
 74
0
 42
0.0000001
 43
0.0000001
 44
0.0000000001
 40
0.0
 40
0.0
 40
0.0
 40
0.0
 40
0.1579968894
 40
0.3094287249
 40
0.4514394672
 40
0.5823685998
 40
0.7013871598
 40
0.8089093123
 40
0.9071786061
 40
1.0
 40
1.0
 40
1.0
 40
1.0
 10
48.6596931551
 20
23.2891442697
 30
0.0
 10
48.6869654295
 20
23.2924387072
 30
0.0
 10
48.7401047296
 20
23.3015087556
 30
0.0
 10
48.8158211503
 20
23.3227629411
 30
0.0
 10
48.8842203552
 20
23.3509497749
 30
0.0
 10
48.943360572
 20
23.3853000192
 30
0.0
 10
48.9916702601
 20
23.4249131419
 30
0.0
 10
49.027739952
 20
23.4689687477
 30
0.0
 10
49.0501899234
 20
23.5164318575
 30
0.0
 10
49.0553919254
 20
23.5498347426
 30
0.0
 10
49.0553973228
 20
23.5659733715
 30
0.0
  0
SPLINE
  5
3D9
100
AcDbEntity
  8
0
100
AcDbSpline
 62
7
  6
CONTINUOUS
 70
0
 71
3
 72
17
 73
13
 74
0
 42
0.0000001
 43
0.0000001
 44
0.0000000001
 40
0.0
 40
0.0
 40
0.0
 40
0.0
 40
0.0565970137
 40
0.1157018456
 40
0.1761274945
 40
0.2374175915
 40
0.3615688275
 40
0.4872429886
 40
0.6140501037
 40
0.7418253058
 40
0.870476046
 40
1.0
 40
1.0
 40
1.0
 40
1.0
 10
31.6758484577
 20
23.2828011035
 30
0.0
 10
31.6727832213
 20
23.4905576169
 30
0.0
 10
31.667815774
 20
23.9152948322
 30
0.0
 10
31.6612546995
 20
24.5618609837
 30
0.0
 10
31.6548066506
 20
25.2256588214
 30
0.0
 10
31.6462370631
 20
26.1282457025
 30
0.0
 10
31.6356364828
 20
27.270364661
 30
0.0
 10
31.6230024957
 20
28.6530013312
 30
0.0
 10
31.6103525834
 20
30.0489427297
 30
0.0
 10
31.5977372933
 20
31.4558125115
 30
0.0
 10
31.5852309243
 20
32.8726577211
 30
0.0
 10
31.5767880586
 20
33.8204318231
 30
0.0
 10
31.5726143693
 20
34.2959222299
 30
0.0
  0
SPLINE
  5
3DA
100
AcDbEntity
  8
0
100
AcDbSpline
 62
7
  6
CONTINUOUS
 70
0
 71
3
 72
18
 73
14
 74
0
 42
0.0000001
 43
0.0000001
 44
0.0000000001
 40
0.0
 40
0.0
 40
0.0
 40
0.0
 40
0.1295228016
 40
0.2581727117
 40
0.3859467747
 40
0.5127526122
 40
0.6384256741
 40
0.7625760814
 40
0.8238663699
 40
0.8842927142
 40
0.9433966993
 40
0.9721736641
 40
1.0
 40
1.0
 40
1.0
 40
1.0
 10
48.6881974761
 20
34.2959225586
 30
0.0
 10
48.684020078
 20
33.8204652443
 30
0.0
 10
48.6755769846
 20
32.8727558872
 30
0.0
 10
48.6630724374
 20
31.4560080256
 30
0.0
 10
48.6504553723
 20
30.0492354778
 30
0.0
 10
48.6378041616
 20
28.6533916385
 30
0.0
 10
48.6251748032
 20
27.2708505145
 30
0.0
 10
48.6145532662
 20
26.1288074008
 30
0.0
 10
48.6060254668
 20
25.2262745886
 30
0.0
 10
48.5995622061
 20
24.5625171314
 30
0.0
 10
48.5939688148
 20
24.0181125442
 30
0.0
 10
48.5891620794
 20
23.5933806208
 30
0.0
 10
48.5865030723
 20
23.3856076586
 30
0.0
 10
48.5849702864
 20
23.2834692256
 30
0.0
  0
SPLINE
  5
3DB
100
AcDbEntity
  8
0
100
AcDbSpline
 62
7
  6
CONTINUOUS
 70
0
 71
3
 72
19
 73
15
 74
0
 42
0.0000001
 43
0.0000001
 44
0.0000000001
 40
0.0
 40
0.0
 40
0.0
 40
0.0
 40
0.1105439583
 40
0.2160587779
 40
0.316044006
 40
0.410221937
 40
0.5799374621
 40
0.7228348693
 40
0.8369613853
 40
0.8827261016
 40
0.9207998973
 40
0.951194869
 40
0.9740786515
 40
1.0
 40
1.0
 40
1.0
 40
1.0
 10
48.5854774861
 20
23.2834831412
 30
0.0
 10
48.5850699653
 20
23.2753183449
 30
0.0
 10
48.5839650066
 20
23.2593771147
 30
0.0
 10
48.5822984814
 20
23.2360646929
 30
0.0
 10
48.5810141202
 20
23.2139397025
 30
0.0
 10
48.5792192159
 20
23.1870895075
 30
0.0
 10
48.5766456397
 20
23.1571141753
 30
0.0
 10
48.5730171372
 20
23.1257545061
 30
0.0
 10
48.5694796754
 20
23.1036438806
 30
0.0
 10
48.5664962786
 20
23.089290045
 30
0.0
 10
48.56445944
 20
23.0811287478
 30
0.0
 10
48.5623293277
 20
23.074595277
 30
0.0
 10
48.560095326
 20
23.0695005217
 30
0.0
 10
48.5573855527
 20
23.065917621
 30
0.0
 10
48.5554686142
 20
23.0659185505
 30
0.0
  0
SPLINE
  5
3DC
100
AcDbEntity
  8
0
100
AcDbSpline
 62
7
  6
CONTINUOUS
 70
0
 71
3
 72
34
 73
30
 74
0
 42
0.0000001
 43
0.0000001
 44
0.0000000001
 40
0.0
 40
0.0
 40
0.0
 40
0.0
 40
0.0602855452
 40
0.1207638717
 40
0.1817023934
 40
0.2124796888
 40
0.2434769418
 40
0.274715032
 40
0.3062299561
 40
0.3380097322
 40
0.3700087438
 40
0.4022355324
 40
0.4346924488
 40
0.4672973604
 40
0.4999861667
 40
0.532673411
 40
0.5652789049
 40
0.5977470834
 40
0.6299851214
 40
0.6619645324
 40
0.6937359815
 40
0.7252544704
 40
0.7564857595
 40
0.787471029
 40
0.8182465435
 40
0.8488227602
 40
0.8792386713
 40
0.9397111693
 40
1.0
 40
1.0
 40
1.0
 40
1.0
 10
38.5256226114
 20
26.7391934254
 30
0.0
 10
38.5256325572
 20
26.6377927561
 30
0.0
 10
38.5450214376
 20
26.4341310139
 30
0.0
 10
38.6314443316
 20
26.1392101323
 30
0.0
 10
38.7489760183
 20
25.9099051029
 30
0.0
 10
38.8683111199
 20
25.7411837768
 30
0.0
 10
38.9707299556
 20
25.6225652256
 30
0.0
 10
39.0855790633
 20
25.514108544
 30
0.0
 10
39.2118708887
 20
25.4170815535
 30
0.0
 10
39.3477030227
 20
25.331585072
 30
0.0
 10
39.4918946769
 20
25.25831402
 30
0.0
 10
39.6440948877
 20
25.2001332615
 30
0.0
 10
39.802698305
 20
25.1585631649
 30
0.0
 10
39.9655864972
 20
25.1340552397
 30
0.0
 10
40.130482867
 20
25.1263586691
 30
0.0
 10
40.2953364305
 20
25.1346896493
 30
0.0
 10
40.4582170029
 20
25.1591991561
 30
0.0
 10
40.6170014192
 20
25.2001432794
 30
0.0
 10
40.7695123954
 20
25.2575864032
 30
0.0
 10
40.9135170188
 20
25.3312606145
 30
0.0
 10
41.0487456354
 20
25.4176076474
 30
0.0
 10
41.1750395382
 20
25.5145404496
 30
0.0
 10
41.2902434037
 20
25.6225995572
 30
0.0
 10
41.3925921783
 20
25.7412401668
 30
0.0
 10
41.4822907253
 20
25.8683069499
 30
0.0
 10
41.5592649874
 20
26.0023700095
 30
0.0
 10
41.6439029263
 20
26.1886068086
 30
0.0
 10
41.7156997087
 20
26.4341892027
 30
0.0
 10
41.7351426845
 20
26.6377868258
 30
0.0
 10
41.7351722694
 20
26.7391930174
 30
0.0
  0
SPLINE
  5
3DD
100
AcDbEntity
  8
0
100
AcDbSpline
 62
7
  6
CONTINUOUS
 70
0
 71
3
 72
15
 73
11
 74
0
 42
0.0000001
 43
0.0000001
 44
0.0000000001
 40
0.0
 40
0.0
 40
0.0
 40
0.0
 40
0.1723606148
 40
0.3457138088
 40
0.5099476357
 40
0.6558414369
 40
0.776344759
 40
0.8708902476
 40
0.9425787565
 40
1.0
 40
1.0
 40
1.0
 40
1.0
 10
41.7351722694
 20
26.7391930174
 30
0.0
 10
41.7218026613
 20
26.7390703139
 30
0.0
 10
41.6949680375
 20
26.7398782889
 30
0.0
 10
41.6555902869
 20
26.744117065
 30
0.0
 10
41.6187869925
 20
26.751623949
 30
0.0
 10
41.5868381997
 20
26.7616674007
 30
0.0
 10
41.5615201198
 20
26.773902863
 30
0.0
 10
41.5435068424
 20
26.7872711694
 30
0.0
 10
41.5328302689
 20
26.8013759347
 30
0.0
 10
41.5303912427
 20
26.8114642571
 30
0.0
 10
41.5303912268
 20
26.8159184757
 30
0.0
  0
SPLINE
  5
3DE
100
AcDbEntity
  8
0
100
AcDbSpline
 62
7
  6
CONTINUOUS
 70
0
 71
3
 72
28
 73
24
 74
0
 42
0.0000001
 43
0.0000001
 44
0.0000000001
 40
0.0
 40
0.0
 40
0.0
 40
0.0
 40
0.0601252338
 40
0.1206338428
 40
0.1817572808
 40
0.2437158903
 40
0.275074722
 40
0.3066758477
 40
0.3385034035
 40
0.3705243285
 40
0.4027362382
 40
0.4351122979
 40
0.5000564909
 40
0.5650014626
 40
0.6295050132
 40
0.6615153019
 40
0.6933434537
 40
0.724949532
 40
0.7563035933
 40
0.8182489168
 40
0.8793661657
 40
0.9398732397
 40
1.0
 40
1.0
 40
1.0
 40
1.0
 10
41.7351722551
 20
26.7391932179
 30
0.0
 10
41.7351905398
 20
26.8402034448
 30
0.0
 10
41.7161608218
 20
27.0433813933
 30
0.0
 10
41.6306105697
 20
27.3383536596
 30
0.0
 10
41.4890554431
 20
27.6144860729
 30
0.0
 10
41.3274135164
 20
27.8197723475
 30
0.0
 10
41.1741987439
 20
27.9636206383
 30
0.0
 10
41.0476863635
 20
28.0607582823
 30
0.0
 10
40.9116191484
 20
28.1460531819
 30
0.0
 10
40.7669675503
 20
28.2182254148
 30
0.0
 10
40.6146534401
 20
28.2751827765
 30
0.0
 10
40.4036266917
 20
28.3297327009
 30
0.0
 10
40.130267794
 20
28.3559639047
 30
0.0
 10
39.8032885099
 20
28.3240686221
 30
0.0
 10
39.5420844536
 20
28.2429235966
 30
0.0
 10
39.3490675229
 20
28.1460800948
 30
0.0
 10
39.2132665538
 20
28.060379158
 30
0.0
 10
39.0866663772
 20
27.9633908517
 30
0.0
 10
38.9331251819
 20
27.8199028971
 30
0.0
 10
38.7717547268
 20
27.6144060383
 30
0.0
 10
38.6302876732
 20
27.3383146209
 30
0.0
 10
38.5445598445
 20
27.0433983179
 30
0.0
 10
38.5255710205
 20
26.8402059429
 30
0.0
 10
38.5256225904
 20
26.7391931631
 30
0.0
  0
SPLINE
  5
3DF
100
AcDbEntity
  8
0
100
AcDbSpline
 62
7
  6
CONTINUOUS
 70
0
 71
3
 72
15
 73
11
 74
0
 42
0.0000001
 43
0.0000001
 44
0.0000000001
 40
0.0
 40
0.0
 40
0.0
 40
0.0
 40
0.1219385053
 40
0.1681693793
 40
0.2209792381
 40
0.3453190188
 40
0.491216185
 40
0.6533349032
 40
0.8254755067
 40
1.0
 40
1.0
 40
1.0
 40
1.0
 10
35.2303982676
 20
31.1367221152
 30
0.0
 10
35.2303770037
 20
31.1293521354
 30
0.0
 10
35.2209403295
 20
31.1209400806
 30
0.0
 10
35.2095781514
 20
31.114634361
 30
0.0
 10
35.1971571844
 20
31.1090590774
 30
0.0
 10
35.1785611693
 20
31.1031252339
 30
0.0
 10
35.1530023239
 20
31.097473392
 30
0.0
 10
35.1242600603
 20
31.0933344003
 30
0.0
 10
35.0935883242
 20
31.0908786002
 30
0.0
 10
35.0726269095
 20
31.0904209493
 30
0.0
 10
35.0620789259
 20
31.0905061734
 30
0.0
  0
SPLINE
  5
3E0
100
AcDbEntity
  8
0
100
AcDbSpline
 62
7
  6
CONTINUOUS
 70
0
 71
3
 72
15
 73
11
 74
0
 42
0.0000001
 43
0.0000001
 44
0.0000000001
 40
0.0
 40
0.0
 40
0.0
 40
0.0
 40
0.1589319727
 40
0.3228647286
 40
0.4834708037
 40
0.6311143472
 40
0.7575021106
 40
0.8593143084
 40
0.9373775781
 40
1.0
 40
1.0
 40
1.0
 40
1.0
 10
38.5256225904
 20
26.7391931631
 30
0.0
 10
38.5379487117
 20
26.7390800408
 30
0.0
 10
38.5630044731
 20
26.7397461536
 30
0.0
 10
38.6003575142
 20
26.7434632478
 30
0.0
 10
38.636392065
 20
26.7502620154
 30
0.0
 10
38.6688266871
 20
26.7597341251
 30
0.0
 10
38.6955109726
 20
26.7717412837
 30
0.0
 10
38.7152618128
 20
26.7852731195
 30
0.0
 10
38.7274518095
 20
26.8000824416
 30
0.0
 10
38.7304034792
 20
26.8110614541
 30
0.0
 10
38.7304034768
 20
26.8159184005
 30
0.0
  0
LINE
  5
3E1
100
AcDbEntity
  8
0
100
AcDbLine
 62
7
  6
CONTINUOUS
 10
48.2588223638
 20
31.3159182113
 11
48.4435607751
 21
31.1489649953
  0
SPLINE
  5
3E2
100
AcDbEntity
  8
0
100
AcDbSpline
 62
7
  6
CONTINUOUS
 70
0
 71
3
 72
16
 73
12
 74
0
 42
0.0000001
 43
0.0000001
 44
0.0000000001
 40
0.0
 40
0.0
 40
0.0
 40
0.0
 40
0.0542914742
 40
0.0870495842
 40
0.1251062671
 40
0.2191394147
 40
0.3375785256
 40
0.4787255229
 40
0.6393066582
 40
0.8150780173
 40
1.0
 40
1.0
 40
1.0
 40
1.0
 10
45.6303975158
 20
31.1572137919
 30
0.0
 10
45.6303900998
 20
31.1546427553
 30
0.0
 10
45.6287825826
 20
31.1505153628
 30
0.0
 10
45.6248430671
 20
31.146086981
 30
0.0
 10
45.618711285
 20
31.1411900308
 30
0.0
 10
45.6080356605
 20
31.1358075199
 30
0.0
 10
45.5921380342
 20
31.1304668795
 30
0.0
 10
45.5727020425
 20
31.1260706862
 30
0.0
 10
45.5503200529
 20
31.1227428192
 30
0.0
 10
45.5257108351
 20
31.1206376193
 30
0.0
 10
45.5086301988
 20
31.120080617
 30
0.0
 10
45.499873213
 20
31.1200146485
 30
0.0
  0
SPLINE
  5
3E3
100
AcDbEntity
  8
0
100
AcDbSpline
 62
7
  6
CONTINUOUS
 70
0
 71
3
 72
16
 73
12
 74
0
 42
0.0000001
 43
0.0000001
 44
0.0000000001
 40
0.0
 40
0.0
 40
0.0
 40
0.0
 40
0.2225957897
 40
0.4268636247
 40
0.6044662593
 40
0.7502114211
 40
0.8607317169
 40
0.9367584042
 40
0.9625400855
 40
0.9809608372
 40
1.0
 40
1.0
 40
1.0
 40
1.0
 10
36.4167698576
 20
28.3491669905
 30
0.0
 10
36.4170260104
 20
28.3391562525
 30
0.0
 10
36.4176438824
 20
28.319961643
 30
0.0
 10
36.4189205527
 20
28.2927983572
 30
0.0
 10
36.4204964654
 20
28.269108682
 30
0.0
 10
36.4222467849
 20
28.2496779926
 30
0.0
 10
36.4241600281
 20
28.2348163438
 30
0.0
 10
36.4258407983
 20
28.2254696974
 30
0.0
 10
36.4273773324
 20
28.2201790861
 30
0.0
 10
36.4283658664
 20
28.2176936663
 30
0.0
 10
36.4295402601
 20
28.2159112837
 30
0.0
 10
36.4303967832
 20
28.2159110366
 30
0.0
  0
SPLINE
  5
3E4
100
AcDbEntity
  8
0
100
AcDbSpline
 62
7
  6
CONTINUOUS
 70
0
 71
3
 72
15
 73
11
 74
0
 42
0.0000001
 43
0.0000001
 44
0.0000000001
 40
0.0
 40
0.0
 40
0.0
 40
0.0
 40
0.1569806151
 40
0.309082509
 40
0.4528298493
 40
0.5855949068
 40
0.7056900665
 40
0.8131123427
 40
0.9094879833
 40
1.0
 40
1.0
 40
1.0
 40
1.0
 10
31.6752063439
 20
90.3278078955
 30
0.0
 10
31.6440734237
 20
90.3265944552
 30
0.0
 10
31.5828255158
 20
90.3213922397
 30
0.0
 10
31.4944637484
 20
90.3039021349
 30
0.0
 10
31.413437592
 20
90.2772281951
 30
0.0
 10
31.3424475257
 20
90.2425697418
 30
0.0
 10
31.2838317973
 20
90.2009150885
 30
0.0
 10
31.2398043749
 20
90.1533117378
 30
0.0
 10
31.2118187712
 20
90.1011605878
 30
0.0
 10
31.2053946201
 20
90.0638015233
 30
0.0
 10
31.2053973324
 20
90.0458372483
 30
0.0
  0
SPLINE
  5
3E5
100
AcDbEntity
  8
0
100
AcDbSpline
 62
7
  6
CONTINUOUS
 70
0
 71
3
 72
17
 73
13
 74
0
 42
0.0000001
 43
0.0000001
 44
0.0000000001
 40
0.0
 40
0.0
 40
0.0
 40
0.0
 40
0.2158981661
 40
0.410441051
 40
0.5802722893
 40
0.7231356422
 40
0.8372387262
 40
0.8830717949
 40
0.9212204079
 40
0.951602371
 40
0.9743834348
 40
1.0
 40
1.0
 40
1.0
 40
1.0
 10
48.6355698527
 20
90.3278442647
 30
0.0
 10
48.6347460299
 20
90.3438246661
 30
0.0
 10
48.6329935949
 20
90.3741955794
 30
0.0
 10
48.6299257666
 20
90.4170955578
 30
0.0
 10
48.6266608137
 20
90.4545490581
 30
0.0
 10
48.6230855837
 20
90.4859891595
 30
0.0
 10
48.6195376231
 20
90.5081521358
 30
0.0
 10
48.6164345721
 20
90.5225245227
 30
0.0
 10
48.6143113455
 20
90.5306915037
 30
0.0
 10
48.612146375
 20
90.5372283343
 30
0.0
 10
48.6099572587
 20
90.542311404
 30
0.0
 10
48.6072961225
 20
90.5459185904
 30
0.0
 10
48.6053975129
 20
90.5459164058
 30
0.0
  0
SPLINE
  5
3E6
100
AcDbEntity
  8
0
100
AcDbSpline
 62
7
  6
CONTINUOUS
 70
0
 71
3
 72
15
 73
11
 74
0
 42
0.0000001
 43
0.0000001
 44
0.0000000001
 40
0.0
 40
0.0
 40
0.0
 40
0.0
 40
0.258165924
 40
0.385932354
 40
0.5127381043
 40
0.6384079057
 40
0.7625536807
 40
0.8842809892
 40
0.9434217242
 40
1.0
 40
1.0
 40
1.0
 40
1.0
 10
31.5725854708
 20
79.2959069328
 30
0.0
 10
31.5803071085
 20
80.2453244014
 30
0.0
 10
31.5930478547
 20
81.6645990136
 30
0.0
 10
31.6098868749
 20
83.5502049097
 30
0.0
 10
31.6225070337
 20
84.9485521903
 30
0.0
 10
31.6350370781
 20
86.3335842043
 30
0.0
 10
31.6478250685
 20
87.6999361016
 30
0.0
 10
31.6583188065
 20
88.8216272421
 30
0.0
 10
31.6673544587
 20
89.6948292519
 30
0.0
 10
31.6722468232
 20
90.1203782378
 30
0.0
 10
31.6751708289
 20
90.3284338743
 30
0.0
  0
SPLINE
  5
3E7
100
AcDbEntity
  8
0
100
AcDbSpline
 62
7
  6
CONTINUOUS
 70
0
 71
3
 72
11
 73
7
 74
0
 42
0.0000001
 43
0.0000001
 44
0.0000000001
 40
0.0
 40
0.0
 40
0.0
 40
0.0
 40
0.249853398
 40
0.4999999956
 40
0.7501465957
 40
1.0
 40
1.0
 40
1.0
 40
1.0
 10
48.6355698527
 20
90.3278442647
 30
0.0
 10
47.2230573534
 20
90.3372739287
 30
0.0
 10
44.3963324779
 20
90.3498111048
 30
0.0
 10
40.1553850821
 20
90.3565098475
 30
0.0
 10
35.9144376492
 20
90.3498095299
 30
0.0
 10
33.0877127395
 20
90.3372696193
 30
0.0
 10
31.6752002022
 20
90.3278403814
 30
0.0
  0
SPLINE
  5
3E8
100
AcDbEntity
  8
0
100
AcDbSpline
 62
7
  6
CONTINUOUS
 70
0
 71
3
 72
14
 73
10
 74
0
 42
0.0000001
 43
0.0000001
 44
0.0000000001
 40
0.0
 40
0.0
 40
0.0
 40
0.0
 40
0.3088617065
 40
0.4526969038
 40
0.5855502971
 40
0.7057327158
 40
0.8131195033
 40
0.9097633286
 40
1.0
 40
1.0
 40
1.0
 40
1.0
 10
48.6355636856
 20
90.3278169916
 30
0.0
 10
48.6967913303
 20
90.3256890501
 30
0.0
 10
48.7867600538
 20
90.3134047691
 30
0.0
 10
48.8973463236
 20
90.2771012853
 30
0.0
 10
48.9683588722
 20
90.242427673
 30
0.0
 10
49.0269209891
 20
90.2007509467
 30
0.0
 10
49.071070533
 20
90.1532085195
 30
0.0
 10
49.0989002963
 20
90.1010243211
 30
0.0
 10
49.1054008865
 20
90.0637142709
 30
0.0
 10
49.1053973151
 20
90.0458152747
 30
0.0
  0
SPLINE
  5
3E9
100
AcDbEntity
  8
0
100
AcDbSpline
 62
7
  6
CONTINUOUS
 70
0
 71
3
 72
16
 73
12
 74
0
 42
0.0000001
 43
0.0000001
 44
0.0000000001
 40
0.0
 40
0.0
 40
0.0
 40
0.0
 40
0.4102528272
 40
0.5800737221
 40
0.7229261623
 40
0.8369208262
 40
0.8826810619
 40
0.9207849839
 40
0.9511952436
 40
0.9740829467
 40
1.0
 40
1.0
 40
1.0
 40
1.0
 10
31.6752063439
 20
90.3278078955
 30
0.0
 10
31.6767158396
 20
90.3581884566
 30
0.0
 10
31.6793287081
 20
90.4011292073
 30
0.0
 10
31.6841769198
 20
90.4545131611
 30
0.0
 10
31.687863005
 20
90.4859406539
 30
0.0
 10
31.6912869157
 20
90.5081147125
 30
0.0
 10
31.6942713644
 20
90.5225000673
 30
0.0
 10
31.6963430558
 20
90.5306788592
 30
0.0
 10
31.6985155849
 20
90.5372211336
 30
0.0
 10
31.7007682159
 20
90.542323491
 30
0.0
 10
31.7034797533
 20
90.5459174111
 30
0.0
 10
31.705401363
 20
90.5459185449
 30
0.0
  0
SPLINE
  5
3EA
100
AcDbEntity
  8
0
100
AcDbSpline
 62
7
  6
CONTINUOUS
 70
0
 71
3
 72
19
 73
15
 74
0
 42
0.0000001
 43
0.0000001
 44
0.0000000001
 40
0.0
 40
0.0
 40
0.0
 40
0.0
 40
0.1295254875
 40
0.2581805365
 40
0.3221797817
 40
0.3859517545
 40
0.4494848542
 40
0.5127619274
 40
0.5757574874
 40
0.6384366204
 40
0.7007394985
 40
0.7625895396
 40
0.8843129948
 40
1.0
 40
1.0
 40
1.0
 40
1.0
 10
48.7382185463
 20
79.2959064808
 30
0.0
 10
48.7342914356
 20
79.7722147071
 30
0.0
 10
48.7262457341
 20
80.7216285109
 30
0.0
 10
48.7155163681
 20
81.9063822566
 30
0.0
 10
48.7072250525
 20
82.8493423879
 30
0.0
 10
48.700901391
 20
83.5528273798
 30
0.0
 10
48.6944855598
 20
84.2536556706
 30
0.0
 10
48.6883850615
 20
84.9516314657
 30
0.0
 10
48.6818800743
 20
85.6464630397
 30
0.0
 10
48.6756136216
 20
86.3377140844
 30
0.0
 10
48.6693572179
 20
87.0247524224
 30
0.0
 10
48.6608285834
 20
87.9289121476
 30
0.0
 10
48.6504427824
 20
89.0293797641
 30
0.0
 10
48.6414325021
 20
89.9024029974
 30
0.0
 10
48.6355639249
 20
90.3277965103
 30
0.0
  0
SPLINE
  5
3EB
100
AcDbEntity
  8
0
100
AcDbSpline
 62
7
  6
CONTINUOUS
 70
0
 71
3
 72
17
 73
13
 74
0
 42
0.0000001
 43
0.0000001
 44
0.0000000001
 40
0.0
 40
0.0
 40
0.0
 40
0.0
 40
0.0258439127
 40
0.0543842039
 40
0.0874879134
 40
0.1262751747
 40
0.2224409326
 40
0.3434575368
 40
0.4865034911
 40
0.6472925078
 40
0.8206520657
 40
1.0
 40
1.0
 40
1.0
 40
1.0
 10
31.7903973015
 20
34.4959185454
 30
0.0
 10
31.7857140473
 20
34.4959185455
 30
0.0
 10
31.7758008791
 20
34.4977578005
 30
0.0
 10
31.7617390043
 20
34.5054838805
 30
0.0
 10
31.7481937549
 20
34.5178253627
 30
0.0
 10
31.7295375067
 20
34.5420324159
 30
0.0
 10
31.7087258991
 20
34.5838756079
 30
0.0
 10
31.6881166714
 20
34.6459102305
 30
0.0
 10
31.6711032633
 20
34.7211074532
 30
0.0
 10
31.6584304854
 20
34.8067104566
 30
0.0
 10
31.6506352969
 20
34.899489214
 30
0.0
 10
31.6488719021
 20
34.9634183597
 30
0.0
 10
31.6488719021
 20
34.9959185454
 30
0.0
  0
SPLINE
  5
3EC
100
AcDbEntity
  8
0
100
AcDbSpline
 62
7
  6
CONTINUOUS
 70
0
 71
3
 72
17
 73
13
 74
0
 42
0.0000001
 43
0.0000001
 44
0.0000000001
 40
0.0
 40
0.0
 40
0.0
 40
0.0
 40
0.1793479315
 40
0.3527074898
 40
0.513496503
 40
0.6565424516
 40
0.7775590488
 40
0.8737247975
 40
0.91251206
 40
0.9456157782
 40
0.9741560812
 40
1.0
 40
1.0
 40
1.0
 40
1.0
 10
48.6319227495
 20
34.9959185454
 30
0.0
 10
48.6319227495
 20
34.9634183589
 30
0.0
 10
48.6301593543
 20
34.8994892112
 30
0.0
 10
48.6223641658
 20
34.8067104513
 30
0.0
 10
48.6096913874
 20
34.7211074461
 30
0.0
 10
48.592677977
 20
34.6459102238
 30
0.0
 10
48.5720687498
 20
34.5838756029
 30
0.0
 10
48.5512571458
 20
34.5420324097
 30
0.0
 10
48.532600893
 20
34.5178253579
 30
0.0
 10
48.5190556351
 20
34.5054838778
 30
0.0
 10
48.5049937529
 20
34.4977578005
 30
0.0
 10
48.4950805813
 20
34.4959185454
 30
0.0
 10
48.4903973258
 20
34.4959185454
 30
0.0
  0
SPLINE
  5
3ED
100
AcDbEntity
  8
0
100
AcDbSpline
 62
7
  6
CONTINUOUS
 70
0
 71
3
 72
10
 73
6
 74
0
 42
0.0000001
 43
0.0000001
 44
0.0000000001
 40
0.0
 40
0.0
 40
0.0
 40
0.0
 40
0.3252796889
 40
0.6006675508
 40
1.0
 40
1.0
 40
1.0
 40
1.0
 10
47.1053973258
 20
78.2659582549
 30
0.0
 10
47.0971707369
 20
78.2699110718
 30
0.0
 10
47.0823963678
 20
78.2784155715
 30
0.0
 10
47.0609671885
 20
78.2959794023
 30
0.0
 10
47.0491696114
 20
78.3134429117
 30
0.0
 10
47.0487083166
 20
78.3246382128
 30
0.0
  0
SPLINE
  5
3EE
100
AcDbEntity
  8
0
100
AcDbSpline
 62
7
  6
CONTINUOUS
 70
0
 71
3
 72
10
 73
6
 74
0
 42
0.0000001
 43
0.0000001
 44
0.0000000001
 40
0.0
 40
0.0
 40
0.0
 40
0.0
 40
0.3993326393
 40
0.6747201609
 40
1.0
 40
1.0
 40
1.0
 40
1.0
 10
47.0487082836
 20
76.6671987938
 30
0.0
 10
47.0491695795
 20
76.6783941127
 30
0.0
 10
47.0609671545
 20
76.6958576374
 30
0.0
 10
47.082396327
 20
76.7134215313
 30
0.0
 10
47.0971707239
 20
76.7219260129
 30
0.0
 10
47.1053973258
 20
76.725878836
 30
0.0
  0
SPLINE
  5
3EF
100
AcDbEntity
  8
0
100
AcDbSpline
 62
7
  6
CONTINUOUS
 70
0
 71
3
 72
10
 73
6
 74
0
 42
0.0000001
 43
0.0000001
 44
0.0000000001
 40
0.0
 40
0.0
 40
0.0
 40
0.0
 40
0.3993331941
 40
0.6747208044
 40
1.0
 40
1.0
 40
1.0
 40
1.0
 10
33.2620861606
 20
78.3246377668
 30
0.0
 10
33.2616248692
 20
78.3134425091
 30
0.0
 10
33.2498271961
 20
78.2959791563
 30
0.0
 10
33.2283981422
 20
78.2784154532
 30
0.0
 10
33.213623855
 20
78.269911043
 30
0.0
 10
33.2053973258
 20
78.2659582549
 30
0.0
  0
SPLINE
  5
3F0
100
AcDbEntity
  8
0
100
AcDbSpline
 62
7
  6
CONTINUOUS
 70
0
 71
3
 72
10
 73
6
 74
0
 42
0.0000001
 43
0.0000001
 44
0.0000000001
 40
0.0
 40
0.0
 40
0.0
 40
0.0
 40
0.32527925
 40
0.6006671724
 40
1.0
 40
1.0
 40
1.0
 40
1.0
 10
33.2053973258
 20
76.725878836
 30
0.0
 10
33.2136238651
 20
76.721926043
 30
0.0
 10
33.2283981594
 20
76.713421592
 30
0.0
 10
33.2498272578
 20
76.6958578913
 30
0.0
 10
33.2616249017
 20
76.6783944992
 30
0.0
 10
33.2620861935
 20
76.6671992399
 30
0.0
  0
SPLINE
  5
3F1
100
AcDbEntity
  8
0
100
AcDbSpline
 62
7
  6
CONTINUOUS
 70
0
 71
3
 72
9
 73
5
 74
0
 42
0.0000001
 43
0.0000001
 44
0.0000000001
 40
0.0
 40
0.0
 40
0.0
 40
0.0
 40
0.5896447327
 40
1.0
 40
1.0
 40
1.0
 40
1.0
 10
47.0358293696
 20
76.6832872203
 30
0.0
 10
47.0363265729
 20
76.6697306408
 30
0.0
 10
47.0372840354
 20
76.6467447151
 30
0.0
 10
47.0386202006
 20
76.6237718617
 30
0.0
 10
47.039417798
 20
76.6143647528
 30
0.0
  0
SPLINE
  5
3F2
100
AcDbEntity
  8
0
100
AcDbSpline
 62
7
  6
CONTINUOUS
 70
0
 71
3
 72
11
 73
7
 74
0
 42
0.0000001
 43
0.0000001
 44
0.0000000001
 40
0.0
 40
0.0
 40
0.0
 40
0.0
 40
0.4289417595
 40
0.7372443134
 40
0.9255517849
 40
1.0
 40
1.0
 40
1.0
 40
1.0
 10
47.039417798
 20
76.6143647528
 30
0.0
 10
47.0396458692
 20
76.6116748113
 30
0.0
 10
47.0400725083
 20
76.6071492978
 30
0.0
 10
47.0408277741
 20
76.6010792918
 30
0.0
 10
47.0414897238
 20
76.5980635642
 30
0.0
 10
47.0421128083
 20
76.5959144919
 30
0.0
 10
47.042581353
 20
76.5959126802
 30
0.0
  0
SPLINE
  5
3F3
100
AcDbEntity
  8
0
100
AcDbSpline
 62
7
  6
CONTINUOUS
 70
0
 71
3
 72
11
 73
7
 74
0
 42
0.0000001
 43
0.0000001
 44
0.0000000001
 40
0.0
 40
0.0
 40
0.0
 40
0.0
 40
0.0743568085
 40
0.2626072233
 40
0.5709304513
 40
1.0
 40
1.0
 40
1.0
 40
1.0
 10
33.2682132987
 20
78.3959492294
 30
0.0
 10
33.2686803753
 20
78.3959494592
 30
0.0
 10
33.2693060892
 20
78.3938042759
 30
0.0
 10
33.2699648083
 20
78.3907968684
 30
0.0
 10
33.2707210766
 20
78.384736984
 30
0.0
 10
33.2711468791
 20
78.3802196058
 30
0.0
 10
33.2713747757
 20
78.3775340329
 30
0.0
  0
SPLINE
  5
3F4
100
AcDbEntity
  8
0
100
AcDbSpline
 62
7
  6
CONTINUOUS
 70
0
 71
3
 72
11
 73
7
 74
0
 42
0.0000001
 43
0.0000001
 44
0.0000000001
 40
0.0
 40
0.0
 40
0.0
 40
0.0
 40
0.0744485398
 40
0.2627560125
 40
0.5710584234
 40
1.0
 40
1.0
 40
1.0
 40
1.0
 10
47.042581353
 20
78.3959244083
 30
0.0
 10
47.042112821
 20
78.3959225967
 30
0.0
 10
47.0414897372
 20
78.3937736017
 30
0.0
 10
47.040827805
 20
78.3907579605
 30
0.0
 10
47.0400725467
 20
78.3846881539
 30
0.0
 10
47.0396459156
 20
78.3801627834
 30
0.0
 10
47.0394178479
 20
78.3774729277
 30
0.0
  0
SPLINE
  5
3F5
100
AcDbEntity
  8
0
100
AcDbSpline
 62
7
  6
CONTINUOUS
 70
0
 71
3
 72
10
 73
6
 74
0
 42
0.0000001
 43
0.0000001
 44
0.0000000001
 40
0.0
 40
0.0
 40
0.0
 40
0.0
 40
0.1242014455
 40
0.3296751408
 40
1.0
 40
1.0
 40
1.0
 40
1.0
 10
47.0487086097
 20
79.2613583426
 30
0.0
 10
47.0489421051
 20
79.2586983054
 30
0.0
 10
47.0539983216
 20
79.2526642318
 30
0.0
 10
47.0727105267
 20
79.2426062444
 30
0.0
 10
47.0913013389
 20
79.2375847424
 30
0.0
 10
47.1053973258
 20
79.2345850327
 30
0.0
  0
SPLINE
  5
3F6
100
AcDbEntity
  8
0
100
AcDbSpline
 62
7
  6
CONTINUOUS
 70
0
 71
3
 72
11
 73
7
 74
0
 42
0.0000001
 43
0.0000001
 44
0.0000000001
 40
0.0
 40
0.0
 40
0.0
 40
0.0
 40
0.2540212932
 40
0.5056597772
 40
0.7539854687
 40
1.0
 40
1.0
 40
1.0
 40
1.0
 10
48.6053973258
 20
75.757252059
 30
0.0
 10
48.6703520888
 20
75.757252059
 30
0.0
 10
48.8010097982
 20
75.7820797561
 30
0.0
 10
48.9670921688
 20
75.8889616018
 30
0.0
 10
49.0790640088
 20
76.0494458964
 30
0.0
 10
49.1053973577
 20
76.1773078225
 30
0.0
 10
49.1053973258
 20
76.2402152086
 30
0.0
  0
SPLINE
  5
3F7
100
AcDbEntity
  8
0
100
AcDbSpline
 62
7
  6
CONTINUOUS
 70
0
 71
3
 72
9
 73
5
 74
0
 42
0.0000001
 43
0.0000001
 44
0.0000000001
 40
0.0
 40
0.0
 40
0.0
 40
0.0
 40
0.5344047135
 40
1.0
 40
1.0
 40
1.0
 40
1.0
 10
49.0006324882
 20
74.6605641376
 30
0.0
 10
49.0330042445
 20
74.690138848
 30
0.0
 10
49.08558894
 20
74.7562525152
 30
0.0
 10
49.1053973525
 20
74.8390993731
 30
0.0
 10
49.1053973258
 20
74.877301021
 30
0.0
  0
SPLINE
  5
3F8
100
AcDbEntity
  8
0
100
AcDbSpline
 62
7
  6
CONTINUOUS
 70
0
 71
3
 72
9
 73
5
 74
0
 42
0.0000001
 43
0.0000001
 44
0.0000000001
 40
0.0
 40
0.0
 40
0.0
 40
0.0
 40
0.5899151883
 40
1.0
 40
1.0
 40
1.0
 40
1.0
 10
33.2749766025
 20
76.6835615588
 30
0.0
 10
33.2744778165
 20
76.6699326349
 30
0.0
 10
33.273517368
 20
76.6468346555
 30
0.0
 10
33.2721764157
 20
76.6237497168
 30
0.0
 10
33.271374776
 20
76.6143030583
 30
0.0
  0
SPLINE
  5
3F9
100
AcDbEntity
  8
0
100
AcDbSpline
 62
7
  6
CONTINUOUS
 70
0
 71
3
 72
11
 73
7
 74
0
 42
0.0000001
 43
0.0000001
 44
0.0000000001
 40
0.0
 40
0.0
 40
0.0
 40
0.0
 40
0.4290695158
 40
0.7373927468
 40
0.925643181
 40
1.0
 40
1.0
 40
1.0
 40
1.0
 10
33.271374776
 20
76.6143030583
 30
0.0
 10
33.2711468793
 20
76.6116174848
 30
0.0
 10
33.2707210767
 20
76.6071001053
 30
0.0
 10
33.2699648085
 20
76.601040219
 30
0.0
 10
33.269306089
 20
76.5980328105
 30
0.0
 10
33.2686803755
 20
76.5958876261
 30
0.0
 10
33.2682132987
 20
76.5958878558
 30
0.0
  0
SPLINE
  5
3FA
100
AcDbEntity
  8
0
100
AcDbSpline
 62
7
  6
CONTINUOUS
 70
0
 71
3
 72
9
 73
5
 74
0
 42
0.0000001
 43
0.0000001
 44
0.0000000001
 40
0.0
 40
0.0
 40
0.0
 40
0.0
 40
0.5881104039
 40
1.0
 40
1.0
 40
1.0
 40
1.0
 10
33.2053973258
 20
79.2345850327
 30
0.0
 10
33.2153245017
 20
79.2366975947
 30
0.0
 10
33.2320025272
 20
79.2410743257
 30
0.0
 10
33.2481699455
 20
79.2477059291
 30
0.0
 10
33.2540919349
 20
79.2516375789
 30
0.0
  0
SPLINE
  5
3FB
100
AcDbEntity
  8
0
100
AcDbSpline
 62
7
  6
CONTINUOUS
 70
0
 71
3
 72
9
 73
5
 74
0
 42
0.0000001
 43
0.0000001
 44
0.0000000001
 40
0.0
 40
0.0
 40
0.0
 40
0.0
 40
0.5910060336
 40
1.0
 40
1.0
 40
1.0
 40
1.0
 10
33.2540919349
 20
79.2516375789
 30
0.0
 10
33.256203767
 20
79.2530396389
 30
0.0
 10
33.259638502
 20
79.2556301489
 30
0.0
 10
33.2619326488
 20
79.2596108501
 30
0.0
 10
33.2620860419
 20
79.2613583426
 30
0.0
  0
SPLINE
  5
3FC
100
AcDbEntity
  8
0
100
AcDbSpline
 62
7
  6
CONTINUOUS
 70
0
 71
3
 72
9
 73
5
 74
0
 42
0.0000001
 43
0.0000001
 44
0.0000000001
 40
0.0
 40
0.0
 40
0.0
 40
0.0
 40
0.472017551
 40
1.0
 40
1.0
 40
1.0
 40
1.0
 10
31.2053973258
 20
74.8773008469
 30
0.0
 10
31.2053973258
 20
74.8434025837
 30
0.0
 10
31.2206530182
 20
74.7709963693
 30
0.0
 10
31.2621260718
 20
74.7102266838
 30
0.0
 10
31.2879861954
 20
74.6824961087
 30
0.0
  0
SPLINE
  5
3FD
100
AcDbEntity
  8
0
100
AcDbSpline
 62
7
  6
CONTINUOUS
 70
0
 71
3
 72
11
 73
7
 74
0
 42
0.0000001
 43
0.0000001
 44
0.0000000001
 40
0.0
 40
0.0
 40
0.0
 40
0.0
 40
0.2460146357
 40
0.4943403659
 40
0.7459788627
 40
1.0
 40
1.0
 40
1.0
 40
1.0
 10
31.2053973258
 20
76.240214971
 30
0.0
 10
31.2053973258
 20
76.1773086147
 30
0.0
 10
31.2317298489
 20
76.0494488602
 30
0.0
 10
31.3436982029
 20
75.8889662832
 30
0.0
 10
31.5097759915
 20
75.7820837666
 30
0.0
 10
31.6404308049
 20
75.7572536753
 30
0.0
 10
31.7053844371
 20
75.7572520581
 30
0.0
  0
ELLIPSE
  5
3FE
100
AcDbEntity
  8
0
100
AcDbEllipse
 62
7
  6
CONTINUOUS
 10
40.1403973258
 20
67.8521868842
 30
0.0
 11
30.0
 21
0.0
 31
0.0
 40
0.2679491924
 41
1.8424319572
 42
1.8577698817
  0
ELLIPSE
  5
3FF
100
AcDbEntity
  8
0
100
AcDbEllipse
 62
7
  6
CONTINUOUS
 10
31.7903973258
 20
75.43343273
 30
0.0
 11
0.5
 21
0.0
 31
0.0
 40
0.2679491924
 41
1.8577698817
 42
3.1415926536
  0
ELLIPSE
  5
400
100
AcDbEntity
  8
0
100
AcDbEllipse
 62
7
  6
CONTINUOUS
 10
40.1403973258
 20
67.8521868842
 30
0.0
 11
30.0
 21
-0.0
 31
0.0
 40
0.2679491924
 41
1.2838227719
 42
1.2991606964
  0
ELLIPSE
  5
401
100
AcDbEntity
  8
0
100
AcDbEllipse
 62
7
  6
CONTINUOUS
 10
48.4903973258
 20
75.43343273
 30
0.0
 11
0.5
 21
0.0
 31
0.0
 40
0.2679491924
 41
0.0
 42
1.2838227719
  0
ELLIPSE
  5
402
100
AcDbEntity
  8
0
100
AcDbEllipse
 62
7
  6
CONTINUOUS
 10
40.1403973258
 20
24.4754104697
 30
0.0
 11
30.0
 21
-0.0
 31
0.0
 40
0.5773502692
 41
1.7062097893
 42
1.767053777
  0
ELLIPSE
  5
403
100
AcDbEntity
  8
0
100
AcDbEllipse
 62
7
  6
CONTINUOUS
 10
47.198685764
 20
75.7257782718
 30
0.0
 11
0.15
 21
-0.0
 31
0.0
 40
0.2679491924
 41
2.2419922351
 42
3.1241393611
  0
ELLIPSE
  5
404
100
AcDbEntity
  8
0
100
AcDbEllipse
 62
7
  6
CONTINUOUS
 10
47.0425813518
 20
77.4959185454
 30
0.0
 11
0.0
 21
1.8
 31
0.0
 40
0.0174550649
 41
-0.1962746541
 42
0.0
  0
ELLIPSE
  5
405
100
AcDbEntity
  8
0
100
AcDbEllipse
 62
7
  6
CONTINUOUS
 10
33.2682132999
 20
77.4959185454
 30
0.0
 11
-0.0
 21
1.8
 31
0.0
 40
0.0174550649
 41
-0.0
 42
0.1962746541
  0
ELLIPSE
  5
406
100
AcDbEntity
  8
0
100
AcDbEllipse
 62
7
  6
CONTINUOUS
 10
33.1121088877
 20
75.7257782718
 30
0.0
 11
0.15
 21
-0.0
 31
0.0
 40
0.2679491924
 41
0.0174532925
 42
0.8996004178
  0
ENDSEC
  0
SECTION
  2
OBJECTS
  0
DICTIONARY
  5
C
100
AcDbDictionary
280
0
281
1
  3
ACAD_GROUP
350
D
  3
ACAD_MLINESTYLE
350
17
  3
ACAD_LAYOUT
350
1A
  3
ACAD_PLOTSETTINGS
350
19
  3
ACAD_PLOTSTYLENAME
350
E
  0
DICTIONARY
  5
D
102
{ACAD_REACTORS
330
C
102
}
100
AcDbDictionary
280
0
281
1
  0
ACDBDICTIONARYWDFLT
  5
E
102
{ACAD_REACTORS
330
C
102
}
100
AcDbDictionary
281
1
  3
Normal
350
F
100
AcDbDictionaryWithDefault
340
F
  0
DICTIONARY
  5
17
102
{ACAD_REACTORS
330
C
102
}
100
AcDbDictionary
280
0
281
1
  3
Standard
350
18
  0
DICTIONARY
  5
19
102
{ACAD_REACTORS
330
C
102
}
100
AcDbDictionary
281
1
  0
DICTIONARY
  5
1A
102
{ACAD_REACTORS
330
C
102
}
100
AcDbDictionary
281
1
  3
Model
350
407
  3
Layout1
350
408
  0
ACDBPLACEHOLDER
  5
F
102
{ACAD_REACTORS
330
E
102
}
  0
MLINESTYLE
  5
18
102
{ACAD_REACTORS
330
17
102
}
100
AcDbMlineStyle
  2
STANDARD
 70
0
  3

 62
256
 51
90.0
 52
90.0
 71
2
 49
0.5
 62
256
  6
BYLAYER
 49
-0.5
 62
256
  6
BYLAYER
  0
LAYOUT
  5
407
102
{ACAD_REACTORS
330
1A
102
}
100
AcDbPlotSettings
  1

  2
none_device
  4

  6

 40
0.0
 41
0.0
 42
0.0
 43
0.0
 44
210.0
 45
297.0
 46
0.0
 47
0.0
 48
0.0
 49
0.0
140
0.0
141
0.0
142
1.0
143
1.0
 70
1024
 72
1
 73
0
 74
0
  7

 75
0
147
1.0
148
0.0
149
0.0
100
AcDbLayout
  1
Model
 70
0
 71
0
 10
0.0
 20
0.0
 11
210.0
 21
297.0
 12
0.0
 22
0.0
 32
0.0
 14
0.0
 24
0.0
 34
0.0
 15
0.0
 25
0.0
 35
0.0
146
0.0
 13
0.0
 23
0.0
 33
0.0
 16
1.0
 26
0.0
 36
0.0
 17
0.0
 27
1.0
 37
0.0
 76
0
330
210
345
0
346
0
  0
LAYOUT
  5
408
102
{ACAD_REACTORS
330
1A
102
}
100
AcDbPlotSettings
  1

  2
none_device
  4

  6

 40
0.0
 41
0.0
 42
0.0
 43
0.0
 44
210.0
 45
297.0
 46
0.0
 47
0.0
 48
0.0
 49
0.0
140
0.0
141
0.0
142
1.0
143
1.0
 70
0
 72
1
 73
0
 74
0
  7

 75
0
147
1.0
148
0.0
149
0.0
100
AcDbLayout
  1
Layout1
 70
0
 71
1
 10
0.0
 20
0.0
 11
210.0
 21
297.0
 12
0.0
 22
0.0
 32
0.0
 14
0.0
 24
0.0
 34
0.0
 15
0.0
 25
0.0
 35
0.0
146
0.0
 13
0.0
 23
0.0
 33
0.0
 16
1.0
 26
0.0
 36
0.0
 17
0.0
 27
1.0
 37
0.0
 76
0
330
211
345
0
346
0
  0
ENDSEC
  0
EOF
