999
DXF file: C:\Users\sesa63760\Dev\_Creo\CAD\MCADID0004241_3D-CAD\drw0001_5.dxf
999
Pro/ENGINEER 2019471 by Parametric Technology Corporation
  0
SECTION
  2
HEADER
  9
$ACADVER
  1
AC1024
  9
$DWGCODEPAGE
  3
ANSI_1252
  9
$EXTMAX
 10
584.4977336173
 20
826.6467946874
 30
0.0
  9
$EXTMIN
 10
0.0
 20
0.0
 30
0.0
  9
$LIMMIN
 10
0.0
 20
0.0
  9
$LIMMAX
 10
584.4977336173
 20
826.6467946874
  9
$VIEWCTR
 10
292.2488668087
 20
413.3233973437
  9
$VIEWSIZE
 40
826.6467946874
  9
$CLAYER
  8
0
  9
$LTSCALE
 40
53.8851243944
  9
$CELTYPE
  6
BYLAYER
  9
$DIMSCALE
 40
1.0
  9
$DIMASZ
 40
6.9583063526
  9
$DIMEXO
 40
1.0
  9
$DIMDLI
 40
37.2297223089
  9
$DIMEXE
 40
1.0
  9
$DIMCEN
 40
8.81756581
  9
$DIMLFAC
 40
1.0
  9
$DIMBLK
  1
_FILLED
  9
$DIMALT
 70
0
  9
$DIMALTF
 40
0.0393700787
  9
$DIMTXT
 40
9.7416288936
  9
$DIMTOL
 70
1
  9
$DIMLIM
 70
0
  9
$DIMTFAC
 40
1.0
  9
$DIMTP
 40
0.01
  9
$DIMTM
 40
0.01
  9
$DIMGAP
 40
0.625
  9
$DIMDSEP
 70
46
  9
$AUNITS
 70
0
  9
$PDMODE
 70
3
  9
$PDSIZE
 40
0.3125
  9
$HANDSEED
  5
367
  9
$TILEMODE
 70
1
  9
$MEASUREMENT
 70
1
  9
$INSUNITS
 70
4
  0
ENDSEC
  0
SECTION
  2
CLASSES
  0
CLASS
  1
ACDBDICTIONARYWDFLT
  2
AcDbDictionaryWithDefault
  3
AutoCAD 2000
 90
0
 91
1
280
0
281
0
  0
CLASS
  1
ACDBPLACEHOLDER
  2
AcDbPlaceHolder
  3
AutoCAD 2000
 90
0
 91
1
280
0
281
0
  0
CLASS
  1
LAYOUT
  2
AcDbLayout
  3
AutoCAD 2000
 90
0
 91
0
280
0
281
0
  0
ENDSEC
  0
SECTION
  2
TABLES
  0
TABLE
  2
VPORT
  5
8
100
AcDbSymbolTable
 70
2
  0
VPORT
  5
1F4
100
AcDbSymbolTableRecord
100
AcDbViewportTableRecord
  2
*ACTIVE
 70
0
 10
0.0
 20
0.0
 11
1.0
 21
1.0
 12
292.2488668087
 22
413.3233973437
 13
0.0
 23
0.0
 14
1.0
 24
1.0
 15
0.0
 25
0.0
 16
0.0
 26
0.0
 36
1.0
 17
0.0
 27
0.0
 37
0.0
 40
826.6467946874
 41
0.7070707071
 42
50.0
 43
0.0
 44
0.0
 50
0.0
 51
0.0
 71
0
 72
100
 73
1
 74
1
 75
0
 76
0
 77
0
 78
0
  0
ENDTAB
  0
TABLE
  2
LTYPE
  5
5
100
AcDbSymbolTable
 70
6
  0
LTYPE
  5
14
100
AcDbSymbolTableRecord
100
AcDbLinetypeTableRecord
  2
BYBLOCK
 70
0
  3

 72
65
 73
0
 40
0.0
  0
LTYPE
  5
15
100
AcDbSymbolTableRecord
100
AcDbLinetypeTableRecord
  2
BYLAYER
 70
0
  3

 72
65
 73
0
 40
0.0
  0
LTYPE
  5
16
100
AcDbSymbolTableRecord
100
AcDbLinetypeTableRecord
  2
CONTINUOUS
 70
64
  3
Solid line
 72
65
 73
0
 40
0.0
  0
LTYPE
  5
1F5
100
AcDbSymbolTableRecord
100
AcDbLinetypeTableRecord
  2
CENTER
 70
64
  3
____ _ ____ _ ____ _ ____ _ ____ _ ____ _ ____
 72
65
 73
4
 40
0.6
 49
0.375
 74
0
 49
-0.075
 74
0
 49
0.075
 74
0
 49
-0.075
 74
0
  0
LTYPE
  5
1F6
100
AcDbSymbolTableRecord
100
AcDbLinetypeTableRecord
  2
HIDDEN
 70
64
  3
- - - - - - - - - - - - - - - - - - - -
 72
65
 73
2
 40
0.2
 49
0.1
 74
0
 49
-0.1
 74
0
  0
LTYPE
  5
1F7
100
AcDbSymbolTableRecord
100
AcDbLinetypeTableRecord
  2
PHANTOM
 70
64
  3
_____ _ _ _____ _ _ _____ _ _ _____
 72
65
 73
6
 40
0.8
 49
0.45
 74
0
 49
-0.05
 74
0
 49
0.1
 74
0
 49
-0.05
 74
0
 49
0.1
 74
0
 49
-0.05
 74
0
  0
LTYPE
  5
1F8
100
AcDbSymbolTableRecord
100
AcDbLinetypeTableRecord
  2
DOT
 70
64
  3
. . . . . . . . . . . . . . . . . . . .
 72
65
 73
2
 40
0.2
 49
0.1
 74
0
 49
-0.1
 74
0
  0
LTYPE
  5
1F9
100
AcDbSymbolTableRecord
100
AcDbLinetypeTableRecord
  2
DASHED
 70
64
  3
- - - - - - - - - - - - - - - - - - - -
 72
65
 73
2
 40
0.2
 49
0.1
 74
0
 49
-0.1
 74
0
  0
ENDTAB
  0
TABLE
  2
LAYER
  5
2
100
AcDbSymbolTable
 70
36
  0
LAYER
  5
10
100
AcDbSymbolTableRecord
100
AcDbLayerTableRecord
  2
0
 70
0
 62
7
  6
CONTINUOUS
370
-3
390
F
  0
LAYER
  5
1FA
100
AcDbSymbolTableRecord
100
AcDbLayerTableRecord
  2
DEFAULT_1
 70
0
 62
7
  6
CENTER
370
-3
390
F
  0
LAYER
  5
1FB
100
AcDbSymbolTableRecord
100
AcDbLayerTableRecord
  2
DEFAULT_2
 70
0
 62
7
  6
HIDDEN
370
-3
390
F
  0
LAYER
  5
1FC
100
AcDbSymbolTableRecord
100
AcDbLayerTableRecord
  2
DEFAULT_3
 70
0
 62
7
  6
PHANTOM
370
-3
390
F
  0
LAYER
  5
1FD
100
AcDbSymbolTableRecord
100
AcDbLayerTableRecord
  2
00_COMPONENTS
 70
0
 62
7
  6
CONTINUOUS
370
-3
390
F
  0
LAYER
  5
1FE
100
AcDbSymbolTableRecord
100
AcDbLayerTableRecord
  2
01_1_DEFAULT_DATUMS
 70
0
 62
7
  6
CONTINUOUS
370
-3
390
F
  0
LAYER
  5
1FF
100
AcDbSymbolTableRecord
100
AcDbLayerTableRecord
  2
01_PLANES
 70
0
 62
7
  6
CONTINUOUS
370
-3
390
F
  0
LAYER
  5
200
100
AcDbSymbolTableRecord
100
AcDbLayerTableRecord
  2
02_COORD_SYS
 70
0
 62
7
  6
CONTINUOUS
370
-3
390
F
  0
LAYER
  5
201
100
AcDbSymbolTableRecord
100
AcDbLayerTableRecord
  2
03_AXES
 70
0
 62
7
  6
CONTINUOUS
370
-3
390
F
  0
LAYER
  5
202
100
AcDbSymbolTableRecord
100
AcDbLayerTableRecord
  2
04_POINTS
 70
0
 62
7
  6
CONTINUOUS
370
-3
390
F
  0
LAYER
  5
203
100
AcDbSymbolTableRecord
100
AcDbLayerTableRecord
  2
05_CURVES
 70
0
 62
7
  6
CONTINUOUS
370
-3
390
F
  0
LAYER
  5
204
100
AcDbSymbolTableRecord
100
AcDbLayerTableRecord
  2
06_SURFS
 70
0
 62
7
  6
CONTINUOUS
370
-3
390
F
  0
LAYER
  5
205
100
AcDbSymbolTableRecord
100
AcDbLayerTableRecord
  2
07_COSMETICS
 70
0
 62
7
  6
CONTINUOUS
370
-3
390
F
  0
LAYER
  5
206
100
AcDbSymbolTableRecord
100
AcDbLayerTableRecord
  2
10_NOTES
 70
0
 62
7
  6
CONTINUOUS
370
-3
390
F
  0
LAYER
  5
207
100
AcDbSymbolTableRecord
100
AcDbLayerTableRecord
  2
11_NOTES_PUB
 70
0
 62
7
  6
CONTINUOUS
370
-3
390
F
  0
LAYER
  5
208
100
AcDbSymbolTableRecord
100
AcDbLayerTableRecord
  2
13_REF_GTOL
 70
0
 62
7
  6
CONTINUOUS
370
-3
390
F
  0
LAYER
  5
209
100
AcDbSymbolTableRecord
100
AcDbLayerTableRecord
  2
16_MISC
 70
0
 62
7
  6
CONTINUOUS
370
-3
390
F
  0
LAYER
  5
20A
100
AcDbSymbolTableRecord
100
AcDbLayerTableRecord
  2
17_NO_PRINT
 70
0
 62
7
  6
CONTINUOUS
370
-3
390
F
  0
LAYER
  5
20B
100
AcDbSymbolTableRecord
100
AcDbLayerTableRecord
  2
18_DATUM_CAMS_JOINTS
 70
0
 62
7
  6
CONTINUOUS
370
-3
390
F
  0
LAYER
  5
20C
100
AcDbSymbolTableRecord
100
AcDbLayerTableRecord
  2
19_DATUM_FUNCTIONAL
 70
0
 62
7
  6
CONTINUOUS
370
-3
390
F
  0
LAYER
  5
20D
100
AcDbSymbolTableRecord
100
AcDbLayerTableRecord
  2
20_DATUM_KINEMATIC_SCHEME
 70
0
 62
7
  6
CONTINUOUS
370
-3
390
F
  0
LAYER
  5
20E
100
AcDbSymbolTableRecord
100
AcDbLayerTableRecord
  2
3
 70
0
 62
7
  6
CONTINUOUS
370
-3
390
F
  0
LAYER
  5
20F
100
AcDbSymbolTableRecord
100
AcDbLayerTableRecord
  2
4
 70
0
 62
7
  6
CONTINUOUS
370
-3
390
F
  0
ENDTAB
  0
TABLE
  2
STYLE
  5
3
100
AcDbSymbolTable
 70
1
  0
STYLE
  5
11
100
AcDbSymbolTableRecord
100
AcDbTextStyleTableRecord
  2
STANDARD
 70
0
 40
0.0
 41
1.0
 50
0.0
 71
0
 42
0.2
  3
ARIAL.TTF
  4

  0
STYLE
  5
210
100
AcDbSymbolTableRecord
100
AcDbTextStyleTableRecord
  2
TEXTSTYLE_1
 70
0
 40
0.0
 41
0.8
 50
0.0
 71
0
 42
0.2
  3
gdt
  4

  0
ENDTAB
  0
TABLE
  2
VIEW
  5
6
100
AcDbSymbolTable
 70
0
  0
ENDTAB
  0
TABLE
  2
UCS
  5
7
100
AcDbSymbolTable
 70
0
  0
ENDTAB
  0
TABLE
  2
APPID
  5
9
100
AcDbSymbolTable
 70
1
  0
APPID
  5
211
100
AcDbSymbolTableRecord
100
AcDbRegAppTableRecord
  2
ACAD
 70
0
  0
ENDTAB
  0
TABLE
  2
BLOCK_RECORD
  5
1
100
AcDbSymbolTable
 70
0
  0
BLOCK_RECORD
  5
212
100
AcDbSymbolTableRecord
100
AcDbBlockTableRecord
  2
*Model_Space
  0
BLOCK_RECORD
  5
213
100
AcDbSymbolTableRecord
100
AcDbBlockTableRecord
  2
*Paper_Space
  0
BLOCK_RECORD
  5
214
100
AcDbSymbolTableRecord
100
AcDbBlockTableRecord
  2
_FILLED
  0
ENDTAB
  0
TABLE
  2
DIMSTYLE
  5
A
100
AcDbSymbolTable
 70
1
100
AcDbDimStyleTable
 71
0
  0
DIMSTYLE
105
215
100
AcDbSymbolTableRecord
100
AcDbDimStyleTableRecord
  2
STANDARD
 70
0
  3

  4

 40
1.0
 41
6.9583063526
 42
1.0
 43
0.38
 44
1.0
 45
0.0
 46
0.0
 47
0.01
 48
0.01
140
9.7416288936
141
0.09
142
0.0
143
25.4
144
1.0
145
0.0
146
1.0
147
0.625
 71
1
 72
0
 73
0
 74
0
 75
0
 76
0
 77
1
 78
8
 79
2
170
0
171
1
172
0
173
0
174
0
175
0
176
0
177
0
178
0
270
2
179
2
271
2
272
2
273
2
274
2
275
0
280
0
281
0
282
0
283
1
284
8
285
0
286
0
287
3
288
0
340
11
278
46
341
214
342
214
343
214
344
214
  0
ENDTAB
  0
ENDSEC
  0
SECTION
  2
BLOCKS
  0
BLOCK
  5
20
100
AcDbEntity
  8
0
100
AcDbBlockBegin
  2
*Model_Space
 70
0
 10
0.0
 20
0.0
 30
0.0
  3
*Model_Space
  1

  0
ENDBLK
  5
21
100
AcDbEntity
  8
0
100
AcDbBlockEnd
  0
BLOCK
  5
1C
100
AcDbEntity
  8
0
100
AcDbBlockBegin
  2
*Paper_Space
 70
0
 10
0.0
 20
0.0
 30
0.0
  3
*Paper_Space
  1

  0
ENDBLK
  5
1D
100
AcDbEntity
  8
0
100
AcDbBlockEnd
  0
BLOCK
  5
216
100
AcDbEntity
  8
0
100
AcDbBlockBegin
  2
_FILLED
 70
64
 10
0.0
 20
0.0
  3
_FILLED
  1

  0
SOLID
  5
217
100
AcDbEntity
  8
0
  6
BYBLOCK
 62
0
100
AcDbTrace
 10
0.0
 20
0.0
 11
-1.0
 21
0.25
 12
-1.0
 22
-0.25
 13
-1.0
 23
-0.25
  0
ENDBLK
  5
218
100
AcDbEntity
  8
0
  6
BYBLOCK
 62
0
100
AcDbBlockEnd
  0
ENDSEC
  0
SECTION
  2
ENTITIES
  0
LINE
  5
219
100
AcDbEntity
  8
0
100
AcDbLine
 62
7
  6
BYLAYER
 10
344.7642028015
 20
67.2852042187
 11
340.1643794992
 21
67.2852042187
  0
LINE
  5
21A
100
AcDbEntity
  8
0
100
AcDbLine
 62
7
  6
BYLAYER
 10
304.7641909283
 20
67.2852042187
 11
300.164367626
 21
67.2852042187
  0
LINE
  5
21B
100
AcDbEntity
  8
0
100
AcDbLine
 62
7
  6
BYLAYER
 10
351.9637881109
 20
67.3850940803
 11
345.1370810611
 21
67.3850940803
  0
LINE
  5
21C
100
AcDbEntity
  8
0
100
AcDbLine
 62
7
  6
BYLAYER
 10
298.9637881109
 20
67.3850940803
 11
299.7914808659
 21
67.3850940803
  0
LINE
  5
21D
100
AcDbEntity
  8
0
100
AcDbLine
 62
7
  6
BYLAYER
 10
305.1370691879
 20
67.3850940803
 11
339.7914927391
 21
67.3850940803
  0
LINE
  5
21E
100
AcDbEntity
  8
0
100
AcDbLine
 62
7
  6
BYLAYER
 10
329.6052362909
 20
67.8850940803
 11
321.3233044567
 21
67.8850940803
  0
LINE
  5
21F
100
AcDbEntity
  8
0
100
AcDbLine
 62
7
  6
BYLAYER
 10
345.7642869001
 20
68.2852042187
 11
339.1642869001
 21
68.2852042187
  0
LINE
  5
220
100
AcDbEntity
  8
0
100
AcDbLine
 62
7
  6
BYLAYER
 10
305.7642750269
 20
68.2852042187
 11
299.1642750269
 21
68.2852042187
  0
LINE
  5
221
100
AcDbEntity
  8
0
100
AcDbLine
 62
7
  6
BYLAYER
 10
352.9637881109
 20
68.3850940803
 11
345.7642869001
 21
68.3850940803
  0
LINE
  5
222
100
AcDbEntity
  8
0
100
AcDbLine
 62
7
  6
BYLAYER
 10
339.1642869001
 20
68.3850940803
 11
329.4637881109
 21
68.3850940869
  0
LINE
  5
223
100
AcDbEntity
  8
0
100
AcDbLine
 62
7
  6
BYLAYER
 10
321.4637881109
 20
68.3850940803
 11
305.7642750269
 21
68.3850940803
  0
LINE
  5
224
100
AcDbEntity
  8
0
100
AcDbLine
 62
7
  6
BYLAYER
 10
299.1642750269
 20
68.3850940803
 11
297.9637881109
 21
68.3850940803
  0
LINE
  5
225
100
AcDbEntity
  8
0
100
AcDbLine
 62
7
  6
BYLAYER
 10
297.9637881109
 20
69.3850940114
 11
299.1642750269
 21
69.3850940803
  0
LINE
  5
226
100
AcDbEntity
  8
0
100
AcDbLine
 62
7
  6
BYLAYER
 10
305.7642750269
 20
69.3850940803
 11
306.9637881109
 21
69.3850940113
  0
LINE
  5
227
100
AcDbEntity
  8
0
100
AcDbLine
 62
7
  6
BYLAYER
 10
337.9637881109
 20
69.3850940114
 11
339.1642869001
 21
69.3850940803
  0
LINE
  5
228
100
AcDbEntity
  8
0
100
AcDbLine
 62
7
  6
BYLAYER
 10
345.7642869001
 20
69.3850940803
 11
346.3761033197
 21
69.3850940803
  0
LINE
  5
229
100
AcDbEntity
  8
0
100
AcDbLine
 62
7
  6
BYLAYER
 10
298.4637881109
 20
69.8850940803
 11
305.4637881109
 21
69.8850940803
  0
LINE
  5
22A
100
AcDbEntity
  8
0
100
AcDbLine
 62
7
  6
BYLAYER
 10
339.4637881109
 20
69.8850940803
 11
346.0135416033
 21
69.8850940803
  0
LINE
  5
22B
100
AcDbEntity
  8
0
100
AcDbLine
 62
7
  6
BYLAYER
 10
347.8758698027
 20
70.3850940803
 11
339.4637881109
 21
70.3850940803
  0
LINE
  5
22C
100
AcDbEntity
  8
0
100
AcDbLine
 62
7
  6
BYLAYER
 10
305.4637881109
 20
70.3850940803
 11
297.9637881109
 21
70.3850940803
  0
LINE
  5
22D
100
AcDbEntity
  8
0
100
AcDbLine
 62
7
  6
BYLAYER
 10
297.9637881109
 20
84.8850940803
 11
321.4637881109
 21
84.8850940803
  0
LINE
  5
22E
100
AcDbEntity
  8
0
100
AcDbLine
 62
7
  6
BYLAYER
 10
321.4642869001
 20
84.8850940803
 11
352.9637881109
 21
84.8850940803
  0
LINE
  5
22F
100
AcDbEntity
  8
3
100
AcDbLine
 62
7
  6
BYLAYER
 10
297.9642695852
 20
84.8852170273
 11
352.9620873275
 21
84.8852170273
  0
LINE
  5
230
100
AcDbEntity
  8
3
100
AcDbLine
 62
7
  6
BYLAYER
 10
252.722368033
 20
112.233379342
 11
297.722368033
 21
112.233379342
  0
LINE
  5
231
100
AcDbEntity
  8
3
100
AcDbLine
 62
7
  6
BYLAYER
 10
293.3856533491
 20
115.880879342
 11
294.630252611
 21
115.880879342
  0
LINE
  5
232
100
AcDbEntity
  8
3
100
AcDbLine
 62
7
  6
BYLAYER
 10
297.722368033
 20
117.233379342
 11
294.722368033
 21
117.233379342
  0
LINE
  5
233
100
AcDbEntity
  8
3
100
AcDbLine
 62
7
  6
BYLAYER
 10
293.2821684152
 20
117.5568421615
 11
290.2821684152
 21
117.5568421615
  0
LINE
  5
234
100
AcDbEntity
  8
3
100
AcDbLine
 62
7
  6
BYLAYER
 10
255.922368033
 20
118.983379342
 11
269.422368033
 21
118.983379342
  0
LINE
  5
235
100
AcDbEntity
  8
3
100
AcDbLine
 62
7
  6
BYLAYER
 10
286.0117130078
 20
119.233379342
 11
290.2821684152
 21
119.233379342
  0
LINE
  5
236
100
AcDbEntity
  8
3
100
AcDbLine
 62
7
  6
BYLAYER
 10
293.2821684152
 20
119.233379342
 11
293.3856533491
 21
119.233379342
  0
LINE
  5
237
100
AcDbEntity
  8
3
100
AcDbLine
 62
7
  6
BYLAYER
 10
294.630252611
 20
119.233379342
 11
294.722368033
 21
119.233379342
  0
LINE
  5
238
100
AcDbEntity
  8
3
100
AcDbLine
 62
7
  6
BYLAYER
 10
297.722368033
 20
119.233379342
 11
297.9642695852
 21
119.233379342
  0
LINE
  5
239
100
AcDbEntity
  8
3
100
AcDbLine
 62
7
  6
BYLAYER
 10
293.2821684152
 20
122.233379342
 11
290.2821684152
 21
122.233379342
  0
LINE
  5
23A
100
AcDbEntity
  8
3
100
AcDbLine
 62
7
  6
BYLAYER
 10
286.0117130078
 20
125.233379342
 11
290.2821684152
 21
125.233379342
  0
LINE
  5
23B
100
AcDbEntity
  8
3
100
AcDbLine
 62
7
  6
BYLAYER
 10
293.2821684152
 20
125.233379342
 11
293.3856533491
 21
125.233379342
  0
LINE
  5
23C
100
AcDbEntity
  8
3
100
AcDbLine
 62
7
  6
BYLAYER
 10
294.630252611
 20
125.233379342
 11
294.722368033
 21
125.233379342
  0
LINE
  5
23D
100
AcDbEntity
  8
3
100
AcDbLine
 62
7
  6
BYLAYER
 10
297.722368033
 20
125.233379342
 11
297.9642695852
 21
125.233379342
  0
LINE
  5
23E
100
AcDbEntity
  8
3
100
AcDbLine
 62
7
  6
BYLAYER
 10
269.422368033
 20
125.483379342
 11
255.922368033
 21
125.483379342
  0
LINE
  5
23F
100
AcDbEntity
  8
3
100
AcDbLine
 62
7
  6
BYLAYER
 10
293.2821684152
 20
126.9099165224
 11
290.2821684152
 21
126.9099165224
  0
LINE
  5
240
100
AcDbEntity
  8
3
100
AcDbLine
 62
7
  6
BYLAYER
 10
294.630252611
 20
128.585879342
 11
293.3856533491
 21
128.585879342
  0
LINE
  5
241
100
AcDbEntity
  8
3
100
AcDbLine
 62
7
  6
BYLAYER
 10
293.3856533491
 20
145.880879342
 11
294.630252611
 21
145.880879342
  0
LINE
  5
242
100
AcDbEntity
  8
3
100
AcDbLine
 62
7
  6
BYLAYER
 10
293.2821684152
 20
147.5568421615
 11
290.2821684152
 21
147.5568421615
  0
LINE
  5
243
100
AcDbEntity
  8
3
100
AcDbLine
 62
7
  6
BYLAYER
 10
255.922368033
 20
148.983379342
 11
269.422368033
 21
148.983379342
  0
LINE
  5
244
100
AcDbEntity
  8
3
100
AcDbLine
 62
7
  6
BYLAYER
 10
286.0117130078
 20
149.233379342
 11
290.2821684152
 21
149.233379342
  0
LINE
  5
245
100
AcDbEntity
  8
3
100
AcDbLine
 62
7
  6
BYLAYER
 10
293.2821684152
 20
149.233379342
 11
293.3856533491
 21
149.233379342
  0
LINE
  5
246
100
AcDbEntity
  8
3
100
AcDbLine
 62
7
  6
BYLAYER
 10
294.630252611
 20
149.233379342
 11
294.722368033
 21
149.233379342
  0
LINE
  5
247
100
AcDbEntity
  8
3
100
AcDbLine
 62
7
  6
BYLAYER
 10
297.722368033
 20
149.233379342
 11
297.9642695852
 21
149.233379342
  0
LINE
  5
248
100
AcDbEntity
  8
3
100
AcDbLine
 62
7
  6
BYLAYER
 10
293.2821684152
 20
152.233379342
 11
290.2821684152
 21
152.233379342
  0
LINE
  5
249
100
AcDbEntity
  8
3
100
AcDbLine
 62
7
  6
BYLAYER
 10
286.0117130078
 20
155.233379342
 11
290.2821684152
 21
155.233379342
  0
LINE
  5
24A
100
AcDbEntity
  8
3
100
AcDbLine
 62
7
  6
BYLAYER
 10
293.2821684152
 20
155.233379342
 11
293.3856533491
 21
155.233379342
  0
LINE
  5
24B
100
AcDbEntity
  8
3
100
AcDbLine
 62
7
  6
BYLAYER
 10
294.630252611
 20
155.233379342
 11
294.722368033
 21
155.233379342
  0
LINE
  5
24C
100
AcDbEntity
  8
3
100
AcDbLine
 62
7
  6
BYLAYER
 10
297.722368033
 20
155.233379342
 11
297.9642695852
 21
155.233379342
  0
LINE
  5
24D
100
AcDbEntity
  8
3
100
AcDbLine
 62
7
  6
BYLAYER
 10
269.422368033
 20
155.483379342
 11
255.922368033
 21
155.483379342
  0
LINE
  5
24E
100
AcDbEntity
  8
3
100
AcDbLine
 62
7
  6
BYLAYER
 10
293.2821684152
 20
156.9099165224
 11
290.2821684152
 21
156.9099165224
  0
LINE
  5
24F
100
AcDbEntity
  8
3
100
AcDbLine
 62
7
  6
BYLAYER
 10
294.722368033
 20
157.233379342
 11
297.722368033
 21
157.233379342
  0
LINE
  5
250
100
AcDbEntity
  8
3
100
AcDbLine
 62
7
  6
BYLAYER
 10
294.630252611
 20
158.585879342
 11
293.3856533491
 21
158.585879342
  0
LINE
  5
251
100
AcDbEntity
  8
0
100
AcDbLine
 62
7
  6
BYLAYER
 10
305.714028848
 20
756.8852042187
 11
306.214028848
 21
757.3852042187
  0
LINE
  5
252
100
AcDbEntity
  8
3
100
AcDbLine
 62
7
  6
BYLAYER
 10
252.722368033
 20
162.233379342
 11
297.722368033
 21
162.233379342
  0
LINE
  5
253
100
AcDbEntity
  8
0
100
AcDbLine
 62
7
  6
BYLAYER
 10
329.9640273001
 20
760.8852048293
 11
330.4640282838
 21
761.3852056331
  0
LINE
  5
254
100
AcDbEntity
  8
0
100
AcDbLine
 62
7
  6
BYLAYER
 10
328.214028848
 20
756.8852042187
 11
328.714028848
 21
757.3852042187
  0
LINE
  5
255
100
AcDbEntity
  8
3
100
AcDbLine
 62
7
  6
BYLAYER
 10
247.722368033
 20
703.5682818028
 11
247.722368033
 21
663.5682818028
  0
LINE
  5
256
100
AcDbEntity
  8
3
100
AcDbLine
 62
7
  6
BYLAYER
 10
247.722368033
 20
157.233379342
 11
247.722368033
 21
117.233379342
  0
LINE
  5
257
100
AcDbEntity
  8
3
100
AcDbLine
 62
7
  6
BYLAYER
 10
286.0117130078
 20
119.2335023179
 11
286.0117130078
 21
125.233256366
  0
LINE
  5
258
100
AcDbEntity
  8
3
100
AcDbLine
 62
7
  6
BYLAYER
 10
286.0117130078
 20
149.2335023179
 11
286.0117130078
 21
155.233256366
  0
LINE
  5
259
100
AcDbEntity
  8
3
100
AcDbLine
 62
7
  6
BYLAYER
 10
286.0117130078
 20
665.5684047788
 11
286.0117130078
 21
671.5681588269
  0
LINE
  5
25A
100
AcDbEntity
  8
3
100
AcDbLine
 62
7
  6
BYLAYER
 10
286.0117130078
 20
695.5684047788
 11
286.0117130078
 21
701.5681588269
  0
LINE
  5
25B
100
AcDbEntity
  8
3
100
AcDbLine
 62
7
  6
BYLAYER
 10
290.2821684152
 20
117.5568421615
 11
290.2821684152
 21
126.9099165224
  0
LINE
  5
25C
100
AcDbEntity
  8
3
100
AcDbLine
 62
7
  6
BYLAYER
 10
290.2821684152
 20
147.5568421615
 11
290.2821684152
 21
156.9099165224
  0
LINE
  5
25D
100
AcDbEntity
  8
3
100
AcDbLine
 62
7
  6
BYLAYER
 10
290.2821684152
 20
663.8917446224
 11
290.2821684152
 21
673.2448189833
  0
LINE
  5
25E
100
AcDbEntity
  8
3
100
AcDbLine
 62
7
  6
BYLAYER
 10
290.2821684152
 20
693.8917446224
 11
290.2821684152
 21
703.2448189833
  0
LINE
  5
25F
100
AcDbEntity
  8
3
100
AcDbLine
 62
7
  6
BYLAYER
 10
290.722368033
 20
708.5682818028
 11
290.722368033
 21
703.2448189833
  0
LINE
  5
260
100
AcDbEntity
  8
3
100
AcDbLine
 62
7
  6
BYLAYER
 10
290.722368033
 20
693.8917446224
 11
290.722368033
 21
673.2448189833
  0
LINE
  5
261
100
AcDbEntity
  8
3
100
AcDbLine
 62
7
  6
BYLAYER
 10
290.722368033
 20
663.8917446224
 11
290.722368033
 21
658.5682818028
  0
LINE
  5
262
100
AcDbEntity
  8
3
100
AcDbLine
 62
7
  6
BYLAYER
 10
290.722368033
 20
162.233379342
 11
290.722368033
 21
156.9099165224
  0
LINE
  5
263
100
AcDbEntity
  8
3
100
AcDbLine
 62
7
  6
BYLAYER
 10
290.722368033
 20
147.5568421615
 11
290.722368033
 21
126.9099165224
  0
LINE
  5
264
100
AcDbEntity
  8
3
100
AcDbLine
 62
7
  6
BYLAYER
 10
290.722368033
 20
117.5568421615
 11
290.722368033
 21
112.233379342
  0
LINE
  5
265
100
AcDbEntity
  8
3
100
AcDbLine
 62
7
  6
BYLAYER
 10
293.2821684152
 20
703.2448189833
 11
293.2821684152
 21
693.8917446224
  0
LINE
  5
266
100
AcDbEntity
  8
3
100
AcDbLine
 62
7
  6
BYLAYER
 10
293.2821684152
 20
673.2448189833
 11
293.2821684152
 21
663.8917446224
  0
LINE
  5
267
100
AcDbEntity
  8
3
100
AcDbLine
 62
7
  6
BYLAYER
 10
293.2821684152
 20
156.9099165224
 11
293.2821684152
 21
147.5568421615
  0
LINE
  5
268
100
AcDbEntity
  8
3
100
AcDbLine
 62
7
  6
BYLAYER
 10
293.2821684152
 20
126.9099165224
 11
293.2821684152
 21
117.5568421615
  0
LINE
  5
269
100
AcDbEntity
  8
3
100
AcDbLine
 62
7
  6
BYLAYER
 10
293.3856533491
 20
115.880879342
 11
293.3856533491
 21
128.585879342
  0
LINE
  5
26A
100
AcDbEntity
  8
3
100
AcDbLine
 62
7
  6
BYLAYER
 10
293.3856533491
 20
145.880879342
 11
293.3856533491
 21
158.585879342
  0
LINE
  5
26B
100
AcDbEntity
  8
3
100
AcDbLine
 62
7
  6
BYLAYER
 10
293.3856533491
 20
662.2157818028
 11
293.3856533491
 21
674.9207818028
  0
LINE
  5
26C
100
AcDbEntity
  8
3
100
AcDbLine
 62
7
  6
BYLAYER
 10
293.3856533491
 20
692.2157818028
 11
293.3856533491
 21
704.9207818028
  0
LINE
  5
26D
100
AcDbEntity
  8
3
100
AcDbLine
 62
7
  6
BYLAYER
 10
294.630252611
 20
704.9207818028
 11
294.630252611
 21
692.2157818028
  0
LINE
  5
26E
100
AcDbEntity
  8
3
100
AcDbLine
 62
7
  6
BYLAYER
 10
294.630252611
 20
674.9207818028
 11
294.630252611
 21
662.2157818028
  0
LINE
  5
26F
100
AcDbEntity
  8
3
100
AcDbLine
 62
7
  6
BYLAYER
 10
294.630252611
 20
158.585879342
 11
294.630252611
 21
145.880879342
  0
LINE
  5
270
100
AcDbEntity
  8
3
100
AcDbLine
 62
7
  6
BYLAYER
 10
294.630252611
 20
128.585879342
 11
294.630252611
 21
115.880879342
  0
LINE
  5
271
100
AcDbEntity
  8
3
100
AcDbLine
 62
7
  6
BYLAYER
 10
294.722368033
 20
112.233379342
 11
294.722368033
 21
162.233379342
  0
LINE
  5
272
100
AcDbEntity
  8
3
100
AcDbLine
 62
7
  6
BYLAYER
 10
294.722368033
 20
658.5682818028
 11
294.722368033
 21
708.5682818028
  0
LINE
  5
273
100
AcDbEntity
  8
3
100
AcDbLine
 62
7
  6
BYLAYER
 10
297.722368033
 20
708.5682818028
 11
297.722368033
 21
658.5682818028
  0
LINE
  5
274
100
AcDbEntity
  8
3
100
AcDbLine
 62
7
  6
BYLAYER
 10
297.722368033
 20
162.233379342
 11
297.722368033
 21
112.233379342
  0
LINE
  5
275
100
AcDbEntity
  8
0
100
AcDbLine
 62
7
  6
BYLAYER
 10
297.9637881109
 20
68.3850940803
 11
297.9637881109
 21
84.8850940803
  0
LINE
  5
276
100
AcDbEntity
  8
0
100
AcDbLine
 62
7
  6
BYLAYER
 10
297.964028848
 20
747.8852042187
 11
297.964028848
 21
733.3852042187
  0
LINE
  5
277
100
AcDbEntity
  8
0
100
AcDbLine
 62
7
  6
BYLAYER
 10
297.964028848
 20
749.8852042187
 11
297.964028848
 21
747.8971942649
  0
LINE
  5
278
100
AcDbEntity
  8
3
100
AcDbLine
 62
7
  6
BYLAYER
 10
297.9642695852
 20
733.3852170273
 11
297.9642695852
 21
84.8852170273
  0
LINE
  5
279
100
AcDbEntity
  8
0
100
AcDbLine
 62
7
  6
BYLAYER
 10
298.9637881109
 20
67.3850940803
 11
298.9637881092
 21
69.3850940803
  0
LINE
  5
27A
100
AcDbEntity
  8
0
100
AcDbLine
 62
7
  6
BYLAYER
 10
298.9640288463
 20
748.8852042187
 11
298.964028848
 21
750.8852042187
  0
LINE
  5
27B
100
AcDbEntity
  8
0
100
AcDbLine
 62
7
  6
BYLAYER
 10
299.164028848
 20
748.3852042187
 11
299.164028848
 21
749.9852042187
  0
LINE
  5
27C
100
AcDbEntity
  8
0
100
AcDbLine
 62
7
  6
BYLAYER
 10
299.1642750269
 20
69.8852042187
 11
299.1642750269
 21
68.2852042187
  0
LINE
  5
27D
100
AcDbEntity
  8
0
100
AcDbLine
 62
7
  6
BYLAYER
 10
301.9637881109
 20
69.8850940803
 11
301.9637881109
 21
84.8850940803
  0
LINE
  5
27E
100
AcDbEntity
  8
0
100
AcDbLine
 62
7
  6
BYLAYER
 10
301.964028848
 20
733.3852042187
 11
301.964028848
 21
748.3852042187
  0
LINE
  5
27F
100
AcDbEntity
  8
3
100
AcDbLine
 62
7
  6
BYLAYER
 10
301.9642695852
 20
84.8852170273
 11
301.9642695852
 21
733.3852170273
  0
LINE
  5
280
100
AcDbEntity
  8
0
100
AcDbLine
 62
7
  6
BYLAYER
 10
305.4637880383
 20
70.3850940803
 11
305.4637880383
 21
69.8850940803
  0
LINE
  5
281
100
AcDbEntity
  8
0
100
AcDbLine
 62
7
  6
BYLAYER
 10
305.4640287752
 20
748.3852042187
 11
305.4640287752
 21
747.8852042187
  0
LINE
  5
282
100
AcDbEntity
  8
0
100
AcDbLine
 62
7
  6
BYLAYER
 10
305.714028848
 20
750.8852042187
 11
305.714028848
 21
756.8852042187
  0
LINE
  5
283
100
AcDbEntity
  8
0
100
AcDbLine
 62
7
  6
BYLAYER
 10
305.764028848
 20
748.4893866536
 11
305.764028848
 21
749.9852042187
  0
LINE
  5
284
100
AcDbEntity
  8
0
100
AcDbLine
 62
7
  6
BYLAYER
 10
305.7642750269
 20
69.7830082876
 11
305.7642750269
 21
68.2852042187
  0
LINE
  5
285
100
AcDbEntity
  8
0
100
AcDbLine
 62
7
  6
BYLAYER
 10
305.9637881109
 20
69.3850940803
 11
305.9637881109
 21
68.3850940803
  0
LINE
  5
286
100
AcDbEntity
  8
0
100
AcDbLine
 62
7
  6
BYLAYER
 10
305.964028848
 20
749.8852042187
 11
305.964028848
 21
748.8852042187
  0
LINE
  5
287
100
AcDbEntity
  8
0
100
AcDbLine
 62
7
  6
BYLAYER
 10
306.9637881109
 20
67.3850940803
 11
306.9637881109
 21
69.3850940803
  0
LINE
  5
288
100
AcDbEntity
  8
0
100
AcDbLine
 62
7
  6
BYLAYER
 10
306.964028848
 20
748.8852042187
 11
306.964028848
 21
750.8852042187
  0
LINE
  5
289
100
AcDbEntity
  8
0
100
AcDbLine
 62
7
  6
BYLAYER
 10
309.340288848
 20
758.5852042187
 11
309.340288848
 21
757.3852042187
  0
LINE
  5
28A
100
AcDbEntity
  8
0
100
AcDbLine
 62
7
  6
BYLAYER
 10
317.590288848
 20
758.5852042187
 11
317.590288848
 21
757.3852042187
  0
LINE
  5
28B
100
AcDbEntity
  8
0
100
AcDbLine
 62
7
  6
BYLAYER
 10
320.9637881109
 20
84.8850940803
 11
320.9637881109
 21
68.3850940803
  0
LINE
  5
28C
100
AcDbEntity
  8
0
100
AcDbLine
 62
7
  6
BYLAYER
 10
320.964028848
 20
749.8852042187
 11
320.964028848
 21
733.3852042187
  0
LINE
  5
28D
100
AcDbEntity
  8
3
100
AcDbLine
 62
7
  6
BYLAYER
 10
320.9642869001
 20
733.3852170273
 11
320.9642869001
 21
84.8852170273
  0
LINE
  5
28E
100
AcDbEntity
  8
0
100
AcDbLine
 62
7
  6
BYLAYER
 10
321.214028848
 20
750.8852042187
 11
321.214028848
 21
756.8852042187
  0
LINE
  5
28F
100
AcDbEntity
  8
0
100
AcDbLine
 62
7
  6
BYLAYER
 10
321.4637881109
 20
68.3850940803
 11
321.4637881109
 21
84.8850940803
  0
LINE
  5
290
100
AcDbEntity
  8
0
100
AcDbLine
 62
7
  6
BYLAYER
 10
321.464028848
 20
733.3852042187
 11
321.464028848
 21
749.8852042187
  0
LINE
  5
291
100
AcDbEntity
  8
3
100
AcDbLine
 62
7
  6
BYLAYER
 10
321.4642869001
 20
84.8852170273
 11
321.4642869001
 21
733.3852170273
  0
LINE
  5
292
100
AcDbEntity
  8
0
100
AcDbLine
 62
7
  6
BYLAYER
 10
328.214028848
 20
750.8852042187
 11
328.214028848
 21
756.8852042187
  0
LINE
  5
293
100
AcDbEntity
  8
0
100
AcDbLine
 62
7
  6
BYLAYER
 10
329.4637881109
 20
84.8850940803
 11
329.4637881109
 21
68.3850940803
  0
LINE
  5
294
100
AcDbEntity
  8
0
100
AcDbLine
 62
7
  6
BYLAYER
 10
329.464028848
 20
749.8852042187
 11
329.464028848
 21
733.3852042187
  0
LINE
  5
295
100
AcDbEntity
  8
3
100
AcDbLine
 62
7
  6
BYLAYER
 10
329.4642869001
 20
733.3852170273
 11
329.4642869001
 21
84.8852170273
  0
LINE
  5
296
100
AcDbEntity
  8
0
100
AcDbLine
 62
7
  6
BYLAYER
 10
329.9637881109
 20
68.3850940803
 11
329.9637881109
 21
84.8850940803
  0
LINE
  5
297
100
AcDbEntity
  8
0
100
AcDbLine
 62
7
  6
BYLAYER
 10
329.964028848
 20
733.3852042187
 11
329.964028848
 21
749.8852042187
  0
LINE
  5
298
100
AcDbEntity
  8
0
100
AcDbLine
 62
7
  6
BYLAYER
 10
329.964028848
 20
757.3852042187
 11
329.964028848
 21
760.8852032813
  0
LINE
  5
299
100
AcDbEntity
  8
3
100
AcDbLine
 62
7
  6
BYLAYER
 10
329.9642869001
 20
84.8852170273
 11
329.9642869001
 21
733.3852170273
  0
LINE
  5
29A
100
AcDbEntity
  8
0
100
AcDbLine
 62
7
  6
BYLAYER
 10
331.839608848
 20
758.5852042187
 11
331.839608848
 21
757.3852042187
  0
LINE
  5
29B
100
AcDbEntity
  8
0
100
AcDbLine
 62
7
  6
BYLAYER
 10
337.9637881109
 20
69.3850940803
 11
337.9637881109
 21
67.3850940803
  0
LINE
  5
29C
100
AcDbEntity
  8
0
100
AcDbLine
 62
7
  6
BYLAYER
 10
337.964028848
 20
750.8852042187
 11
337.964028848
 21
748.8852042187
  0
LINE
  5
29D
100
AcDbEntity
  8
0
100
AcDbLine
 62
7
  6
BYLAYER
 10
338.9637881109
 20
68.3850940803
 11
338.9637881109
 21
69.3850940803
  0
LINE
  5
29E
100
AcDbEntity
  8
0
100
AcDbLine
 62
7
  6
BYLAYER
 10
338.964028848
 20
748.8852042187
 11
338.964028848
 21
749.8852042187
  0
LINE
  5
29F
100
AcDbEntity
  8
0
100
AcDbLine
 62
7
  6
BYLAYER
 10
339.164028848
 20
748.4868030954
 11
339.164028848
 21
749.9852042187
  0
LINE
  5
2A0
100
AcDbEntity
  8
0
100
AcDbLine
 62
7
  6
BYLAYER
 10
339.1642869001
 20
69.7839939928
 11
339.1642869001
 21
68.2852042187
  0
LINE
  5
2A1
100
AcDbEntity
  8
0
100
AcDbLine
 62
7
  6
BYLAYER
 10
339.4637881837
 20
69.8850940803
 11
339.4637881837
 21
70.3850940803
  0
LINE
  5
2A2
100
AcDbEntity
  8
0
100
AcDbLine
 62
7
  6
BYLAYER
 10
339.4640289156
 20
747.8852042187
 11
339.4640289156
 21
748.3852042187
  0
LINE
  5
2A3
100
AcDbEntity
  8
0
100
AcDbLine
 62
7
  6
BYLAYER
 10
340.0297810461
 20
757.3852042187
 11
340.0297810461
 21
758.5852042187
  0
LINE
  5
2A4
100
AcDbEntity
  8
0
100
AcDbLine
 62
7
  6
BYLAYER
 10
341.964028848
 20
757.3852042187
 11
341.964028848
 21
760.8852032813
  0
LINE
  5
2A5
100
AcDbEntity
  8
0
100
AcDbLine
 62
7
  6
BYLAYER
 10
343.714028848
 20
750.9852042187
 11
343.714028848
 21
756.8852042187
  0
LINE
  5
2A6
100
AcDbEntity
  8
0
100
AcDbLine
 62
7
  6
BYLAYER
 10
344.5632386645
 20
84.8850940803
 11
344.5632386645
 21
69.8850940803
  0
LINE
  5
2A7
100
AcDbEntity
  8
0
100
AcDbLine
 62
7
  6
BYLAYER
 10
344.5634794016
 20
748.3852042187
 11
344.5634794016
 21
733.3852042187
  0
LINE
  5
2A8
100
AcDbEntity
  8
3
100
AcDbLine
 62
7
  6
BYLAYER
 10
344.5637374537
 20
733.3852170273
 11
344.5637374537
 21
84.8852170273
  0
LINE
  5
2A9
100
AcDbEntity
  8
0
100
AcDbLine
 62
7
  6
BYLAYER
 10
345.764028848
 20
748.4868030954
 11
345.764028848
 21
749.9852042187
  0
LINE
  5
2AA
100
AcDbEntity
  8
0
100
AcDbLine
 62
7
  6
BYLAYER
 10
345.7642869001
 20
69.7829964144
 11
345.7642869001
 21
68.2852042187
  0
LINE
  5
2AB
100
AcDbEntity
  8
0
100
AcDbLine
 62
7
  6
BYLAYER
 10
345.9637881109
 20
69.3850940803
 11
345.9637881109
 21
68.3850940803
  0
LINE
  5
2AC
100
AcDbEntity
  8
0
100
AcDbLine
 62
7
  6
BYLAYER
 10
345.964028848
 20
749.8852042187
 11
345.964028848
 21
748.8852042187
  0
LINE
  5
2AD
100
AcDbEntity
  8
0
100
AcDbLine
 62
7
  6
BYLAYER
 10
347.3104499434
 20
70.3850940803
 11
347.3104499434
 21
84.8850940803
  0
LINE
  5
2AE
100
AcDbEntity
  8
0
100
AcDbLine
 62
7
  6
BYLAYER
 10
347.3106906806
 20
733.3852042187
 11
347.3106906806
 21
747.8852042187
  0
LINE
  5
2AF
100
AcDbEntity
  8
3
100
AcDbLine
 62
7
  6
BYLAYER
 10
347.3109487327
 20
84.8852170273
 11
347.3109487327
 21
733.3852170273
  0
LINE
  5
2B0
100
AcDbEntity
  8
0
100
AcDbLine
 62
7
  6
BYLAYER
 10
347.8758698027
 20
68.3850940803
 11
347.8758698027
 21
70.3850940803
  0
LINE
  5
2B1
100
AcDbEntity
  8
0
100
AcDbLine
 62
7
  6
BYLAYER
 10
347.8761105399
 20
747.8852042187
 11
347.8761105399
 21
749.8852042187
  0
LINE
  5
2B2
100
AcDbEntity
  8
0
100
AcDbLine
 62
7
  6
BYLAYER
 10
351.5132303667
 20
84.8850940803
 11
351.5132303667
 21
68.3850940803
  0
LINE
  5
2B3
100
AcDbEntity
  8
0
100
AcDbLine
 62
7
  6
BYLAYER
 10
351.5134711038
 20
749.8852042187
 11
351.5134711038
 21
733.3852042187
  0
LINE
  5
2B4
100
AcDbEntity
  8
3
100
AcDbLine
 62
7
  6
BYLAYER
 10
351.5137291558
 20
733.3852170273
 11
351.5137291558
 21
84.8852170273
  0
LINE
  5
2B5
100
AcDbEntity
  8
0
100
AcDbLine
 62
7
  6
BYLAYER
 10
352.9637881109
 20
68.3850940803
 11
352.9637881109
 21
84.8850940803
  0
LINE
  5
2B6
100
AcDbEntity
  8
0
100
AcDbLine
 62
7
  6
BYLAYER
 10
352.964028848
 20
733.3852042187
 11
352.964028848
 21
749.8852042187
  0
LINE
  5
2B7
100
AcDbEntity
  8
3
100
AcDbLine
 62
7
  6
BYLAYER
 10
352.9642869001
 20
84.8852170273
 11
352.9642869001
 21
733.3852170273
  0
LINE
  5
2B8
100
AcDbEntity
  8
3
100
AcDbLine
 62
7
  6
BYLAYER
 10
252.722368033
 20
658.5682818028
 11
297.722368033
 21
658.5682818028
  0
LINE
  5
2B9
100
AcDbEntity
  8
3
100
AcDbLine
 62
7
  6
BYLAYER
 10
293.3856533491
 20
662.2157818028
 11
294.630252611
 21
662.2157818028
  0
LINE
  5
2BA
100
AcDbEntity
  8
3
100
AcDbLine
 62
7
  6
BYLAYER
 10
297.722368033
 20
663.5682818028
 11
294.722368033
 21
663.5682818028
  0
LINE
  5
2BB
100
AcDbEntity
  8
3
100
AcDbLine
 62
7
  6
BYLAYER
 10
293.2821684152
 20
663.8917446224
 11
290.2821684152
 21
663.8917446224
  0
LINE
  5
2BC
100
AcDbEntity
  8
3
100
AcDbLine
 62
7
  6
BYLAYER
 10
255.922368033
 20
665.3182818028
 11
269.422368033
 21
665.3182818028
  0
LINE
  5
2BD
100
AcDbEntity
  8
3
100
AcDbLine
 62
7
  6
BYLAYER
 10
286.0117130078
 20
665.5682818028
 11
290.2821684152
 21
665.5682818028
  0
LINE
  5
2BE
100
AcDbEntity
  8
3
100
AcDbLine
 62
7
  6
BYLAYER
 10
293.2821684152
 20
665.5682818028
 11
293.3856533491
 21
665.5682818028
  0
LINE
  5
2BF
100
AcDbEntity
  8
3
100
AcDbLine
 62
7
  6
BYLAYER
 10
294.630252611
 20
665.5682818028
 11
294.722368033
 21
665.5682818028
  0
LINE
  5
2C0
100
AcDbEntity
  8
3
100
AcDbLine
 62
7
  6
BYLAYER
 10
297.722368033
 20
665.5682818028
 11
297.9642695852
 21
665.5682818028
  0
LINE
  5
2C1
100
AcDbEntity
  8
3
100
AcDbLine
 62
7
  6
BYLAYER
 10
293.2821684152
 20
668.5682818028
 11
290.2821684152
 21
668.5682818028
  0
LINE
  5
2C2
100
AcDbEntity
  8
3
100
AcDbLine
 62
7
  6
BYLAYER
 10
286.0117130078
 20
671.5682818028
 11
290.2821684152
 21
671.5682818028
  0
LINE
  5
2C3
100
AcDbEntity
  8
3
100
AcDbLine
 62
7
  6
BYLAYER
 10
293.2821684152
 20
671.5682818028
 11
293.3856533491
 21
671.5682818028
  0
LINE
  5
2C4
100
AcDbEntity
  8
3
100
AcDbLine
 62
7
  6
BYLAYER
 10
294.630252611
 20
671.5682818028
 11
294.722368033
 21
671.5682818028
  0
LINE
  5
2C5
100
AcDbEntity
  8
3
100
AcDbLine
 62
7
  6
BYLAYER
 10
297.722368033
 20
671.5682818028
 11
297.9642695852
 21
671.5682818028
  0
LINE
  5
2C6
100
AcDbEntity
  8
3
100
AcDbLine
 62
7
  6
BYLAYER
 10
269.422368033
 20
671.8182818028
 11
255.922368033
 21
671.8182818028
  0
LINE
  5
2C7
100
AcDbEntity
  8
3
100
AcDbLine
 62
7
  6
BYLAYER
 10
293.2821684152
 20
673.2448189833
 11
290.2821684152
 21
673.2448189833
  0
LINE
  5
2C8
100
AcDbEntity
  8
0
100
AcDbLine
 62
7
  6
BYLAYER
 10
320.714028848
 20
757.3852042187
 11
321.214028848
 21
756.8852042187
  0
LINE
  5
2C9
100
AcDbEntity
  8
3
100
AcDbLine
 62
7
  6
BYLAYER
 10
294.630252611
 20
674.9207818028
 11
293.3856533491
 21
674.9207818028
  0
LINE
  5
2CA
100
AcDbEntity
  8
3
100
AcDbLine
 62
7
  6
BYLAYER
 10
293.3856533491
 20
692.2157818028
 11
294.630252611
 21
692.2157818028
  0
LINE
  5
2CB
100
AcDbEntity
  8
3
100
AcDbLine
 62
7
  6
BYLAYER
 10
293.2821684152
 20
693.8917446224
 11
290.2821684152
 21
693.8917446224
  0
LINE
  5
2CC
100
AcDbEntity
  8
3
100
AcDbLine
 62
7
  6
BYLAYER
 10
255.922368033
 20
695.3182818028
 11
269.422368033
 21
695.3182818028
  0
LINE
  5
2CD
100
AcDbEntity
  8
3
100
AcDbLine
 62
7
  6
BYLAYER
 10
286.0117130078
 20
695.5682818028
 11
290.2821684152
 21
695.5682818028
  0
LINE
  5
2CE
100
AcDbEntity
  8
3
100
AcDbLine
 62
7
  6
BYLAYER
 10
293.2821684152
 20
695.5682818028
 11
293.3856533491
 21
695.5682818028
  0
LINE
  5
2CF
100
AcDbEntity
  8
3
100
AcDbLine
 62
7
  6
BYLAYER
 10
294.630252611
 20
695.5682818028
 11
294.722368033
 21
695.5682818028
  0
LINE
  5
2D0
100
AcDbEntity
  8
3
100
AcDbLine
 62
7
  6
BYLAYER
 10
297.722368033
 20
695.5682818028
 11
297.9642695852
 21
695.5682818028
  0
LINE
  5
2D1
100
AcDbEntity
  8
0
100
AcDbLine
 62
7
  6
BYLAYER
 10
343.214028848
 20
757.3852042187
 11
343.714028848
 21
756.8852042187
  0
LINE
  5
2D2
100
AcDbEntity
  8
0
100
AcDbLine
 62
7
  6
BYLAYER
 10
341.4640294123
 20
761.3852056331
 11
341.964030396
 21
760.8852048293
  0
LINE
  5
2D3
100
AcDbEntity
  8
3
100
AcDbLine
 62
7
  6
BYLAYER
 10
293.2821684152
 20
698.5682818028
 11
290.2821684152
 21
698.5682818028
  0
LINE
  5
2D4
100
AcDbEntity
  8
3
100
AcDbLine
 62
7
  6
BYLAYER
 10
286.0117130078
 20
701.5682818028
 11
290.2821684152
 21
701.5682818028
  0
LINE
  5
2D5
100
AcDbEntity
  8
3
100
AcDbLine
 62
7
  6
BYLAYER
 10
293.2821684152
 20
701.5682818028
 11
293.3856533491
 21
701.5682818028
  0
LINE
  5
2D6
100
AcDbEntity
  8
3
100
AcDbLine
 62
7
  6
BYLAYER
 10
294.630252611
 20
701.5682818028
 11
294.722368033
 21
701.5682818028
  0
LINE
  5
2D7
100
AcDbEntity
  8
3
100
AcDbLine
 62
7
  6
BYLAYER
 10
297.722368033
 20
701.5682818028
 11
297.9642695852
 21
701.5682818028
  0
LINE
  5
2D8
100
AcDbEntity
  8
3
100
AcDbLine
 62
7
  6
BYLAYER
 10
269.422368033
 20
701.8182818028
 11
255.922368033
 21
701.8182818028
  0
LINE
  5
2D9
100
AcDbEntity
  8
3
100
AcDbLine
 62
7
  6
BYLAYER
 10
293.2821684152
 20
703.2448189833
 11
290.2821684152
 21
703.2448189833
  0
LINE
  5
2DA
100
AcDbEntity
  8
3
100
AcDbLine
 62
7
  6
BYLAYER
 10
294.722368033
 20
703.5682818028
 11
297.722368033
 21
703.5682818028
  0
LINE
  5
2DB
100
AcDbEntity
  8
3
100
AcDbLine
 62
7
  6
BYLAYER
 10
294.630252611
 20
704.9207818028
 11
293.3856533491
 21
704.9207818028
  0
LINE
  5
2DC
100
AcDbEntity
  8
3
100
AcDbLine
 62
7
  6
BYLAYER
 10
252.722368033
 20
708.5682818028
 11
297.722368033
 21
708.5682818028
  0
LINE
  5
2DD
100
AcDbEntity
  8
0
100
AcDbLine
 62
7
  6
BYLAYER
 10
297.964028848
 20
733.3852042187
 11
352.964028848
 21
733.3852042187
  0
LINE
  5
2DE
100
AcDbEntity
  8
3
100
AcDbLine
 62
7
  6
BYLAYER
 10
297.9642695852
 20
733.3852170273
 11
352.9642869001
 21
733.3852170273
  0
LINE
  5
2DF
100
AcDbEntity
  8
0
100
AcDbLine
 62
7
  6
BYLAYER
 10
335.9804307566
 20
746.8852042187
 11
327.964028848
 21
746.8852042187
  0
LINE
  5
2E0
100
AcDbEntity
  8
0
100
AcDbLine
 62
7
  6
BYLAYER
 10
313.4476269395
 20
746.8852042187
 11
321.464028848
 21
746.8852042187
  0
LINE
  5
2E1
100
AcDbEntity
  8
0
100
AcDbLine
 62
7
  6
BYLAYER
 10
335.9802150529
 20
746.8963984698
 11
328.0692378769
 21
746.8963984698
  0
LINE
  5
2E2
100
AcDbEntity
  8
0
100
AcDbLine
 62
7
  6
BYLAYER
 10
313.4478428225
 20
746.8964173016
 11
321.3587323634
 21
746.8964173016
  0
LINE
  5
2E3
100
AcDbEntity
  8
0
100
AcDbLine
 62
7
  6
BYLAYER
 10
313.4474106503
 20
747.873948402
 11
321.5695235083
 21
747.873948402
  0
LINE
  5
2E4
100
AcDbEntity
  8
0
100
AcDbLine
 62
7
  6
BYLAYER
 10
335.9806464602
 20
747.8740099677
 11
327.8588198192
 21
747.8740099677
  0
LINE
  5
2E5
100
AcDbEntity
  8
0
100
AcDbLine
 62
7
  6
BYLAYER
 10
297.964028848
 20
747.8852042187
 11
305.464028848
 21
747.8852042187
  0
LINE
  5
2E6
100
AcDbEntity
  8
0
100
AcDbLine
 62
7
  6
BYLAYER
 10
339.464028848
 20
747.8852042187
 11
347.8761105399
 21
747.8852042187
  0
LINE
  5
2E7
100
AcDbEntity
  8
0
100
AcDbLine
 62
7
  6
BYLAYER
 10
298.464028848
 20
748.3852042187
 11
305.464028848
 21
748.3852042187
  0
LINE
  5
2E8
100
AcDbEntity
  8
0
100
AcDbLine
 62
7
  6
BYLAYER
 10
339.464028848
 20
748.3852042187
 11
346.0137823416
 21
748.3852042187
  0
LINE
  5
2E9
100
AcDbEntity
  8
0
100
AcDbLine
 62
7
  6
BYLAYER
 10
346.3763440775
 20
748.8852042187
 11
345.764028848
 21
748.8852042187
  0
LINE
  5
2EA
100
AcDbEntity
  8
0
100
AcDbLine
 62
7
  6
BYLAYER
 10
339.164028848
 20
748.8852042187
 11
337.964028848
 21
748.8852042759
  0
LINE
  5
2EB
100
AcDbEntity
  8
0
100
AcDbLine
 62
7
  6
BYLAYER
 10
306.964028848
 20
748.8852042876
 11
305.764028848
 21
748.8852042187
  0
LINE
  5
2EC
100
AcDbEntity
  8
0
100
AcDbLine
 62
7
  6
BYLAYER
 10
299.164028848
 20
748.8852042187
 11
297.964028848
 21
748.8852042877
  0
LINE
  5
2ED
100
AcDbEntity
  8
0
100
AcDbLine
 62
7
  6
BYLAYER
 10
297.964028848
 20
749.8852042187
 11
299.164028848
 21
749.8852042187
  0
LINE
  5
2EE
100
AcDbEntity
  8
0
100
AcDbLine
 62
7
  6
BYLAYER
 10
305.764028848
 20
749.8852042187
 11
321.464028848
 21
749.8852042121
  0
LINE
  5
2EF
100
AcDbEntity
  8
0
100
AcDbLine
 62
7
  6
BYLAYER
 10
329.464028848
 20
749.8852042187
 11
339.164028848
 21
749.8852042187
  0
LINE
  5
2F0
100
AcDbEntity
  8
0
100
AcDbLine
 62
7
  6
BYLAYER
 10
345.764028848
 20
749.8852042187
 11
352.964028848
 21
749.8852042187
  0
LINE
  5
2F1
100
AcDbEntity
  8
0
100
AcDbLine
 62
7
  6
BYLAYER
 10
299.164028848
 20
749.9852042187
 11
305.764028848
 21
749.9852042187
  0
LINE
  5
2F2
100
AcDbEntity
  8
0
100
AcDbLine
 62
7
  6
BYLAYER
 10
339.164028848
 20
749.9852042187
 11
345.764028848
 21
749.9852042187
  0
LINE
  5
2F3
100
AcDbEntity
  8
0
100
AcDbLine
 62
7
  6
BYLAYER
 10
321.3225806679
 20
750.3852042187
 11
329.6045125023
 21
750.3852042187
  0
LINE
  5
2F4
100
AcDbEntity
  8
0
100
AcDbLine
 62
7
  6
BYLAYER
 10
299.7908236446
 20
750.8852042187
 11
298.964028848
 21
750.8852042187
  0
LINE
  5
2F5
100
AcDbEntity
  8
0
100
AcDbLine
 62
7
  6
BYLAYER
 10
305.1372340515
 20
750.8852042187
 11
339.7908236446
 21
750.8852042187
  0
LINE
  5
2F6
100
AcDbEntity
  8
0
100
AcDbLine
 62
7
  6
BYLAYER
 10
345.1372340515
 20
750.8852042187
 11
351.964028848
 21
750.8852042187
  0
LINE
  5
2F7
100
AcDbEntity
  8
0
100
AcDbLine
 62
7
  6
BYLAYER
 10
300.1641214472
 20
750.9852042187
 11
304.7639447494
 21
750.9852042187
  0
LINE
  5
2F8
100
AcDbEntity
  8
0
100
AcDbLine
 62
7
  6
BYLAYER
 10
340.1641214472
 20
750.9852042187
 11
344.7639447494
 21
750.9852042187
  0
LINE
  5
2F9
100
AcDbEntity
  8
0
100
AcDbLine
 62
7
  6
BYLAYER
 10
343.7139645512
 20
752.3852042187
 11
328.2140931449
 21
752.3852042187
  0
LINE
  5
2FA
100
AcDbEntity
  8
0
100
AcDbLine
 62
7
  6
BYLAYER
 10
321.2139645512
 20
752.3852042187
 11
305.7140931449
 21
752.3852042187
  0
LINE
  5
2FB
100
AcDbEntity
  8
0
100
AcDbLine
 62
7
  6
BYLAYER
 10
343.714028848
 20
755.3852042187
 11
328.214028848
 21
755.3852042187
  0
LINE
  5
2FC
100
AcDbEntity
  8
0
100
AcDbLine
 62
7
  6
BYLAYER
 10
321.214028848
 20
755.3852042187
 11
305.714028848
 21
755.3852042187
  0
LINE
  5
2FD
100
AcDbEntity
  8
0
100
AcDbLine
 62
7
  6
BYLAYER
 10
305.714028848
 20
756.8852042187
 11
321.214028848
 21
756.8852042187
  0
LINE
  5
2FE
100
AcDbEntity
  8
0
100
AcDbLine
 62
7
  6
BYLAYER
 10
328.214028848
 20
756.8852042187
 11
343.714028848
 21
756.8852042187
  0
LINE
  5
2FF
100
AcDbEntity
  8
0
100
AcDbLine
 62
7
  6
BYLAYER
 10
306.214028848
 20
757.3852042187
 11
320.714028848
 21
757.3852042187
  0
LINE
  5
300
100
AcDbEntity
  8
0
100
AcDbLine
 62
7
  6
BYLAYER
 10
328.714028848
 20
757.3852042187
 11
343.214028848
 21
757.3852042187
  0
LINE
  5
301
100
AcDbEntity
  8
0
100
AcDbLine
 62
7
  6
BYLAYER
 10
309.340288848
 20
758.5852042187
 11
317.590288848
 21
758.5852042187
  0
LINE
  5
302
100
AcDbEntity
  8
0
100
AcDbLine
 62
7
  6
BYLAYER
 10
331.839608848
 20
758.5852042187
 11
340.0297810461
 21
758.5852042187
  0
LINE
  5
303
100
AcDbEntity
  8
0
100
AcDbLine
 62
7
  6
BYLAYER
 10
309.6403763241
 20
758.8852042187
 11
317.2903074652
 21
758.8852042187
  0
LINE
  5
304
100
AcDbEntity
  8
0
100
AcDbLine
 62
7
  6
BYLAYER
 10
332.1396175123
 20
758.8852042187
 11
339.725003482
 21
758.8852042187
  0
LINE
  5
305
100
AcDbEntity
  8
0
100
AcDbLine
 62
7
  6
BYLAYER
 10
329.964028848
 20
760.8852032813
 11
341.964028848
 21
760.8852032813
  0
LINE
  5
306
100
AcDbEntity
  8
0
100
AcDbLine
 62
7
  6
BYLAYER
 10
330.4640282838
 20
761.3852042187
 11
341.4640294123
 21
761.3852042187
  0
ARC
  5
307
100
AcDbEntity
  8
3
100
AcDbCircle
 62
7
  6
BYLAYER
 10
252.722368033
 20
157.233379342
 40
5.0
100
AcDbArc
 50
90.0
 51
180.0
  0
ARC
  5
308
100
AcDbEntity
  8
3
100
AcDbCircle
 62
7
  6
BYLAYER
 10
252.722368033
 20
117.233379342
 40
5.0
100
AcDbArc
 50
180.0
 51
270.0
  0
ARC
  5
309
100
AcDbEntity
  8
3
100
AcDbCircle
 62
7
  6
BYLAYER
 10
255.922368033
 20
122.233379342
 40
3.25
100
AcDbArc
 50
90.0
 51
270.0
  0
ARC
  5
30A
100
AcDbEntity
  8
3
100
AcDbCircle
 62
7
  6
BYLAYER
 10
269.422368033
 20
122.233379342
 40
3.25
100
AcDbArc
 50
270.0
 51
90.0
  0
ARC
  5
30B
100
AcDbEntity
  8
3
100
AcDbCircle
 62
7
  6
BYLAYER
 10
255.922368033
 20
152.233379342
 40
3.25
100
AcDbArc
 50
90.0
 51
270.0
  0
ARC
  5
30C
100
AcDbEntity
  8
3
100
AcDbCircle
 62
7
  6
BYLAYER
 10
269.422368033
 20
152.233379342
 40
3.25
100
AcDbArc
 50
270.0
 51
90.0
  0
ARC
  5
30D
100
AcDbEntity
  8
0
100
AcDbCircle
 62
7
  6
BYLAYER
 10
300.1642750269
 20
68.2852042187
 40
1.0
100
AcDbArc
 50
180.0
 51
270.0
  0
ARC
  5
30E
100
AcDbEntity
  8
0
100
AcDbCircle
 62
7
  6
BYLAYER
 10
298.9637881109
 20
68.3850940803
 40
1.0
100
AcDbArc
 50
180.0000000001
 51
270.0
  0
ARC
  5
30F
100
AcDbEntity
  8
0
100
AcDbCircle
 62
7
  6
BYLAYER
 10
298.4637881109
 20
70.3850940803
 40
0.5
100
AcDbArc
 50
180.0
 51
270.0
  0
ARC
  5
310
100
AcDbEntity
  8
3
100
AcDbCircle
 62
7
  6
BYLAYER
 10
252.722368033
 20
703.5682818028
 40
5.0
100
AcDbArc
 50
90.0
 51
180.0
  0
ARC
  5
311
100
AcDbEntity
  8
3
100
AcDbCircle
 62
7
  6
BYLAYER
 10
252.722368033
 20
663.5682818028
 40
5.0
100
AcDbArc
 50
180.0
 51
270.0
  0
ARC
  5
312
100
AcDbEntity
  8
3
100
AcDbCircle
 62
7
  6
BYLAYER
 10
255.922368033
 20
668.5682818028
 40
3.25
100
AcDbArc
 50
90.0
 51
270.0
  0
ARC
  5
313
100
AcDbEntity
  8
3
100
AcDbCircle
 62
7
  6
BYLAYER
 10
269.422368033
 20
668.5682818028
 40
3.25
100
AcDbArc
 50
270.0
 51
90.0
  0
ARC
  5
314
100
AcDbEntity
  8
3
100
AcDbCircle
 62
7
  6
BYLAYER
 10
255.922368033
 20
698.5682818028
 40
3.25
100
AcDbArc
 50
90.0
 51
270.0
  0
ARC
  5
315
100
AcDbEntity
  8
3
100
AcDbCircle
 62
7
  6
BYLAYER
 10
269.422368033
 20
698.5682818028
 40
3.25
100
AcDbArc
 50
270.0
 51
90.0
  0
ARC
  5
316
100
AcDbEntity
  8
0
100
AcDbCircle
 62
7
  6
BYLAYER
 10
300.164028848
 20
749.9852042187
 40
1.0
100
AcDbArc
 50
90.0
 51
180.0
  0
ARC
  5
317
100
AcDbEntity
  8
0
100
AcDbCircle
 62
7
  6
BYLAYER
 10
298.964028848
 20
749.8852042187
 40
1.0
100
AcDbArc
 50
90.0
 51
180.0000000001
  0
ARC
  5
318
100
AcDbEntity
  8
0
100
AcDbCircle
 62
7
  6
BYLAYER
 10
298.464028848
 20
747.8852042187
 40
0.5
100
AcDbArc
 50
90.0
 51
180.0
  0
ARC
  5
319
100
AcDbEntity
  8
0
100
AcDbCircle
 62
7
  6
BYLAYER
 10
325.6905907034
 20
55.8105653973
 40
25.9492033492
100
AcDbArc
 50
33.0803197527
 51
33.623639097
  0
ARC
  5
31A
100
AcDbEntity
  8
0
100
AcDbCircle
 62
7
  6
BYLAYER
 10
304.7642750269
 20
68.2852042187
 40
1.0
100
AcDbArc
 50
270.0
 51
360.0
  0
ARC
  5
31B
100
AcDbEntity
  8
0
100
AcDbCircle
 62
7
  6
BYLAYER
 10
340.1642869001
 20
68.2852042187
 40
1.0
100
AcDbArc
 50
180.0
 51
270.0
  0
ARC
  5
31C
100
AcDbEntity
  8
0
100
AcDbCircle
 62
7
  6
BYLAYER
 10
344.7642869001
 20
68.2852042187
 40
1.0
100
AcDbArc
 50
270.0
 51
360.0
  0
ARC
  5
31D
100
AcDbEntity
  8
0
100
AcDbCircle
 62
7
  6
BYLAYER
 10
320.4637881109
 20
68.3850940803
 40
1.0
100
AcDbArc
 50
270.0
 51
360.0
  0
ARC
  5
31E
100
AcDbEntity
  8
0
100
AcDbCircle
 62
7
  6
BYLAYER
 10
330.4637881109
 20
68.3850940803
 40
1.0
100
AcDbArc
 50
179.9999999984
 51
270.0
  0
ARC
  5
31F
100
AcDbEntity
  8
0
100
AcDbCircle
 62
7
  6
BYLAYER
 10
337.9637881109
 20
68.3850940803
 40
1.0
100
AcDbArc
 50
270.0
 51
360.0
  0
ARC
  5
320
100
AcDbEntity
  8
0
100
AcDbCircle
 62
7
  6
BYLAYER
 10
346.9637881109
 20
68.3850940803
 40
1.0
100
AcDbArc
 50
180.0
 51
270.0
  0
ARC
  5
321
100
AcDbEntity
  8
0
100
AcDbCircle
 62
7
  6
BYLAYER
 10
306.9637881109
 20
68.3850940803
 40
1.0
100
AcDbArc
 50
180.0
 51
270.0
  0
ARC
  5
322
100
AcDbEntity
  8
0
100
AcDbCircle
 62
7
  6
BYLAYER
 10
351.9637881108
 20
68.3850940803
 40
1.0
100
AcDbArc
 50
270.0000000017
 51
360.0
  0
ARC
  5
323
100
AcDbEntity
  8
0
100
AcDbCircle
 62
7
  6
BYLAYER
 10
305.4637881109
 20
69.3850940803
 40
0.5
100
AcDbArc
 50
0.0
 51
90.0
  0
ARC
  5
324
100
AcDbEntity
  8
0
100
AcDbCircle
 62
7
  6
BYLAYER
 10
339.4637881109
 20
69.3850940803
 40
0.5
100
AcDbArc
 50
90.0
 51
180.0
  0
ARC
  5
325
100
AcDbEntity
  8
0
100
AcDbCircle
 62
7
  6
BYLAYER
 10
345.4637881109
 20
69.3850940803
 40
0.5
100
AcDbArc
 50
0.0
 51
90.0
  0
ARC
  5
326
100
AcDbEntity
  8
0
100
AcDbCircle
 62
7
  6
BYLAYER
 10
304.764028848
 20
749.9852042187
 40
1.0
100
AcDbArc
 50
0.0
 51
90.0
  0
ARC
  5
327
100
AcDbEntity
  8
0
100
AcDbCircle
 62
7
  6
BYLAYER
 10
306.964028848
 20
749.8852042187
 40
1.0
100
AcDbArc
 50
90.0
 51
180.0
  0
ARC
  5
328
100
AcDbEntity
  8
0
100
AcDbCircle
 62
7
  6
BYLAYER
 10
320.464028848
 20
749.8852042187
 40
1.0
100
AcDbArc
 50
0.0
 51
90.0
  0
ARC
  5
329
100
AcDbEntity
  8
0
100
AcDbCircle
 62
7
  6
BYLAYER
 10
305.464028848
 20
748.8852042187
 40
0.5
100
AcDbArc
 50
270.0
 51
360.0
  0
ARC
  5
32A
100
AcDbEntity
  8
0
100
AcDbCircle
 62
7
  6
BYLAYER
 10
327.964028848
 20
747.3852042187
 40
0.5
100
AcDbArc
 50
102.1468526144
 51
282.1468526144
  0
ARC
  5
32B
100
AcDbEntity
  8
0
100
AcDbCircle
 62
7
  6
BYLAYER
 10
321.464028848
 20
747.3852042187
 40
0.5
100
AcDbArc
 50
257.8196647598
 51
77.8196647598
  0
ARC
  5
32C
100
AcDbEntity
  8
0
100
AcDbCircle
 62
7
  6
BYLAYER
 10
324.2370407976
 20
763.416583972
 40
27.6896077245
100
AcDbArc
 50
326.3934359328
 51
326.902605216
  0
ARC
  5
32D
100
AcDbEntity
  8
0
100
AcDbCircle
 62
7
  6
BYLAYER
 10
309.640288848
 20
758.5852042187
 40
0.3
100
AcDbArc
 50
90.0
 51
180.0
  0
ARC
  5
32E
100
AcDbEntity
  8
0
100
AcDbCircle
 62
7
  6
BYLAYER
 10
317.290288848
 20
758.5852042187
 40
0.3
100
AcDbArc
 50
0.0
 51
90.0
  0
ARC
  5
32F
100
AcDbEntity
  8
0
100
AcDbCircle
 62
7
  6
BYLAYER
 10
340.164028848
 20
749.9852042187
 40
1.0
100
AcDbArc
 50
90.0
 51
180.0
  0
ARC
  5
330
100
AcDbEntity
  8
0
100
AcDbCircle
 62
7
  6
BYLAYER
 10
344.764028848
 20
749.9852042187
 40
1.0
100
AcDbArc
 50
0.0
 51
90.0
  0
ARC
  5
331
100
AcDbEntity
  8
0
100
AcDbCircle
 62
7
  6
BYLAYER
 10
330.464028848
 20
749.8852042187
 40
1.0
100
AcDbArc
 50
90.0
 51
180.0000000008
  0
ARC
  5
332
100
AcDbEntity
  8
0
100
AcDbCircle
 62
7
  6
BYLAYER
 10
351.9640288481
 20
749.8852042187
 40
1.0
100
AcDbArc
 50
0.0000000002
 51
90.0000000009
  0
ARC
  5
333
100
AcDbEntity
  8
0
100
AcDbCircle
 62
7
  6
BYLAYER
 10
337.964028848
 20
749.8852042187
 40
1.0
100
AcDbArc
 50
0.0
 51
90.0
  0
ARC
  5
334
100
AcDbEntity
  8
0
100
AcDbCircle
 62
7
  6
BYLAYER
 10
346.9640288481
 20
749.8852042187
 40
1.0
100
AcDbArc
 50
90.0000000003
 51
180.0
  0
ARC
  5
335
100
AcDbEntity
  8
0
100
AcDbCircle
 62
7
  6
BYLAYER
 10
345.464028848
 20
748.8852042187
 40
0.5
100
AcDbArc
 50
270.0
 51
360.0
  0
ARC
  5
336
100
AcDbEntity
  8
0
100
AcDbCircle
 62
7
  6
BYLAYER
 10
339.464028848
 20
748.8852042187
 40
0.5
100
AcDbArc
 50
180.0
 51
270.0
  0
ARC
  5
337
100
AcDbEntity
  8
0
100
AcDbCircle
 62
7
  6
BYLAYER
 10
339.7268734628
 20
758.5804341347
 40
0.3044707676
100
AcDbArc
 50
36.4827958936
 51
54.5150619302
  0
ARC
  5
338
100
AcDbEntity
  8
0
100
AcDbCircle
 62
7
  6
BYLAYER
 10
332.139608848
 20
758.5852042187
 40
0.3
100
AcDbArc
 50
90.0
 51
180.0
  0
ARC
  5
339
100
AcDbEntity
  8
0
100
AcDbCircle
 62
7
  6
BYLAYER
 10
339.732791888
 20
758.5850137765
 40
0.2969892192
100
AcDbArc
 50
0.036740526
 51
36.4513093086
  0
SPLINE
  5
33A
100
AcDbEntity
  8
0
100
AcDbSpline
 62
7
  6
BYLAYER
 70
0
 71
3
 72
9
 73
5
 74
0
 42
0.0000001
 43
0.0000001
 44
0.0000000001
 40
0.0
 40
0.0
 40
0.0
 40
0.0
 40
0.4999750335
 40
1.0
 40
1.0
 40
1.0
 40
1.0
 10
339.9036153701
 20
758.828354982
 30
0.0
 10
339.8778604545
 20
758.8466909407
 30
0.0
 10
339.8202358471
 20
758.8754313837
 30
0.0
 10
339.7566219995
 20
758.8852049808
 30
0.0
 10
339.7250036075
 20
758.8852042187
 30
0.0
  0
SPLINE
  5
33B
100
AcDbEntity
  8
0
100
AcDbSpline
 62
7
  6
BYLAYER
 70
0
 71
3
 72
17
 73
13
 74
0
 42
0.0000001
 43
0.0000001
 44
0.0000000001
 40
0.0
 40
0.0
 40
0.0
 40
0.0
 40
0.1238091836
 40
0.2666977847
 40
0.4203036585
 40
0.5759631864
 40
0.7251560335
 40
0.8569227994
 40
0.9124057945
 40
0.9574409018
 40
0.98839902
 40
1.0
 40
1.0
 40
1.0
 40
1.0
 10
298.9640288597
 20
748.8852042187
 30
0.0
 10
298.9640287866
 20
748.8553545401
 30
0.0
 10
298.9403462705
 20
748.7918935397
 30
0.0
 10
298.87566807
 20
748.713801898
 30
0.0
 10
298.7977363934
 20
748.6372988384
 30
0.0
 10
298.7134278862
 20
748.5657773277
 30
0.0
 10
298.6313767455
 20
748.4998230044
 30
0.0
 10
298.5662724885
 20
748.4513651724
 30
0.0
 10
298.520537863
 20
748.4191094874
 30
0.0
 10
298.4932398242
 20
748.4026978577
 30
0.0
 10
298.4764835317
 20
748.3902293207
 30
0.0
 10
298.4657668563
 20
748.3873956069
 30
0.0
 10
298.4640288563
 20
748.3852042216
 30
0.0
  0
SPLINE
  5
33C
100
AcDbEntity
  8
0
100
AcDbSpline
 62
7
  6
BYLAYER
 70
0
 71
3
 72
13
 73
9
 74
0
 42
0.0000001
 43
0.0000001
 44
0.0000000001
 40
0.0
 40
0.0
 40
0.0
 40
0.0
 40
0.3392858511
 40
0.6244968217
 40
0.7400572223
 40
0.83843806
 40
0.9230857451
 40
1.0
 40
1.0
 40
1.0
 40
1.0
 10
320.9640274249
 20
749.8852042187
 30
0.0
 10
320.9640274245
 20
750.0218052369
 30
0.0
 10
320.9389057464
 20
750.2738189432
 30
0.0
 10
320.8444958772
 20
750.5606722686
 30
0.0
 10
320.7362496416
 20
750.7312278227
 30
0.0
 10
320.6518260852
 20
750.8183194992
 30
0.0
 10
320.5605122621
 20
750.8725413397
 30
0.0
 10
320.4949926134
 20
750.8851972222
 30
0.0
 10
320.4640259072
 20
750.8852042192
 30
0.0
  0
SPLINE
  5
33D
100
AcDbEntity
  8
0
100
AcDbSpline
 62
7
  6
BYLAYER
 70
0
 71
3
 72
14
 73
10
 74
0
 42
0.0000001
 43
0.0000001
 44
0.0000000001
 40
0.0
 40
0.0
 40
0.0
 40
0.0
 40
0.1247548922
 40
0.2497370872
 40
0.3748455166
 40
0.5000186734
 40
0.7495155103
 40
0.8747430806
 40
1.0
 40
1.0
 40
1.0
 40
1.0
 10
337.964028848
 20
748.8852042187
 30
0.0
 10
337.9640289837
 20
748.8021961365
 30
0.0
 10
337.9961611791
 20
748.6349713166
 30
0.0
 10
338.1186650946
 20
748.4143840761
 30
0.0
 10
338.2897787973
 20
748.2297633963
 30
0.0
 10
338.5618491992
 20
748.0354448747
 30
0.0
 10
338.8825860588
 20
747.9215563242
 30
0.0
 10
339.2138402113
 20
747.8851868787
 30
0.0
 10
339.3806867322
 20
747.8852042149
 30
0.0
 10
339.464028848
 20
747.8852042187
 30
0.0
  0
SPLINE
  5
33E
100
AcDbEntity
  8
0
100
AcDbSpline
 62
7
  6
BYLAYER
 70
0
 71
3
 72
12
 73
8
 74
0
 42
0.0000001
 43
0.0000001
 44
0.0000000001
 40
0.0
 40
0.0
 40
0.0
 40
0.0
 40
0.1204115357
 40
0.2167519688
 40
0.3384069038
 40
0.6443218671
 40
1.0
 40
1.0
 40
1.0
 40
1.0
 10
351.2387499759
 20
750.8852042187
 30
0.0
 10
351.2820155293
 20
750.8852042187
 30
0.0
 10
351.3469019642
 20
750.8165883061
 30
0.0
 10
351.3964944477
 20
750.7100697306
 30
0.0
 10
351.4557219446
 20
750.5290045676
 30
0.0
 10
351.5008764242
 20
750.2510891322
 30
0.0
 10
351.5134711038
 20
750.0130043597
 30
0.0
 10
351.5134711038
 20
749.8852042187
 30
0.0
  0
SPLINE
  5
33F
100
AcDbEntity
  8
0
100
AcDbSpline
 62
7
  6
BYLAYER
 70
0
 71
3
 72
9
 73
5
 74
0
 42
0.0000001
 43
0.0000001
 44
0.0000000001
 40
0.0
 40
0.0
 40
0.0
 40
0.0
 40
0.2472785885
 40
1.0
 40
1.0
 40
1.0
 40
1.0
 10
347.8761105399
 20
747.8852042187
 30
0.0
 10
347.8286816129
 20
747.9026385045
 30
0.0
 10
347.6367673071
 20
747.9728367555
 30
0.0
 10
347.4441910245
 20
748.041264637
 30
0.0
 10
347.2985475718
 20
748.0907469228
 30
0.0
  0
SPLINE
  5
340
100
AcDbEntity
  8
0
100
AcDbSpline
 62
7
  6
BYLAYER
 70
0
 71
3
 72
9
 73
5
 74
0
 42
0.0000001
 43
0.0000001
 44
0.0000000001
 40
0.0
 40
0.0
 40
0.0
 40
0.0
 40
0.7518345395
 40
1.0
 40
1.0
 40
1.0
 40
1.0
 10
347.4338310761
 20
748.2962897348
 30
0.0
 10
347.5480327427
 20
748.1969888982
 30
0.0
 10
347.696002128
 20
748.0603638178
 30
0.0
 10
347.8404431581
 20
747.9201777464
 30
0.0
 10
347.8761106342
 20
747.8852043228
 30
0.0
  0
SPLINE
  5
341
100
AcDbEntity
  8
0
100
AcDbSpline
 62
7
  6
BYLAYER
 70
0
 71
3
 72
11
 73
7
 74
0
 42
0.0000001
 43
0.0000001
 44
0.0000000001
 40
0.0
 40
0.0
 40
0.0
 40
0.0
 40
0.2113294637
 40
0.4594517307
 40
0.7260918999
 40
1.0
 40
1.0
 40
1.0
 40
1.0
 10
346.3763440775
 20
748.8852042187
 30
0.0
 10
346.4627450806
 20
748.8852036322
 30
0.0
 10
346.647990335
 20
748.8293772217
 30
0.0
 10
346.9089913197
 20
748.6892814514
 30
0.0
 10
347.1762195873
 20
748.5074244563
 30
0.0
 10
347.3493165128
 20
748.3697618087
 30
0.0
 10
347.4338309823
 20
748.2962896268
 30
0.0
  0
SPLINE
  5
342
100
AcDbEntity
  8
0
100
AcDbSpline
 62
7
  6
BYLAYER
 70
0
 71
3
 72
10
 73
6
 74
0
 42
0.0000001
 43
0.0000001
 44
0.0000000001
 40
0.0
 40
0.0
 40
0.0
 40
0.0
 40
0.5192781373
 40
0.7706703291
 40
1.0
 40
1.0
 40
1.0
 40
1.0
 10
347.2985476312
 20
748.0907471284
 30
0.0
 10
347.0828333515
 20
748.1672503167
 30
0.0
 10
346.757029716
 20
748.2662933044
 30
0.0
 10
346.3264378356
 20
748.36018921
 30
0.0
 10
346.1148624448
 20
748.3852039812
 30
0.0
 10
346.0137824308
 20
748.3852042187
 30
0.0
  0
SPLINE
  5
343
100
AcDbEntity
  8
0
100
AcDbSpline
 62
7
  6
BYLAYER
 70
0
 71
3
 72
9
 73
5
 74
0
 42
0.0000001
 43
0.0000001
 44
0.0000000001
 40
0.0
 40
0.0
 40
0.0
 40
0.0
 40
0.2566268573
 40
1.0
 40
1.0
 40
1.0
 40
1.0
 10
347.3106906806
 20
747.8852042187
 30
0.0
 10
347.3106906806
 20
747.9028234745
 30
0.0
 10
347.3096859202
 20
747.971473025
 30
0.0
 10
347.3048224637
 20
748.0400962836
 30
0.0
 10
347.2985475718
 20
748.0907469228
 30
0.0
  0
SPLINE
  5
344
100
AcDbEntity
  8
0
100
AcDbSpline
 62
7
  6
BYLAYER
 70
0
 71
3
 72
12
 73
8
 74
0
 42
0.0000001
 43
0.0000001
 44
0.0000000001
 40
0.0
 40
0.0
 40
0.0
 40
0.0
 40
0.3555601317
 40
0.6614267398
 40
0.7831217149
 40
0.8795320322
 40
1.0
 40
1.0
 40
1.0
 40
1.0
 10
347.8761105399
 20
749.8852042187
 30
0.0
 10
347.8761105399
 20
750.0129615001
 30
0.0
 10
347.8635240102
 20
750.2509859986
 30
0.0
 10
347.8183910941
 20
750.5288556219
 30
0.0
 10
347.7591819762
 20
750.7099507968
 30
0.0
 10
347.7095854975
 20
750.8165261006
 30
0.0
 10
347.6446750863
 20
750.8852042187
 30
0.0
 10
347.601389412
 20
750.8852042187
 30
0.0
  0
SPLINE
  5
345
100
AcDbEntity
  8
0
100
AcDbSpline
 62
7
  6
BYLAYER
 70
0
 71
3
 72
11
 73
7
 74
0
 42
0.0000001
 43
0.0000001
 44
0.0000000001
 40
0.0
 40
0.0
 40
0.0
 40
0.0
 40
0.2742864213
 40
0.5514542927
 40
0.7962818329
 40
1.0
 40
1.0
 40
1.0
 40
1.0
 10
346.3763440785
 20
748.8852042187
 30
0.0
 10
346.3763440718
 20
748.8232710654
 30
0.0
 10
346.3596503926
 20
748.698069302
 30
0.0
 10
346.2838926204
 20
748.5314849075
 30
0.0
 10
346.1622652643
 20
748.4138442537
 30
0.0
 10
346.0597814618
 20
748.3852042184
 30
0.0
 10
346.0137824349
 20
748.3852042187
 30
0.0
  0
SPLINE
  5
346
100
AcDbEntity
  8
0
100
AcDbSpline
 62
7
  6
BYLAYER
 70
0
 71
3
 72
13
 73
9
 74
0
 42
0.0000001
 43
0.0000001
 44
0.0000000001
 40
0.0
 40
0.0
 40
0.0
 40
0.0
 40
0.0769117591
 40
0.1615599831
 40
0.2599401278
 40
0.3754978975
 40
0.6607031278
 40
1.0
 40
1.0
 40
1.0
 40
1.0
 10
330.4640308823
 20
750.8852042191
 30
0.0
 10
330.4330651804
 20
750.8851978799
 30
0.0
 10
330.3675463281
 20
750.872541694
 30
0.0
 10
330.2762329543
 20
750.8183214715
 30
0.0
 10
330.1918097741
 20
750.7312308798
 30
0.0
 10
330.083564318
 20
750.5606792804
 30
0.0
 10
329.9891516394
 20
750.2738256392
 30
0.0
 10
329.9640300338
 20
750.0218096758
 30
0.0
 10
329.9640293889
 20
749.8852042188
 30
0.0
  0
SPLINE
  5
347
100
AcDbEntity
  8
0
100
AcDbSpline
 62
7
  6
BYLAYER
 70
0
 71
3
 72
14
 73
10
 74
0
 42
0.0000001
 43
0.0000001
 44
0.0000000001
 40
0.0
 40
0.0
 40
0.0
 40
0.0
 40
0.1247554493
 40
0.2497373879
 40
0.3748457258
 40
0.5000187559
 40
0.7495153736
 40
0.8747430248
 40
1.0
 40
1.0
 40
1.0
 40
1.0
 10
306.964028848
 20
748.8852042187
 30
0.0
 10
306.9640286278
 20
748.802195765
 30
0.0
 10
306.9318963763
 20
748.6349707333
 30
0.0
 10
306.8093921442
 20
748.4143835049
 30
0.0
 10
306.6382785768
 20
748.229763149
 30
0.0
 10
306.3662083726
 20
748.0354448388
 30
0.0
 10
306.0454716978
 20
747.9215564277
 30
0.0
 10
305.7142176221
 20
747.8851866826
 30
0.0
 10
305.5473710017
 20
747.885204198
 30
0.0
 10
305.464028848
 20
747.8852042187
 30
0.0
  0
SPLINE
  5
348
100
AcDbEntity
  8
0
100
AcDbSpline
 62
7
  6
BYLAYER
 70
0
 71
3
 72
13
 73
9
 74
0
 42
0.0000001
 43
0.0000001
 44
0.0000000001
 40
0.0
 40
0.0
 40
0.0
 40
0.0
 40
0.3392858707
 40
0.6244968406
 40
0.7400572789
 40
0.8384380735
 40
0.9230857477
 40
1.0
 40
1.0
 40
1.0
 40
1.0
 10
329.9637894186
 20
68.3850940803
 30
0.0
 10
329.963789419
 20
68.2484930515
 30
0.0
 10
329.9889110819
 20
67.9964793192
 30
0.0
 10
330.0833210239
 20
67.7096260092
 30
0.0
 10
330.1915671792
 20
67.539070394
 30
0.0
 10
330.2759907963
 20
67.4519787767
 30
0.0
 10
330.3673046048
 20
67.3977569679
 30
0.0
 10
330.432824248
 20
67.3851010741
 30
0.0
 10
330.4637909537
 20
67.3850940798
 30
0.0
  0
SPLINE
  5
349
100
AcDbEntity
  8
0
100
AcDbSpline
 62
7
  6
BYLAYER
 70
0
 71
3
 72
12
 73
8
 74
0
 42
0.0000001
 43
0.0000001
 44
0.0000000001
 40
0.0
 40
0.0
 40
0.0
 40
0.0
 40
0.1204115357
 40
0.2167519688
 40
0.3384069038
 40
0.6443218671
 40
1.0
 40
1.0
 40
1.0
 40
1.0
 10
347.6011486748
 20
67.3850940803
 30
0.0
 10
347.6444142282
 20
67.3850940803
 30
0.0
 10
347.7093006631
 20
67.4537099929
 30
0.0
 10
347.7588931466
 20
67.5602285684
 30
0.0
 10
347.8181206435
 20
67.7412937314
 30
0.0
 10
347.8632751231
 20
68.0192091668
 30
0.0
 10
347.8758698027
 20
68.2572939393
 30
0.0
 10
347.8758698027
 20
68.3850940803
 30
0.0
  0
SPLINE
  5
34A
100
AcDbEntity
  8
0
100
AcDbSpline
 62
7
  6
BYLAYER
 70
0
 71
3
 72
17
 73
13
 74
0
 42
0.0000001
 43
0.0000001
 44
0.0000000001
 40
0.0
 40
0.0
 40
0.0
 40
0.0
 40
0.01160098
 40
0.0425590982
 40
0.0875942055
 40
0.1430772007
 40
0.2748439667
 40
0.4240368139
 40
0.5796963419
 40
0.7333022157
 40
0.8761908166
 40
1.0
 40
1.0
 40
1.0
 40
1.0
 10
298.4637881183
 20
69.8850940774
 30
0.0
 10
298.4655241584
 20
69.8829011393
 30
0.0
 10
298.476245291
 20
69.8800709571
 30
0.0
 10
298.4929977347
 20
69.8675993705
 30
0.0
 10
298.5202976366
 20
69.8511892171
 30
0.0
 10
298.5660313665
 20
69.8189328223
 30
0.0
 10
298.6311361628
 20
69.7704754176
 30
0.0
 10
298.7131871018
 20
69.7045209345
 30
0.0
 10
298.7974956673
 20
69.63299947
 30
0.0
 10
298.8754273283
 20
69.5564963982
 30
0.0
 10
298.9401055324
 20
69.4784047597
 30
0.0
 10
298.9637880477
 20
69.4149437588
 30
0.0
 10
298.9637881208
 20
69.3850940803
 30
0.0
  0
SPLINE
  5
34B
100
AcDbEntity
  8
0
100
AcDbSpline
 62
7
  6
BYLAYER
 70
0
 71
3
 72
14
 73
10
 74
0
 42
0.0000001
 43
0.0000001
 44
0.0000000001
 40
0.0
 40
0.0
 40
0.0
 40
0.0
 40
0.124755068
 40
0.2497371838
 40
0.3748455004
 40
0.5000186091
 40
0.7495154875
 40
0.8747430736
 40
1.0
 40
1.0
 40
1.0
 40
1.0
 10
306.9637881109
 20
69.3850940803
 30
0.0
 10
306.9637878905
 20
69.4681022795
 30
0.0
 10
306.9316557641
 20
69.6353271663
 30
0.0
 10
306.8091517472
 20
69.8559143585
 30
0.0
 10
306.6380381436
 20
70.0405348935
 30
0.0
 10
306.3659678227
 20
70.234853391
 30
0.0
 10
306.0452309626
 20
70.3487419739
 30
0.0
 10
305.7139767675
 20
70.3851114154
 30
0.0
 10
305.5471302314
 20
70.385094101
 30
0.0
 10
305.4637881109
 20
70.3850940803
 30
0.0
  0
SPLINE
  5
34C
100
AcDbEntity
  8
0
100
AcDbSpline
 62
7
  6
BYLAYER
 70
0
 71
3
 72
13
 73
9
 74
0
 42
0.0000001
 43
0.0000001
 44
0.0000000001
 40
0.0
 40
0.0
 40
0.0
 40
0.0
 40
0.0769117553
 40
0.161559974
 40
0.2599401127
 40
0.3754978776
 40
0.6607031082
 40
1.0
 40
1.0
 40
1.0
 40
1.0
 10
320.463786169
 20
67.3850940799
 30
0.0
 10
320.4947518698
 20
67.3851004161
 30
0.0
 10
320.5602707208
 20
67.3977565951
 30
0.0
 10
320.6515840952
 20
67.4519768085
 30
0.0
 10
320.7360072769
 20
67.5390673924
 30
0.0
 10
320.8442527385
 20
67.7096189873
 30
0.0
 10
320.9386654253
 20
67.9964726377
 30
0.0
 10
320.9637870339
 20
68.2484886131
 30
0.0
 10
320.9637876789
 20
68.3850940802
 30
0.0
  0
SPLINE
  5
34D
100
AcDbEntity
  8
0
100
AcDbSpline
 62
7
  6
BYLAYER
 70
0
 71
3
 72
14
 73
10
 74
0
 42
0.0000001
 43
0.0000001
 44
0.0000000001
 40
0.0
 40
0.0
 40
0.0
 40
0.0
 40
0.1247554493
 40
0.2497373879
 40
0.3748457258
 40
0.5000187559
 40
0.7495153736
 40
0.8747430248
 40
1.0
 40
1.0
 40
1.0
 40
1.0
 10
337.9637881109
 20
69.3850940803
 30
0.0
 10
337.9637883312
 20
69.468102534
 30
0.0
 10
337.9959205826
 20
69.6353275657
 30
0.0
 10
338.1184248147
 20
69.8559147941
 30
0.0
 10
338.2895383822
 20
70.04053515
 30
0.0
 10
338.5616085863
 20
70.2348534602
 30
0.0
 10
338.8823452611
 20
70.3487418713
 30
0.0
 10
339.2135993368
 20
70.3851116164
 30
0.0
 10
339.3804459572
 20
70.385094101
 30
0.0
 10
339.4637881109
 20
70.3850940803
 30
0.0
  0
SPLINE
  5
34E
100
AcDbEntity
  8
0
100
AcDbSpline
 62
7
  6
BYLAYER
 70
0
 71
3
 72
12
 73
8
 74
0
 42
0.0000001
 43
0.0000001
 44
0.0000000001
 40
0.0
 40
0.0
 40
0.0
 40
0.0
 40
0.3555601317
 40
0.6614267398
 40
0.7831217149
 40
0.8795320322
 40
1.0
 40
1.0
 40
1.0
 40
1.0
 10
351.5132303667
 20
68.3850940803
 30
0.0
 10
351.5132303667
 20
68.2573367989
 30
0.0
 10
351.500643837
 20
68.0193123004
 30
0.0
 10
351.4555109209
 20
67.7414426771
 30
0.0
 10
351.396301803
 20
67.5603475022
 30
0.0
 10
351.3467053243
 20
67.4537721984
 30
0.0
 10
351.2817949131
 20
67.3850940803
 30
0.0
 10
351.2385092388
 20
67.3850940803
 30
0.0
  0
SPLINE
  5
34F
100
AcDbEntity
  8
0
100
AcDbSpline
 62
7
  6
BYLAYER
 70
0
 71
3
 72
9
 73
5
 74
0
 42
0.0000001
 43
0.0000001
 44
0.0000000001
 40
0.0
 40
0.0
 40
0.0
 40
0.0
 40
0.2481650378
 40
1.0
 40
1.0
 40
1.0
 40
1.0
 10
347.8758699349
 20
70.3850939345
 30
0.0
 10
347.84020251
 20
70.35012058
 30
0.0
 10
347.6957614561
 20
70.2099345334
 30
0.0
 10
347.5477921065
 20
70.0733094144
 30
0.0
 10
347.4335903766
 20
69.974008521
 30
0.0
  0
SPLINE
  5
350
100
AcDbEntity
  8
0
100
AcDbSpline
 62
7
  6
BYLAYER
 70
0
 71
3
 72
9
 73
5
 74
0
 42
0.0000001
 43
0.0000001
 44
0.0000000001
 40
0.0
 40
0.0
 40
0.0
 40
0.0
 40
0.2472783313
 40
1.0
 40
1.0
 40
1.0
 40
1.0
 10
347.8758698027
 20
70.3850940803
 30
0.0
 10
347.8284409233
 20
70.367659825
 30
0.0
 10
347.6365240395
 20
70.2974686739
 30
0.0
 10
347.4439503321
 20
70.2290336686
 30
0.0
 10
347.2983068347
 20
70.1795513762
 30
0.0
  0
SPLINE
  5
351
100
AcDbEntity
  8
0
100
AcDbSpline
 62
7
  6
BYLAYER
 70
0
 71
3
 72
11
 73
7
 74
0
 42
0.0000001
 43
0.0000001
 44
0.0000000001
 40
0.0
 40
0.0
 40
0.0
 40
0.0
 40
0.2113298764
 40
0.4594518575
 40
0.7260919632
 40
1.0
 40
1.0
 40
1.0
 40
1.0
 10
346.3761033197
 20
69.3850940803
 30
0.0
 10
346.4625044924
 20
69.3850946626
 30
0.0
 10
346.647749789
 20
69.440921189
 30
0.0
 10
346.908750769
 20
69.5810169972
 30
0.0
 10
347.1759789281
 20
69.762873864
 30
0.0
 10
347.349075801
 20
69.9005364988
 30
0.0
 10
347.4335902451
 20
69.9740086723
 30
0.0
  0
SPLINE
  5
352
100
AcDbEntity
  8
0
100
AcDbSpline
 62
7
  6
BYLAYER
 70
0
 71
3
 72
11
 73
7
 74
0
 42
0.0000001
 43
0.0000001
 44
0.0000000001
 40
0.0
 40
0.0
 40
0.0
 40
0.0
 40
0.2037181708
 40
0.4485457117
 40
0.7257135813
 40
1.0
 40
1.0
 40
1.0
 40
1.0
 10
346.0135416796
 20
69.8850940803
 30
0.0
 10
346.0595407075
 20
69.8850940806
 30
0.0
 10
346.1620245112
 20
69.8564540455
 30
0.0
 10
346.283651868
 20
69.7388133909
 30
0.0
 10
346.3594096384
 20
69.572228996
 30
0.0
 10
346.3761033153
 20
69.4470272331
 30
0.0
 10
346.3761033208
 20
69.3850940803
 30
0.0
  0
SPLINE
  5
353
100
AcDbEntity
  8
0
100
AcDbSpline
 62
7
  6
BYLAYER
 70
0
 71
3
 72
9
 73
5
 74
0
 42
0.0000001
 43
0.0000001
 44
0.0000000001
 40
0.0
 40
0.0
 40
0.0
 40
0.0
 40
0.2408658181
 40
1.0
 40
1.0
 40
1.0
 40
1.0
 10
347.2983068347
 20
70.1795513762
 30
0.0
 10
347.3003400387
 20
70.1959633062
 30
0.0
 10
347.3075790209
 20
70.2642463828
 30
0.0
 10
347.3104499434
 20
70.3329733588
 30
0.0
 10
347.3104499434
 20
70.3850940803
 30
0.0
  0
SPLINE
  5
354
100
AcDbEntity
  8
0
100
AcDbSpline
 62
7
  6
BYLAYER
 70
0
 71
3
 72
10
 73
6
 74
0
 42
0.0000001
 43
0.0000001
 44
0.0000000001
 40
0.0
 40
0.0
 40
0.0
 40
0.0
 40
0.2293296864
 40
0.4807218845
 40
1.0
 40
1.0
 40
1.0
 40
1.0
 10
346.0135417003
 20
69.8850940803
 30
0.0
 10
346.1146217206
 20
69.8850943167
 30
0.0
 10
346.3261971204
 20
69.9101090878
 30
0.0
 10
346.7567889988
 20
70.0040049931
 30
0.0
 10
347.0825926284
 20
70.1030479723
 30
0.0
 10
347.2983068972
 20
70.1795511598
 30
0.0
  0
SPLINE
  5
355
100
AcDbEntity
  8
0
100
AcDbSpline
 62
7
  6
BYLAYER
 70
0
 71
3
 72
14
 73
10
 74
0
 42
0.0000001
 43
0.0000001
 44
0.0000000001
 40
0.0
 40
0.0
 40
0.0
 40
0.0
 40
0.0669619088
 40
0.1861538853
 40
0.3431999851
 40
0.5191582703
 40
0.6928056708
 40
0.8431978474
 40
1.0
 40
1.0
 40
1.0
 40
1.0
 10
335.9474112359
 20
747.8740099677
 30
0.0
 10
335.9472033894
 20
747.8521899472
 30
0.0
 10
335.9470282934
 20
747.7915020585
 30
0.0
 10
335.9467633535
 20
747.6798753383
 30
0.0
 10
335.9466335923
 20
747.5313604777
 30
0.0
 10
335.9465714238
 20
747.3712652392
 30
0.0
 10
335.946687348
 20
747.1903434492
 30
0.0
 10
335.946719839
 20
747.09275
 30
0.0
 10
335.9473559368
 20
746.8453033583
 30
0.0
 10
335.9478426431
 20
746.8963984698
 30
0.0
  0
SPLINE
  5
356
100
AcDbEntity
  8
0
100
AcDbSpline
 62
7
  6
BYLAYER
 70
0
 71
3
 72
14
 73
10
 74
0
 42
0.0000001
 43
0.0000001
 44
0.0000000001
 40
0.0
 40
0.0
 40
0.0
 40
0.0
 40
0.0669619088
 40
0.1861538853
 40
0.3431999851
 40
0.5191582703
 40
0.6928056708
 40
0.8431978474
 40
1.0
 40
1.0
 40
1.0
 40
1.0
 10
335.9806464602
 20
747.8740099677
 30
0.0
 10
335.9808543067
 20
747.8521899472
 30
0.0
 10
335.9810294027
 20
747.7915020585
 30
0.0
 10
335.9812943426
 20
747.6798753383
 30
0.0
 10
335.9814241038
 20
747.5313604777
 30
0.0
 10
335.9814862723
 20
747.3712652392
 30
0.0
 10
335.9813703481
 20
747.1903434492
 30
0.0
 10
335.9813378571
 20
747.09275
 30
0.0
 10
335.9807017593
 20
746.8453033583
 30
0.0
 10
335.9802150529
 20
746.8963984698
 30
0.0
  0
SPLINE
  5
357
100
AcDbEntity
  8
0
100
AcDbSpline
 62
7
  6
BYLAYER
 70
0
 71
3
 72
14
 73
10
 74
0
 42
0.0000001
 43
0.0000001
 44
0.0000000001
 40
0.0
 40
0.0
 40
0.0
 40
0.0
 40
0.0669619088
 40
0.1861538853
 40
0.3431999851
 40
0.5191582703
 40
0.6928056708
 40
0.8431978474
 40
1.0
 40
1.0
 40
1.0
 40
1.0
 10
335.9474112359
 20
747.8740099677
 30
0.0
 10
335.9472033894
 20
747.8521899472
 30
0.0
 10
335.9470282934
 20
747.7915020585
 30
0.0
 10
335.9467633535
 20
747.6798753383
 30
0.0
 10
335.9466335923
 20
747.5313604777
 30
0.0
 10
335.9465714238
 20
747.3712652392
 30
0.0
 10
335.946687348
 20
747.1903434492
 30
0.0
 10
335.946719839
 20
747.09275
 30
0.0
 10
335.9473559368
 20
746.8453033583
 30
0.0
 10
335.9478426431
 20
746.8963984698
 30
0.0
  0
SPLINE
  5
358
100
AcDbEntity
  8
0
100
AcDbSpline
 62
7
  6
BYLAYER
 70
0
 71
3
 72
14
 73
10
 74
0
 42
0.0000001
 43
0.0000001
 44
0.0000000001
 40
0.0
 40
0.0
 40
0.0
 40
0.0
 40
0.0669619088
 40
0.1861538853
 40
0.3431999851
 40
0.5191582703
 40
0.6928056708
 40
0.8431978474
 40
1.0
 40
1.0
 40
1.0
 40
1.0
 10
335.9806464602
 20
747.8740099677
 30
0.0
 10
335.9808543067
 20
747.8521899472
 30
0.0
 10
335.9810294027
 20
747.7915020585
 30
0.0
 10
335.9812943426
 20
747.6798753383
 30
0.0
 10
335.9814241038
 20
747.5313604777
 30
0.0
 10
335.9814862723
 20
747.3712652392
 30
0.0
 10
335.9813703481
 20
747.1903434492
 30
0.0
 10
335.9813378571
 20
747.09275
 30
0.0
 10
335.9807017593
 20
746.8453033583
 30
0.0
 10
335.9802150529
 20
746.8963984698
 30
0.0
  0
SPLINE
  5
359
100
AcDbEntity
  8
0
100
AcDbSpline
 62
7
  6
BYLAYER
 70
0
 71
3
 72
14
 73
10
 74
0
 42
0.0000001
 43
0.0000001
 44
0.0000000001
 40
0.0
 40
0.0
 40
0.0
 40
0.0
 40
0.066993924
 40
0.1862140544
 40
0.3432810507
 40
0.5192504546
 40
0.6928978548
 40
0.8432789122
 40
1.0
 40
1.0
 40
1.0
 40
1.0
 10
313.4806466395
 20
747.8739911358
 30
0.0
 10
313.4808543967
 20
747.8521615222
 30
0.0
 10
313.4810295819
 20
747.7914563447
 30
0.0
 10
313.4812944187
 20
747.6798076312
 30
0.0
 10
313.4814241535
 20
747.531278388
 30
0.0
 10
313.4814863042
 20
747.3711805255
 30
0.0
 10
313.4813701491
 20
747.1902614984
 30
0.0
 10
313.4813381789
 20
747.0927022341
 30
0.0
 10
313.480700887
 20
746.8453505692
 30
0.0
 10
313.4802148736
 20
746.8964173016
 30
0.0
  0
SPLINE
  5
35A
100
AcDbEntity
  8
0
100
AcDbSpline
 62
7
  6
BYLAYER
 70
0
 71
3
 72
14
 73
10
 74
0
 42
0.0000001
 43
0.0000001
 44
0.0000000001
 40
0.0
 40
0.0
 40
0.0
 40
0.0
 40
0.066993924
 40
0.1862140544
 40
0.3432810507
 40
0.5192504546
 40
0.6928978548
 40
0.8432789122
 40
1.0
 40
1.0
 40
1.0
 40
1.0
 10
313.4474110566
 20
747.8739911358
 30
0.0
 10
313.4472032994
 20
747.8521615222
 30
0.0
 10
313.4470281142
 20
747.7914563446
 30
0.0
 10
313.4467632773
 20
747.6798076312
 30
0.0
 10
313.4466335426
 20
747.531278388
 30
0.0
 10
313.4465713919
 20
747.3711805255
 30
0.0
 10
313.446687547
 20
747.1902614984
 30
0.0
 10
313.4467195172
 20
747.0927022341
 30
0.0
 10
313.4473568091
 20
746.8453505692
 30
0.0
 10
313.4478428225
 20
746.8964173016
 30
0.0
  0
SPLINE
  5
35B
100
AcDbEntity
  8
0
100
AcDbSpline
 62
7
  6
BYLAYER
 70
0
 71
3
 72
14
 73
10
 74
0
 42
0.0000001
 43
0.0000001
 44
0.0000000001
 40
0.0
 40
0.0
 40
0.0
 40
0.0
 40
0.0670664845
 40
0.1863504239
 40
0.3434647807
 40
0.5194593844
 40
0.693106784
 40
0.8434626406
 40
1.0
 40
1.0
 40
1.0
 40
1.0
 10
313.4806470458
 20
747.873948402
 30
0.0
 10
313.4808546011
 20
747.8520970515
 30
0.0
 10
313.4810299876
 20
747.791352702
 30
0.0
 10
313.4812945916
 20
747.6796541619
 30
0.0
 10
313.4814242657
 20
747.5310923421
 30
0.0
 10
313.4814863766
 20
747.3709885553
 30
0.0
 10
313.4813696981
 20
747.1900758024
 30
0.0
 10
313.4813389077
 20
747.0925940257
 30
0.0
 10
313.4806989143
 20
746.8454576201
 30
0.0
 10
313.4802144673
 20
746.8964600355
 30
0.0
  0
SPLINE
  5
35C
100
AcDbEntity
  8
0
100
AcDbSpline
 62
7
  6
BYLAYER
 70
0
 71
3
 72
14
 73
10
 74
0
 42
0.0000001
 43
0.0000001
 44
0.0000000001
 40
0.0
 40
0.0
 40
0.0
 40
0.0
 40
0.0670664845
 40
0.1863504239
 40
0.3434647807
 40
0.5194593844
 40
0.693106784
 40
0.8434626406
 40
1.0
 40
1.0
 40
1.0
 40
1.0
 10
313.4474106503
 20
747.873948402
 30
0.0
 10
313.447203095
 20
747.8520970515
 30
0.0
 10
313.4470277084
 20
747.791352702
 30
0.0
 10
313.4467631045
 20
747.6796541619
 30
0.0
 10
313.4466334304
 20
747.5310923421
 30
0.0
 10
313.4465713195
 20
747.3709885553
 30
0.0
 10
313.446687998
 20
747.1900758024
 30
0.0
 10
313.4467187884
 20
747.0925940257
 30
0.0
 10
313.4473587818
 20
746.8454576201
 30
0.0
 10
313.4478432288
 20
746.8964600355
 30
0.0
  0
SPLINE
  5
35D
100
AcDbEntity
  8
0
100
AcDbSpline
 62
7
  6
BYLAYER
 70
0
 71
3
 72
14
 73
10
 74
0
 42
0.0000001
 43
0.0000001
 44
0.0000000001
 40
0.0
 40
0.0
 40
0.0
 40
0.0
 40
0.0669619088
 40
0.1861538853
 40
0.3431999851
 40
0.5191582703
 40
0.6928056708
 40
0.8431978474
 40
1.0
 40
1.0
 40
1.0
 40
1.0
 10
335.9474112359
 20
747.8740099677
 30
0.0
 10
335.9472033894
 20
747.8521899472
 30
0.0
 10
335.9470282934
 20
747.7915020585
 30
0.0
 10
335.9467633535
 20
747.6798753383
 30
0.0
 10
335.9466335923
 20
747.5313604777
 30
0.0
 10
335.9465714238
 20
747.3712652392
 30
0.0
 10
335.946687348
 20
747.1903434492
 30
0.0
 10
335.946719839
 20
747.09275
 30
0.0
 10
335.9473559368
 20
746.8453033583
 30
0.0
 10
335.9478426431
 20
746.8963984698
 30
0.0
  0
SPLINE
  5
35E
100
AcDbEntity
  8
0
100
AcDbSpline
 62
7
  6
BYLAYER
 70
0
 71
3
 72
14
 73
10
 74
0
 42
0.0000001
 43
0.0000001
 44
0.0000000001
 40
0.0
 40
0.0
 40
0.0
 40
0.0
 40
0.0669619088
 40
0.1861538853
 40
0.3431999851
 40
0.5191582703
 40
0.6928056708
 40
0.8431978474
 40
1.0
 40
1.0
 40
1.0
 40
1.0
 10
335.9806464602
 20
747.8740099677
 30
0.0
 10
335.9808543067
 20
747.8521899472
 30
0.0
 10
335.9810294027
 20
747.7915020585
 30
0.0
 10
335.9812943426
 20
747.6798753383
 30
0.0
 10
335.9814241038
 20
747.5313604777
 30
0.0
 10
335.9814862723
 20
747.3712652392
 30
0.0
 10
335.9813703481
 20
747.1903434492
 30
0.0
 10
335.9813378571
 20
747.09275
 30
0.0
 10
335.9807017593
 20
746.8453033583
 30
0.0
 10
335.9802150529
 20
746.8963984698
 30
0.0
  0
SPLINE
  5
35F
100
AcDbEntity
  8
0
100
AcDbSpline
 62
7
  6
BYLAYER
 70
0
 71
3
 72
14
 73
10
 74
0
 42
0.0000001
 43
0.0000001
 44
0.0000000001
 40
0.0
 40
0.0
 40
0.0
 40
0.0
 40
0.0669619088
 40
0.1861538853
 40
0.3431999851
 40
0.5191582703
 40
0.6928056708
 40
0.8431978474
 40
1.0
 40
1.0
 40
1.0
 40
1.0
 10
335.9474112359
 20
747.8740099677
 30
0.0
 10
335.9472033894
 20
747.8521899472
 30
0.0
 10
335.9470282934
 20
747.7915020585
 30
0.0
 10
335.9467633535
 20
747.6798753383
 30
0.0
 10
335.9466335923
 20
747.5313604777
 30
0.0
 10
335.9465714238
 20
747.3712652392
 30
0.0
 10
335.946687348
 20
747.1903434492
 30
0.0
 10
335.946719839
 20
747.09275
 30
0.0
 10
335.9473559368
 20
746.8453033583
 30
0.0
 10
335.9478426431
 20
746.8963984698
 30
0.0
  0
SPLINE
  5
360
100
AcDbEntity
  8
0
100
AcDbSpline
 62
7
  6
BYLAYER
 70
0
 71
3
 72
14
 73
10
 74
0
 42
0.0000001
 43
0.0000001
 44
0.0000000001
 40
0.0
 40
0.0
 40
0.0
 40
0.0
 40
0.0669619088
 40
0.1861538853
 40
0.3431999851
 40
0.5191582703
 40
0.6928056708
 40
0.8431978474
 40
1.0
 40
1.0
 40
1.0
 40
1.0
 10
335.9806464602
 20
747.8740099677
 30
0.0
 10
335.9808543067
 20
747.8521899472
 30
0.0
 10
335.9810294027
 20
747.7915020585
 30
0.0
 10
335.9812943426
 20
747.6798753383
 30
0.0
 10
335.9814241038
 20
747.5313604777
 30
0.0
 10
335.9814862723
 20
747.3712652392
 30
0.0
 10
335.9813703481
 20
747.1903434492
 30
0.0
 10
335.9813378571
 20
747.09275
 30
0.0
 10
335.9807017593
 20
746.8453033583
 30
0.0
 10
335.9802150529
 20
746.8963984698
 30
0.0
  0
SPLINE
  5
361
100
AcDbEntity
  8
0
100
AcDbSpline
 62
7
  6
BYLAYER
 70
0
 71
3
 72
14
 73
10
 74
0
 42
0.0000001
 43
0.0000001
 44
0.0000000001
 40
0.0
 40
0.0
 40
0.0
 40
0.0
 40
0.066993924
 40
0.1862140544
 40
0.3432810507
 40
0.5192504546
 40
0.6928978548
 40
0.8432789122
 40
1.0
 40
1.0
 40
1.0
 40
1.0
 10
313.4806466395
 20
747.8739911358
 30
0.0
 10
313.4808543967
 20
747.8521615222
 30
0.0
 10
313.4810295819
 20
747.7914563447
 30
0.0
 10
313.4812944187
 20
747.6798076312
 30
0.0
 10
313.4814241535
 20
747.531278388
 30
0.0
 10
313.4814863042
 20
747.3711805255
 30
0.0
 10
313.4813701491
 20
747.1902614984
 30
0.0
 10
313.4813381789
 20
747.0927022341
 30
0.0
 10
313.480700887
 20
746.8453505692
 30
0.0
 10
313.4802148736
 20
746.8964173016
 30
0.0
  0
SPLINE
  5
362
100
AcDbEntity
  8
0
100
AcDbSpline
 62
7
  6
BYLAYER
 70
0
 71
3
 72
14
 73
10
 74
0
 42
0.0000001
 43
0.0000001
 44
0.0000000001
 40
0.0
 40
0.0
 40
0.0
 40
0.0
 40
0.066993924
 40
0.1862140544
 40
0.3432810507
 40
0.5192504546
 40
0.6928978548
 40
0.8432789122
 40
1.0
 40
1.0
 40
1.0
 40
1.0
 10
313.4474110566
 20
747.8739911358
 30
0.0
 10
313.4472032994
 20
747.8521615222
 30
0.0
 10
313.4470281142
 20
747.7914563446
 30
0.0
 10
313.4467632773
 20
747.6798076312
 30
0.0
 10
313.4466335426
 20
747.531278388
 30
0.0
 10
313.4465713919
 20
747.3711805255
 30
0.0
 10
313.446687547
 20
747.1902614984
 30
0.0
 10
313.4467195172
 20
747.0927022341
 30
0.0
 10
313.4473568091
 20
746.8453505692
 30
0.0
 10
313.4478428225
 20
746.8964173016
 30
0.0
  0
SPLINE
  5
363
100
AcDbEntity
  8
0
100
AcDbSpline
 62
7
  6
BYLAYER
 70
0
 71
3
 72
14
 73
10
 74
0
 42
0.0000001
 43
0.0000001
 44
0.0000000001
 40
0.0
 40
0.0
 40
0.0
 40
0.0
 40
0.0670664845
 40
0.1863504239
 40
0.3434647807
 40
0.5194593844
 40
0.693106784
 40
0.8434626406
 40
1.0
 40
1.0
 40
1.0
 40
1.0
 10
313.4806470458
 20
747.873948402
 30
0.0
 10
313.4808546011
 20
747.8520970515
 30
0.0
 10
313.4810299876
 20
747.791352702
 30
0.0
 10
313.4812945916
 20
747.6796541619
 30
0.0
 10
313.4814242657
 20
747.5310923421
 30
0.0
 10
313.4814863766
 20
747.3709885553
 30
0.0
 10
313.4813696981
 20
747.1900758024
 30
0.0
 10
313.4813389077
 20
747.0925940257
 30
0.0
 10
313.4806989143
 20
746.8454576201
 30
0.0
 10
313.4802144673
 20
746.8964600355
 30
0.0
  0
SPLINE
  5
364
100
AcDbEntity
  8
0
100
AcDbSpline
 62
7
  6
BYLAYER
 70
0
 71
3
 72
14
 73
10
 74
0
 42
0.0000001
 43
0.0000001
 44
0.0000000001
 40
0.0
 40
0.0
 40
0.0
 40
0.0
 40
0.0670664845
 40
0.1863504239
 40
0.3434647807
 40
0.5194593844
 40
0.693106784
 40
0.8434626406
 40
1.0
 40
1.0
 40
1.0
 40
1.0
 10
313.4474106503
 20
747.873948402
 30
0.0
 10
313.447203095
 20
747.8520970515
 30
0.0
 10
313.4470277084
 20
747.791352702
 30
0.0
 10
313.4467631045
 20
747.6796541619
 30
0.0
 10
313.4466334304
 20
747.5310923421
 30
0.0
 10
313.4465713195
 20
747.3709885553
 30
0.0
 10
313.446687998
 20
747.1900758024
 30
0.0
 10
313.4467187884
 20
747.0925940257
 30
0.0
 10
313.4473587818
 20
746.8454576201
 30
0.0
 10
313.4478432288
 20
746.8964600355
 30
0.0
  0
ENDSEC
  0
SECTION
  2
OBJECTS
  0
DICTIONARY
  5
C
100
AcDbDictionary
280
0
281
1
  3
ACAD_GROUP
350
D
  3
ACAD_MLINESTYLE
350
17
  3
ACAD_LAYOUT
350
1A
  3
ACAD_PLOTSETTINGS
350
19
  3
ACAD_PLOTSTYLENAME
350
E
  0
DICTIONARY
  5
D
102
{ACAD_REACTORS
330
C
102
}
100
AcDbDictionary
280
0
281
1
  0
ACDBDICTIONARYWDFLT
  5
E
102
{ACAD_REACTORS
330
C
102
}
100
AcDbDictionary
281
1
  3
Normal
350
F
100
AcDbDictionaryWithDefault
340
F
  0
DICTIONARY
  5
17
102
{ACAD_REACTORS
330
C
102
}
100
AcDbDictionary
280
0
281
1
  3
Standard
350
18
  0
DICTIONARY
  5
19
102
{ACAD_REACTORS
330
C
102
}
100
AcDbDictionary
281
1
  0
DICTIONARY
  5
1A
102
{ACAD_REACTORS
330
C
102
}
100
AcDbDictionary
281
1
  3
Model
350
365
  3
Layout1
350
366
  0
ACDBPLACEHOLDER
  5
F
102
{ACAD_REACTORS
330
E
102
}
  0
MLINESTYLE
  5
18
102
{ACAD_REACTORS
330
17
102
}
100
AcDbMlineStyle
  2
STANDARD
 70
0
  3

 62
256
 51
90.0
 52
90.0
 71
2
 49
0.5
 62
256
  6
BYLAYER
 49
-0.5
 62
256
  6
BYLAYER
  0
LAYOUT
  5
365
102
{ACAD_REACTORS
330
1A
102
}
100
AcDbPlotSettings
  1

  2
none_device
  4

  6

 40
0.0
 41
0.0
 42
0.0
 43
0.0
 44
210.0
 45
297.0
 46
0.0
 47
0.0
 48
0.0
 49
0.0
140
0.0
141
0.0
142
1.0
143
1.0
 70
1024
 72
1
 73
0
 74
0
  7

 75
0
147
1.0
148
0.0
149
0.0
100
AcDbLayout
  1
Model
 70
0
 71
0
 10
0.0
 20
0.0
 11
210.0
 21
297.0
 12
0.0
 22
0.0
 32
0.0
 14
0.0
 24
0.0
 34
0.0
 15
0.0
 25
0.0
 35
0.0
146
0.0
 13
0.0
 23
0.0
 33
0.0
 16
1.0
 26
0.0
 36
0.0
 17
0.0
 27
1.0
 37
0.0
 76
0
330
212
345
0
346
0
  0
LAYOUT
  5
366
102
{ACAD_REACTORS
330
1A
102
}
100
AcDbPlotSettings
  1

  2
none_device
  4

  6

 40
0.0
 41
0.0
 42
0.0
 43
0.0
 44
210.0
 45
297.0
 46
0.0
 47
0.0
 48
0.0
 49
0.0
140
0.0
141
0.0
142
1.0
143
1.0
 70
0
 72
1
 73
0
 74
0
  7

 75
0
147
1.0
148
0.0
149
0.0
100
AcDbLayout
  1
Layout1
 70
0
 71
1
 10
0.0
 20
0.0
 11
210.0
 21
297.0
 12
0.0
 22
0.0
 32
0.0
 14
0.0
 24
0.0
 34
0.0
 15
0.0
 25
0.0
 35
0.0
146
0.0
 13
0.0
 23
0.0
 33
0.0
 16
1.0
 26
0.0
 36
0.0
 17
0.0
 27
1.0
 37
0.0
 76
0
330
213
345
0
346
0
  0
ENDSEC
  0
EOF
