999
DXF file: C:\Users\sesa63760\Dev\_Creo\CAD\MCADID0004821_3D-CAD\drw0001_1.dxf
999
Pro/ENGINEER 2019471 by Parametric Technology Corporation
  0
SECTION
  2
HEADER
  9
$ACADVER
  1
AC1024
  9
$DWGCODEPAGE
  3
ANSI_1252
  9
$EXTMAX
 10
97.6592779472
 20
138.1181216681
 30
0.0
  9
$EXTMIN
 10
0.0
 20
0.0
 30
0.0
  9
$LIMMIN
 10
0.0
 20
0.0
  9
$LIMMAX
 10
97.6592779472
 20
138.1181216681
  9
$VIEWCTR
 10
48.8296389736
 20
69.0590608341
  9
$VIEWSIZE
 40
138.1181216681
  9
$CLAYER
  8
0
  9
$LTSCALE
 40
9.0032553384
  9
$CELTYPE
  6
BYLAYER
  9
$DIMSCALE
 40
1.0
  9
$DIMASZ
 40
1.1626104518
  9
$DIMEXO
 40
1.0
  9
$DIMDLI
 40
6.2204309611
  9
$DIMEXE
 40
1.0
  9
$DIMCEN
 40
1.4732599645
  9
$DIMLFAC
 40
1.0
  9
$DIMBLK
  1
_FILLED
  9
$DIMALT
 70
0
  9
$DIMALTF
 40
0.0393700787
  9
$DIMTXT
 40
1.6276546325
  9
$DIMTOL
 70
1
  9
$DIMLIM
 70
0
  9
$DIMTFAC
 40
1.0
  9
$DIMTP
 40
0.01
  9
$DIMTM
 40
0.01
  9
$DIMGAP
 40
0.625
  9
$DIMDSEP
 70
46
  9
$AUNITS
 70
0
  9
$PDMODE
 70
3
  9
$PDSIZE
 40
0.3125
  9
$HANDSEED
  5
3BC
  9
$TILEMODE
 70
1
  9
$MEASUREMENT
 70
1
  9
$INSUNITS
 70
4
  0
ENDSEC
  0
SECTION
  2
CLASSES
  0
CLASS
  1
ACDBDICTIONARYWDFLT
  2
AcDbDictionaryWithDefault
  3
AutoCAD 2000
 90
0
 91
1
280
0
281
0
  0
CLASS
  1
ACDBPLACEHOLDER
  2
AcDbPlaceHolder
  3
AutoCAD 2000
 90
0
 91
1
280
0
281
0
  0
CLASS
  1
LAYOUT
  2
AcDbLayout
  3
AutoCAD 2000
 90
0
 91
0
280
0
281
0
  0
ENDSEC
  0
SECTION
  2
TABLES
  0
TABLE
  2
VPORT
  5
8
100
AcDbSymbolTable
 70
2
  0
VPORT
  5
1F4
100
AcDbSymbolTableRecord
100
AcDbViewportTableRecord
  2
*ACTIVE
 70
0
 10
0.0
 20
0.0
 11
1.0
 21
1.0
 12
48.8296389736
 22
69.0590608341
 13
0.0
 23
0.0
 14
1.0
 24
1.0
 15
0.0
 25
0.0
 16
0.0
 26
0.0
 36
1.0
 17
0.0
 27
0.0
 37
0.0
 40
138.1181216681
 41
0.7070707071
 42
50.0
 43
0.0
 44
0.0
 50
0.0
 51
0.0
 71
0
 72
100
 73
1
 74
1
 75
0
 76
0
 77
0
 78
0
  0
ENDTAB
  0
TABLE
  2
LTYPE
  5
5
100
AcDbSymbolTable
 70
6
  0
LTYPE
  5
14
100
AcDbSymbolTableRecord
100
AcDbLinetypeTableRecord
  2
BYBLOCK
 70
0
  3

 72
65
 73
0
 40
0.0
  0
LTYPE
  5
15
100
AcDbSymbolTableRecord
100
AcDbLinetypeTableRecord
  2
BYLAYER
 70
0
  3

 72
65
 73
0
 40
0.0
  0
LTYPE
  5
16
100
AcDbSymbolTableRecord
100
AcDbLinetypeTableRecord
  2
CONTINUOUS
 70
64
  3
Solid line
 72
65
 73
0
 40
0.0
  0
LTYPE
  5
1F5
100
AcDbSymbolTableRecord
100
AcDbLinetypeTableRecord
  2
CENTER
 70
64
  3
____ _ ____ _ ____ _ ____ _ ____ _ ____ _ ____
 72
65
 73
4
 40
0.6
 49
0.375
 74
0
 49
-0.075
 74
0
 49
0.075
 74
0
 49
-0.075
 74
0
  0
LTYPE
  5
1F6
100
AcDbSymbolTableRecord
100
AcDbLinetypeTableRecord
  2
HIDDEN
 70
64
  3
- - - - - - - - - - - - - - - - - - - -
 72
65
 73
2
 40
0.2
 49
0.1
 74
0
 49
-0.1
 74
0
  0
LTYPE
  5
1F7
100
AcDbSymbolTableRecord
100
AcDbLinetypeTableRecord
  2
PHANTOM
 70
64
  3
_____ _ _ _____ _ _ _____ _ _ _____
 72
65
 73
6
 40
0.8
 49
0.45
 74
0
 49
-0.05
 74
0
 49
0.1
 74
0
 49
-0.05
 74
0
 49
0.1
 74
0
 49
-0.05
 74
0
  0
LTYPE
  5
1F8
100
AcDbSymbolTableRecord
100
AcDbLinetypeTableRecord
  2
DOT
 70
64
  3
. . . . . . . . . . . . . . . . . . . .
 72
65
 73
2
 40
0.2
 49
0.1
 74
0
 49
-0.1
 74
0
  0
LTYPE
  5
1F9
100
AcDbSymbolTableRecord
100
AcDbLinetypeTableRecord
  2
DASHED
 70
64
  3
- - - - - - - - - - - - - - - - - - - -
 72
65
 73
2
 40
0.2
 49
0.1
 74
0
 49
-0.1
 74
0
  0
ENDTAB
  0
TABLE
  2
LAYER
  5
2
100
AcDbSymbolTable
 70
36
  0
LAYER
  5
10
100
AcDbSymbolTableRecord
100
AcDbLayerTableRecord
  2
0
 70
0
 62
7
  6
CONTINUOUS
370
-3
390
F
  0
LAYER
  5
1FA
100
AcDbSymbolTableRecord
100
AcDbLayerTableRecord
  2
DEFAULT_1
 70
0
 62
7
  6
CENTER
370
-3
390
F
  0
LAYER
  5
1FB
100
AcDbSymbolTableRecord
100
AcDbLayerTableRecord
  2
DEFAULT_2
 70
0
 62
7
  6
HIDDEN
370
-3
390
F
  0
LAYER
  5
1FC
100
AcDbSymbolTableRecord
100
AcDbLayerTableRecord
  2
DEFAULT_3
 70
0
 62
7
  6
PHANTOM
370
-3
390
F
  0
LAYER
  5
1FD
100
AcDbSymbolTableRecord
100
AcDbLayerTableRecord
  2
00_COMPONENTS
 70
0
 62
7
  6
CONTINUOUS
370
-3
390
F
  0
LAYER
  5
1FE
100
AcDbSymbolTableRecord
100
AcDbLayerTableRecord
  2
01_1_DEFAULT_DATUMS
 70
0
 62
7
  6
CONTINUOUS
370
-3
390
F
  0
LAYER
  5
1FF
100
AcDbSymbolTableRecord
100
AcDbLayerTableRecord
  2
01_PLANES
 70
0
 62
7
  6
CONTINUOUS
370
-3
390
F
  0
LAYER
  5
200
100
AcDbSymbolTableRecord
100
AcDbLayerTableRecord
  2
02_COORD_SYS
 70
0
 62
7
  6
CONTINUOUS
370
-3
390
F
  0
LAYER
  5
201
100
AcDbSymbolTableRecord
100
AcDbLayerTableRecord
  2
03_AXES
 70
0
 62
7
  6
CONTINUOUS
370
-3
390
F
  0
LAYER
  5
202
100
AcDbSymbolTableRecord
100
AcDbLayerTableRecord
  2
04_POINTS
 70
0
 62
7
  6
CONTINUOUS
370
-3
390
F
  0
LAYER
  5
203
100
AcDbSymbolTableRecord
100
AcDbLayerTableRecord
  2
05_CURVES
 70
0
 62
7
  6
CONTINUOUS
370
-3
390
F
  0
LAYER
  5
204
100
AcDbSymbolTableRecord
100
AcDbLayerTableRecord
  2
06_SURFS
 70
0
 62
7
  6
CONTINUOUS
370
-3
390
F
  0
LAYER
  5
205
100
AcDbSymbolTableRecord
100
AcDbLayerTableRecord
  2
07_COSMETICS
 70
0
 62
7
  6
CONTINUOUS
370
-3
390
F
  0
LAYER
  5
206
100
AcDbSymbolTableRecord
100
AcDbLayerTableRecord
  2
10_NOTES
 70
0
 62
7
  6
CONTINUOUS
370
-3
390
F
  0
LAYER
  5
207
100
AcDbSymbolTableRecord
100
AcDbLayerTableRecord
  2
11_NOTES_PUB
 70
0
 62
7
  6
CONTINUOUS
370
-3
390
F
  0
LAYER
  5
208
100
AcDbSymbolTableRecord
100
AcDbLayerTableRecord
  2
13_REF_GTOL
 70
0
 62
7
  6
CONTINUOUS
370
-3
390
F
  0
LAYER
  5
209
100
AcDbSymbolTableRecord
100
AcDbLayerTableRecord
  2
16_MISC
 70
0
 62
7
  6
CONTINUOUS
370
-3
390
F
  0
LAYER
  5
20A
100
AcDbSymbolTableRecord
100
AcDbLayerTableRecord
  2
17_NO_PRINT
 70
0
 62
7
  6
CONTINUOUS
370
-3
390
F
  0
LAYER
  5
20B
100
AcDbSymbolTableRecord
100
AcDbLayerTableRecord
  2
18_DATUM_CAMS_JOINTS
 70
0
 62
7
  6
CONTINUOUS
370
-3
390
F
  0
LAYER
  5
20C
100
AcDbSymbolTableRecord
100
AcDbLayerTableRecord
  2
19_DATUM_FUNCTIONAL
 70
0
 62
7
  6
CONTINUOUS
370
-3
390
F
  0
LAYER
  5
20D
100
AcDbSymbolTableRecord
100
AcDbLayerTableRecord
  2
20_DATUM_KINEMATIC_SCHEME
 70
0
 62
7
  6
CONTINUOUS
370
-3
390
F
  0
ENDTAB
  0
TABLE
  2
STYLE
  5
3
100
AcDbSymbolTable
 70
1
  0
STYLE
  5
11
100
AcDbSymbolTableRecord
100
AcDbTextStyleTableRecord
  2
STANDARD
 70
0
 40
0.0
 41
1.0
 50
0.0
 71
0
 42
0.2
  3
ARIAL.TTF
  4

  0
STYLE
  5
20E
100
AcDbSymbolTableRecord
100
AcDbTextStyleTableRecord
  2
TEXTSTYLE_1
 70
0
 40
0.0
 41
0.8
 50
0.0
 71
0
 42
0.2
  3
gdt
  4

  0
ENDTAB
  0
TABLE
  2
VIEW
  5
6
100
AcDbSymbolTable
 70
0
  0
ENDTAB
  0
TABLE
  2
UCS
  5
7
100
AcDbSymbolTable
 70
0
  0
ENDTAB
  0
TABLE
  2
APPID
  5
9
100
AcDbSymbolTable
 70
1
  0
APPID
  5
20F
100
AcDbSymbolTableRecord
100
AcDbRegAppTableRecord
  2
ACAD
 70
0
  0
ENDTAB
  0
TABLE
  2
BLOCK_RECORD
  5
1
100
AcDbSymbolTable
 70
0
  0
BLOCK_RECORD
  5
210
100
AcDbSymbolTableRecord
100
AcDbBlockTableRecord
  2
*Model_Space
  0
BLOCK_RECORD
  5
211
100
AcDbSymbolTableRecord
100
AcDbBlockTableRecord
  2
*Paper_Space
  0
BLOCK_RECORD
  5
212
100
AcDbSymbolTableRecord
100
AcDbBlockTableRecord
  2
_FILLED
  0
ENDTAB
  0
TABLE
  2
DIMSTYLE
  5
A
100
AcDbSymbolTable
 70
1
100
AcDbDimStyleTable
 71
0
  0
DIMSTYLE
105
213
100
AcDbSymbolTableRecord
100
AcDbDimStyleTableRecord
  2
STANDARD
 70
0
  3

  4

 40
1.0
 41
1.1626104518
 42
1.0
 43
0.38
 44
1.0
 45
0.0
 46
0.0
 47
0.01
 48
0.01
140
1.6276546325
141
0.09
142
0.0
143
25.4
144
1.0
145
0.0
146
1.0
147
0.625
 71
1
 72
0
 73
0
 74
0
 75
0
 76
0
 77
1
 78
8
 79
2
170
0
171
1
172
0
173
0
174
0
175
0
176
0
177
0
178
0
270
2
179
2
271
2
272
2
273
2
274
2
275
0
280
0
281
0
282
0
283
1
284
8
285
0
286
0
287
3
288
0
340
11
278
46
341
212
342
212
343
212
344
212
  0
ENDTAB
  0
ENDSEC
  0
SECTION
  2
BLOCKS
  0
BLOCK
  5
20
100
AcDbEntity
  8
0
100
AcDbBlockBegin
  2
*Model_Space
 70
0
 10
0.0
 20
0.0
 30
0.0
  3
*Model_Space
  1

  0
ENDBLK
  5
21
100
AcDbEntity
  8
0
100
AcDbBlockEnd
  0
BLOCK
  5
1C
100
AcDbEntity
  8
0
100
AcDbBlockBegin
  2
*Paper_Space
 70
0
 10
0.0
 20
0.0
 30
0.0
  3
*Paper_Space
  1

  0
ENDBLK
  5
1D
100
AcDbEntity
  8
0
100
AcDbBlockEnd
  0
BLOCK
  5
214
100
AcDbEntity
  8
0
100
AcDbBlockBegin
  2
_FILLED
 70
64
 10
0.0
 20
0.0
  3
_FILLED
  1

  0
SOLID
  5
215
100
AcDbEntity
  8
0
  6
BYBLOCK
 62
0
100
AcDbTrace
 10
0.0
 20
0.0
 11
-1.0
 21
0.25
 12
-1.0
 22
-0.25
 13
-1.0
 23
-0.25
  0
ENDBLK
  5
216
100
AcDbEntity
  8
0
  6
BYBLOCK
 62
0
100
AcDbBlockEnd
  0
ENDSEC
  0
SECTION
  2
ENTITIES
  0
LWPOLYLINE
  5
217
100
AcDbEntity
  8
0
100
AcDbPolyline
 62
7
  6
BYLAYER
 90
4
 70
0
 10
53.7806655484
 20
47.0843951159
 10
54.0553074353
 20
47.1254141628
 10
54.3332574885
 20
47.2362112034
 10
54.380707407
 20
47.2612684574
  0
LINE
  5
218
100
AcDbEntity
  8
0
100
AcDbLine
 62
7
  6
BYLAYER
 10
53.7806576404
 20
47.0844668236
 11
53.7805439542
 21
47.0844604907
  0
LWPOLYLINE
  5
219
100
AcDbEntity
  8
0
100
AcDbPolyline
 62
7
  6
BYLAYER
 90
4
 70
0
 10
53.5501801129
 20
47.0994797225
 10
53.5832614718
 20
47.0949660444
 10
53.7226738651
 20
47.0849060505
 10
53.7805439542
 20
47.0844604907
  0
LWPOLYLINE
  5
21A
100
AcDbEntity
  8
0
100
AcDbPolyline
 62
7
  6
BYLAYER
 90
4
 70
0
 10
53.1180771051
 20
47.2491994247
 10
53.2829874744
 20
47.1703018577
 10
53.4667978178
 20
47.114880441
 10
53.5501855511
 20
47.0994789111
  0
LWPOLYLINE
  5
21B
100
AcDbEntity
  8
0
100
AcDbPolyline
 62
7
  6
BYLAYER
 90
4
 70
0
 10
34.7622360264
 20
59.2079924769
 10
34.8063652978
 20
58.7767367586
 10
35.3143742451
 20
57.7593473944
 10
36.2888946647
 20
56.9653126425
  0
LINE
  5
21C
100
AcDbEntity
  8
0
100
AcDbLine
 62
7
  6
BYLAYER
 10
33.9507891999
 20
62.2048452204
 11
33.9507891999
 21
63.0753590001
  0
LINE
  5
21D
100
AcDbEntity
  8
0
100
AcDbLine
 62
7
  6
BYLAYER
 10
33.9507891999
 20
70.6303872946
 11
33.9507891999
 21
71.529302824
  0
LINE
  5
21E
100
AcDbEntity
  8
0
100
AcDbLine
 62
7
  6
BYLAYER
 10
34.0093684324
 20
62.1231963896
 11
34.0093684324
 21
63.0415390296
  0
LINE
  5
21F
100
AcDbEntity
  8
0
100
AcDbLine
 62
7
  6
BYLAYER
 10
34.0093684324
 20
70.508353896
 11
34.0093684324
 21
71.4476539933
  0
LINE
  5
220
100
AcDbEntity
  8
0
100
AcDbLine
 62
7
  6
BYLAYER
 10
34.7622359799
 20
59.2079894566
 11
34.7622358367
 21
59.6825686437
  0
LINE
  5
221
100
AcDbEntity
  8
0
100
AcDbLine
 62
7
  6
BYLAYER
 10
34.7622358367
 20
71.1793582347
 11
34.7622358367
 21
71.6531387873
  0
LINE
  5
222
100
AcDbEntity
  8
0
100
AcDbLine
 62
7
  6
BYLAYER
 10
34.7722982669
 20
70.9292172624
 11
34.7722982669
 21
68.1844240792
  0
LINE
  5
223
100
AcDbEntity
  8
0
100
AcDbLine
 62
7
  6
BYLAYER
 10
34.7722982669
 20
62.7328780561
 11
34.7722982669
 21
59.9880848729
  0
LWPOLYLINE
  5
224
100
AcDbEntity
  8
0
100
AcDbPolyline
 62
7
  6
BYLAYER
 90
3
 70
0
 10
34.9516478661
 20
72.4376572038
 10
34.8132637797
 20
72.0648618828
 10
34.7622359446
 20
71.6535477814
  0
LINE
  5
225
100
AcDbEntity
  8
0
100
AcDbLine
 62
7
  6
BYLAYER
 10
34.9517086963
 20
72.4377796059
 11
34.9516478661
 21
72.4376572038
  0
LINE
  5
226
100
AcDbEntity
  8
0
100
AcDbLine
 62
7
  6
BYLAYER
 10
66.8417303967
 20
91.336575358
 11
66.8417513788
 21
91.336583162
  0
LINE
  5
227
100
AcDbEntity
  8
0
100
AcDbLine
 62
7
  6
BYLAYER
 10
67.1612676969
 20
91.292625798
 11
67.2627292039
 21
91.3299968088
  0
LINE
  5
228
100
AcDbEntity
  8
0
100
AcDbLine
 62
7
  6
BYLAYER
 10
36.288850307
 20
56.9653382367
 11
53.1180618136
 21
47.2492082513
  0
LINE
  5
229
100
AcDbEntity
  8
0
100
AcDbLine
 62
7
  6
BYLAYER
 10
53.0559281265
 20
47.3865440903
 11
36.226716619
 21
57.1026740762
  0
LINE
  5
22A
100
AcDbEntity
  8
0
100
AcDbLine
 62
7
  6
BYLAYER
 10
53.0559281268
 20
47.9210439273
 11
36.2267166361
 21
57.6371739035
  0
LINE
  5
22B
100
AcDbEntity
  8
0
100
AcDbLine
 62
7
  6
BYLAYER
 10
53.3902568936
 20
47.9758806146
 11
36.278201545
 21
57.855306874
  0
LINE
  5
22C
100
AcDbEntity
  8
0
100
AcDbLine
 62
7
  6
BYLAYER
 10
53.3488344291
 20
48.0674378443
 11
36.2367790809
 21
57.9468641036
  0
LINE
  5
22D
100
AcDbEntity
  8
0
100
AcDbLine
 62
7
  6
BYLAYER
 10
55.0004699452
 20
48.0683507372
 11
54.7997043647
 21
48.184260244
  0
LINE
  5
22E
100
AcDbEntity
  8
0
100
AcDbLine
 62
7
  6
BYLAYER
 10
34.0093684324
 20
62.1231963896
 11
33.9507891999
 21
62.2048452204
  0
LINE
  5
22F
100
AcDbEntity
  8
0
100
AcDbLine
 62
7
  6
BYLAYER
 10
36.288850307
 20
56.9653382367
 11
36.2267166107
 21
57.102674081
  0
LINE
  5
230
100
AcDbEntity
  8
0
100
AcDbLine
 62
7
  6
BYLAYER
 10
34.0507908966
 20
62.0316391601
 11
34.0093684324
 21
62.1231963896
  0
LINE
  5
231
100
AcDbEntity
  8
0
100
AcDbLine
 62
7
  6
BYLAYER
 10
36.278201545
 20
57.855306874
 11
36.2367790809
 21
57.9468641036
  0
LINE
  5
232
100
AcDbEntity
  8
0
100
AcDbLine
 62
7
  6
BYLAYER
 10
34.8528320791
 20
59.4720649809
 11
34.7722982669
 21
59.9880848729
  0
LINE
  5
233
100
AcDbEntity
  8
0
100
AcDbLine
 62
7
  6
BYLAYER
 10
36.226716619
 20
57.1026740762
 11
36.2267166361
 21
57.6371739035
  0
LINE
  5
234
100
AcDbEntity
  8
0
100
AcDbLine
 62
7
  6
BYLAYER
 10
36.2267166461
 20
69.1423114472
 11
36.2267166458
 21
69.6768112846
  0
LINE
  5
235
100
AcDbEntity
  8
0
100
AcDbLine
 62
7
  6
BYLAYER
 10
36.2367790809
 20
57.9468641036
 11
36.2367790809
 21
68.8879964931
  0
LWPOLYLINE
  5
236
100
AcDbEntity
  8
0
100
AcDbPolyline
 62
7
  6
BYLAYER
 90
4
 70
0
 10
35.6831647961
 20
73.3130745026
 10
35.3970906321
 20
73.0528909926
 10
35.1214087214
 20
72.7218504787
 10
34.9517099196
 20
72.4377821056
  0
LINE
  5
237
100
AcDbEntity
  8
0
100
AcDbLine
 62
7
  6
BYLAYER
 10
35.6831647961
 20
73.3130745026
 11
35.6823139887
 21
73.3123832724
  0
LINE
  5
238
100
AcDbEntity
  8
0
100
AcDbLine
 62
7
  6
BYLAYER
 10
66.8158676758
 20
91.3238743685
 11
66.8417303967
 21
91.336575358
  0
LINE
  5
239
100
AcDbEntity
  8
0
100
AcDbLine
 62
7
  6
BYLAYER
 10
66.8417303967
 20
91.336575358
 11
66.7612113637
 21
91.2983797516
  0
LINE
  5
23A
100
AcDbEntity
  8
0
100
AcDbLine
 62
7
  6
BYLAYER
 10
66.8158676748
 20
91.3238743682
 11
66.7611254506
 21
91.2983431084
  0
LINE
  5
23B
100
AcDbEntity
  8
0
100
AcDbLine
 62
7
  6
BYLAYER
 10
34.0507908966
 20
62.0316391601
 11
34.7722982669
 21
61.6150861093
  0
LINE
  5
23C
100
AcDbEntity
  8
0
100
AcDbLine
 62
7
  6
BYLAYER
 10
54.9398227735
 20
49.973344926
 11
55.000470727
 21
49.9383306022
  0
LINE
  5
23D
100
AcDbEntity
  8
0
100
AcDbLine
 62
7
  6
BYLAYER
 10
34.7722982669
 20
61.682728609
 11
34.0093684324
 21
62.1231963896
  0
LINE
  5
23E
100
AcDbEntity
  8
0
100
AcDbLine
 62
7
  6
BYLAYER
 10
31.9665952507
 20
63.3389058724
 11
24.0509015775
 21
67.9089303577
  0
LINE
  5
23F
100
AcDbEntity
  8
0
100
AcDbLine
 62
7
  6
BYLAYER
 10
42.983150516
 20
57.5272967396
 11
43.5064117126
 21
57.2251985813
  0
LINE
  5
240
100
AcDbEntity
  8
0
100
AcDbLine
 62
7
  6
BYLAYER
 10
34.7722982669
 20
62.6010712489
 11
33.9384910206
 21
63.0824591966
  0
LINE
  5
241
100
AcDbEntity
  8
0
100
AcDbLine
 62
7
  6
BYLAYER
 10
42.8879692479
 20
59.0744663713
 11
41.4324229991
 21
59.9148073788
  0
LINE
  5
242
100
AcDbEntity
  8
0
100
AcDbLine
 62
7
  6
BYLAYER
 10
43.6015929807
 20
58.6624648378
 11
45.0571392295
 21
57.8221238303
  0
LINE
  5
243
100
AcDbEntity
  8
0
100
AcDbLine
 62
7
  6
BYLAYER
 10
22.0231505293
 20
71.7065553545
 11
18.9618814478
 21
73.4739398992
  0
LINE
  5
244
100
AcDbEntity
  8
0
100
AcDbLine
 62
7
  6
BYLAYER
 10
45.5534695765
 20
58.2704072117
 11
44.2379864342
 21
59.0298845763
  0
LINE
  5
245
100
AcDbEntity
  8
0
100
AcDbLine
 62
7
  6
BYLAYER
 10
43.5243627014
 20
59.4418861098
 11
41.8146166795
 21
60.4289861046
  0
LINE
  5
246
100
AcDbEntity
  8
0
100
AcDbLine
 62
7
  6
BYLAYER
 10
42.8879692479
 20
59.8909687885
 11
41.4324229991
 21
60.731309796
  0
LINE
  5
247
100
AcDbEntity
  8
0
100
AcDbLine
 62
7
  6
BYLAYER
 10
43.6015929807
 20
59.4789672549
 11
45.0571392295
 21
58.6386262474
  0
LINE
  5
248
100
AcDbEntity
  8
0
100
AcDbLine
 62
7
  6
BYLAYER
 10
43.4569087327
 20
59.58697511
 11
43.1853691162
 21
59.7437450341
  0
LINE
  5
249
100
AcDbEntity
  8
0
100
AcDbLine
 62
7
  6
BYLAYER
 10
40.9744142399
 20
66.1527834375
 11
40.9744145967
 21
60.6822170367
  0
LWPOLYLINE
  5
24A
100
AcDbEntity
  8
0
100
AcDbPolyline
 62
7
  6
BYLAYER
 90
3
 70
0
 10
36.1333130315
 20
73.6154728904
 10
36.0770559084
 20
73.5825642134
 10
35.6823130652
 20
73.3123825363
  0
LINE
  5
24B
100
AcDbEntity
  8
0
100
AcDbLine
 62
7
  6
BYLAYER
 10
36.1333061432
 20
73.615468924
 11
66.7614973442
 21
91.2985578302
  0
LINE
  5
24C
100
AcDbEntity
  8
0
100
AcDbLine
 62
7
  6
BYLAYER
 10
66.7611254506
 20
91.2983431084
 11
66.760909541
 21
91.2982184197
  0
LINE
  5
24D
100
AcDbEntity
  8
0
100
AcDbLine
 62
7
  6
BYLAYER
 10
62.0406579099
 20
88.3362586547
 11
67.1612674089
 21
91.2926258937
  0
LINE
  5
24E
100
AcDbEntity
  8
0
100
AcDbLine
 62
7
  6
BYLAYER
 10
36.0603658621
 20
73.3366128662
 11
60.8999381852
 21
87.6776679293
  0
LINE
  5
24F
100
AcDbEntity
  8
0
100
AcDbLine
 62
7
  6
BYLAYER
 10
34.8500488947
 20
72.1639579503
 11
34.0507896475
 21
71.7025081633
  0
LINE
  5
250
100
AcDbEntity
  8
0
100
AcDbLine
 62
7
  6
BYLAYER
 10
34.1507891999
 20
71.6926033075
 11
34.8180918813
 21
72.0778683905
  0
LINE
  5
251
100
AcDbEntity
  8
0
100
AcDbLine
 62
7
  6
BYLAYER
 10
12.074720214
 20
78.691450396
 11
18.0112259719
 21
75.264084736
  0
LINE
  5
252
100
AcDbEntity
  8
0
100
AcDbLine
 62
7
  6
BYLAYER
 10
42.983150516
 20
61.328235045
 11
43.5064117126
 21
61.0261368867
  0
LINE
  5
253
100
AcDbEntity
  8
0
100
AcDbLine
 62
7
  6
BYLAYER
 10
33.9507891999
 20
71.529302824
 11
34.0093684324
 21
71.4476539933
  0
LINE
  5
254
100
AcDbEntity
  8
0
100
AcDbLine
 62
7
  6
BYLAYER
 10
41.3986783077
 20
60.6822182627
 11
41.3986783077
 21
60.7678138228
  0
LINE
  5
255
100
AcDbEntity
  8
0
100
AcDbLine
 62
7
  6
BYLAYER
 10
41.3986783077
 20
61.0339488182
 11
41.3986783077
 21
66.1527844574
  0
LINE
  5
256
100
AcDbEntity
  8
0
100
AcDbLine
 62
7
  6
BYLAYER
 10
41.822940611
 20
65.9114031276
 11
41.8229406108
 21
61.7691024312
  0
LINE
  5
257
100
AcDbEntity
  8
0
100
AcDbLine
 62
7
  6
BYLAYER
 10
41.9108076928
 20
61.8627935042
 11
41.9108076928
 21
65.8606741919
  0
LINE
  5
258
100
AcDbEntity
  8
0
100
AcDbLine
 62
7
  6
BYLAYER
 10
42.983150516
 20
57.5272967396
 11
42.983150516
 21
58.937864442
  0
LINE
  5
259
100
AcDbEntity
  8
0
100
AcDbLine
 62
7
  6
BYLAYER
 10
42.983150516
 20
59.9176673426
 11
42.983150516
 21
61.328235045
  0
LINE
  5
25A
100
AcDbEntity
  8
0
100
AcDbLine
 62
7
  6
BYLAYER
 10
43.4745701368
 20
67.8869288675
 11
43.4745701368
 21
68.6766399433
  0
LINE
  5
25B
100
AcDbEntity
  8
0
100
AcDbLine
 62
7
  6
BYLAYER
 10
43.5064117126
 20
61.0261368867
 11
43.5064117126
 21
59.6155691842
  0
LINE
  5
25C
100
AcDbEntity
  8
0
100
AcDbLine
 62
7
  6
BYLAYER
 10
43.5064117126
 20
58.6357662837
 11
43.5064117126
 21
57.2251985813
  0
LINE
  5
25D
100
AcDbEntity
  8
0
100
AcDbLine
 62
7
  6
BYLAYER
 10
43.6195439695
 20
58.7349038835
 11
43.6195439695
 21
58.991735536
  0
LINE
  5
25E
100
AcDbEntity
  8
0
100
AcDbLine
 62
7
  6
BYLAYER
 10
68.8242020742
 20
88.9459387275
 11
69.9909234056
 21
89.6195415814
  0
LINE
  5
25F
100
AcDbEntity
  8
0
100
AcDbLine
 62
7
  6
BYLAYER
 10
70.4859031576
 20
88.5989296324
 11
69.9555843549
 21
88.2927496403
  0
LINE
  5
260
100
AcDbEntity
  8
0
100
AcDbLine
 62
7
  6
BYLAYER
 10
44.7159869722
 20
62.6812853434
 11
45.5534695765
 21
62.1977754748
  0
LINE
  5
261
100
AcDbEntity
  8
0
100
AcDbLine
 62
7
  6
BYLAYER
 10
43.9577804354
 20
63.3966370103
 11
41.9108076928
 21
64.5784235743
  0
LINE
  5
262
100
AcDbEntity
  8
0
100
AcDbLine
 62
7
  6
BYLAYER
 10
41.9108076928
 20
65.2215831787
 11
44.5147810467
 21
63.7182124658
  0
LINE
  5
263
100
AcDbEntity
  8
0
100
AcDbLine
 62
7
  6
BYLAYER
 10
55.000470727
 20
57.6946738886
 11
54.9398227735
 21
57.729688205
  0
LINE
  5
264
100
AcDbEntity
  8
0
100
AcDbLine
 62
7
  6
BYLAYER
 10
36.2367790809
 20
68.8879964931
 11
40.9744142399
 21
66.1527834375
  0
LINE
  5
265
100
AcDbEntity
  8
0
100
AcDbLine
 62
7
  6
BYLAYER
 10
45.6413384251
 20
63.4583944581
 11
53.3488344291
 21
59.0085702339
  0
LINE
  5
266
100
AcDbEntity
  8
0
100
AcDbLine
 62
7
  6
BYLAYER
 10
36.2267166461
 20
69.1423114472
 11
53.0559281684
 21
59.4261814528
  0
LINE
  5
267
100
AcDbEntity
  8
0
100
AcDbLine
 62
7
  6
BYLAYER
 10
34.7722982669
 20
70.0678861154
 11
34.0093684324
 21
70.508353896
  0
LINE
  5
268
100
AcDbEntity
  8
0
100
AcDbLine
 62
7
  6
BYLAYER
 10
36.2267166458
 20
69.6768112846
 11
53.0559282385
 21
59.9606812496
  0
LINE
  5
269
100
AcDbEntity
  8
0
100
AcDbLine
 62
7
  6
BYLAYER
 10
53.268080141
 20
60.3280966347
 11
36.4388832673
 21
70.0442372661
  0
LINE
  5
26A
100
AcDbEntity
  8
0
100
AcDbLine
 62
7
  6
BYLAYER
 10
34.0093684324
 20
71.4476539933
 11
34.6902059393
 21
71.0545811679
  0
LINE
  5
26B
100
AcDbEntity
  8
0
100
AcDbLine
 62
7
  6
BYLAYER
 10
34.7622358367
 20
71.3395924133
 11
34.1507891999
 21
71.6926033075
  0
LINE
  5
26C
100
AcDbEntity
  8
0
100
AcDbLine
 62
7
  6
BYLAYER
 10
45.041245977
 20
64.0275963714
 11
45.2242304772
 21
63.9053707103
  0
LINE
  5
26D
100
AcDbEntity
  8
0
100
AcDbLine
 62
7
  6
BYLAYER
 10
45.0414074517
 20
64.0274498157
 11
44.9366375945
 21
64.1137500043
  0
LINE
  5
26E
100
AcDbEntity
  8
0
100
AcDbLine
 62
7
  6
BYLAYER
 10
53.1180598931
 20
47.2492093601
 11
53.0559281174
 21
47.3865440956
  0
LINE
  5
26F
100
AcDbEntity
  8
0
100
AcDbLine
 62
7
  6
BYLAYER
 10
44.7287168446
 20
66.482908313
 11
44.7273319708
 21
66.5110656369
  0
LINE
  5
270
100
AcDbEntity
  8
0
100
AcDbLine
 62
7
  6
BYLAYER
 10
45.5534695765
 20
58.1103015094
 11
45.5534695765
 21
63.5808677041
  0
LINE
  5
271
100
AcDbEntity
  8
0
100
AcDbLine
 62
7
  6
BYLAYER
 10
45.6413382662
 20
57.9878371292
 11
45.6413384251
 21
63.4583944581
  0
LINE
  5
272
100
AcDbEntity
  8
0
100
AcDbLine
 62
7
  6
BYLAYER
 10
70.8913706462
 20
87.4667168673
 11
71.1388569893
 21
87.6096023212
  0
LINE
  5
273
100
AcDbEntity
  8
0
100
AcDbLine
 62
7
  6
BYLAYER
 10
72.0061890662
 20
87.7212120099
 11
71.7940579151
 21
87.5987387638
  0
LINE
  5
274
100
AcDbEntity
  8
0
100
AcDbLine
 62
7
  6
BYLAYER
 10
73.3496946001
 20
87.6803979974
 11
71.9354869256
 21
86.8639096897
  0
LINE
  5
275
100
AcDbEntity
  8
0
100
AcDbLine
 62
7
  6
BYLAYER
 10
42.201783654
 20
67.9418002073
 11
44.4124863986
 21
66.6654793324
  0
LINE
  5
276
100
AcDbEntity
  8
0
100
AcDbLine
 62
7
  6
BYLAYER
 10
44.7287149484
 20
66.4829088243
 11
46.833351094
 21
65.2678239925
  0
LINE
  5
277
100
AcDbEntity
  8
0
100
AcDbLine
 62
7
  6
BYLAYER
 10
42.6905721107
 20
68.0209503521
 11
47.6703819396
 21
65.1459208487
  0
LINE
  5
278
100
AcDbEntity
  8
0
100
AcDbLine
 62
7
  6
BYLAYER
 10
48.045928076
 20
65.2402457208
 11
43.4229380806
 21
67.9092698576
  0
LINE
  5
279
100
AcDbEntity
  8
0
100
AcDbLine
 62
7
  6
BYLAYER
 10
48.0523696987
 20
65.2439948492
 11
43.4745701368
 21
67.8869288674
  0
LINE
  5
27A
100
AcDbEntity
  8
0
100
AcDbLine
 62
7
  6
BYLAYER
 10
35.4615451379
 20
73.1115121533
 11
34.5701177009
 21
73.626166381
  0
LINE
  5
27B
100
AcDbEntity
  8
0
100
AcDbLine
 62
7
  6
BYLAYER
 10
35.5299456235
 20
73.1737221697
 11
34.6466326004
 21
73.6836936054
  0
LINE
  5
27C
100
AcDbEntity
  8
0
100
AcDbLine
 62
7
  6
BYLAYER
 10
35.5466994467
 20
73.1889597167
 11
34.6653721087
 21
73.6977827815
  0
LINE
  5
27D
100
AcDbEntity
  8
0
100
AcDbLine
 62
7
  6
BYLAYER
 10
48.1061391195
 20
66.0026628378
 11
43.4745701368
 21
68.6766399433
  0
LINE
  5
27E
100
AcDbEntity
  8
0
100
AcDbLine
 62
7
  6
BYLAYER
 10
35.6588429027
 20
73.2909538206
 11
34.7908168294
 21
73.7920975703
  0
LINE
  5
27F
100
AcDbEntity
  8
0
100
AcDbLine
 62
7
  6
BYLAYER
 10
35.7840163138
 20
73.3819933088
 11
34.9136795551
 21
73.8844711031
  0
LINE
  5
280
100
AcDbEntity
  8
0
100
AcDbLine
 62
7
  6
BYLAYER
 10
15.7246582843
 20
85.0134715983
 11
21.6610940941
 21
81.5861463219
  0
LINE
  5
281
100
AcDbEntity
  8
0
100
AcDbLine
 62
7
  6
BYLAYER
 10
36.1807371229
 20
73.6428530747
 11
35.2822535751
 21
74.1615810577
  0
LINE
  5
282
100
AcDbEntity
  8
0
100
AcDbLine
 62
7
  6
BYLAYER
 10
53.3488344294
 20
48.0674378442
 11
53.3902556132
 21
47.9758813538
  0
LINE
  5
283
100
AcDbEntity
  8
0
100
AcDbLine
 62
7
  6
BYLAYER
 10
48.1061391195
 20
66.0026628378
 11
48.1061388589
 21
65.2752893679
  0
LINE
  5
284
100
AcDbEntity
  8
0
100
AcDbLine
 62
7
  6
BYLAYER
 10
44.2554417114
 20
59.1020367538
 11
44.2347294304
 21
59.0562600383
  0
LINE
  5
285
100
AcDbEntity
  8
0
100
AcDbLine
 62
7
  6
BYLAYER
 10
35.6330368151
 20
74.3673015958
 11
36.5342890415
 21
73.8469751517
  0
LINE
  5
286
100
AcDbEntity
  8
0
100
AcDbLine
 62
7
  6
BYLAYER
 10
26.7713710446
 20
79.8770893533
 11
23.6868012786
 21
81.6579262501
  0
LINE
  5
287
100
AcDbEntity
  8
0
100
AcDbLine
 62
7
  6
BYLAYER
 10
37.6524792371
 20
74.8247219816
 11
37.9401451823
 21
74.658641728
  0
LINE
  5
288
100
AcDbEntity
  8
0
100
AcDbLine
 62
7
  6
BYLAYER
 10
38.9664764815
 20
75.4633300961
 11
31.0507828083
 21
80.0333545813
  0
LINE
  5
289
100
AcDbEntity
  8
0
100
AcDbLine
 62
7
  6
BYLAYER
 10
41.8960841684
 20
61.8520460909
 11
42.3931524478
 21
62.2148802923
  0
LINE
  5
28A
100
AcDbEntity
  8
0
100
AcDbLine
 62
7
  6
BYLAYER
 10
44.8890235506
 20
64.0114482814
 11
44.8911735364
 21
64.0127106387
  0
LINE
  5
28B
100
AcDbEntity
  8
0
100
AcDbLine
 62
7
  6
BYLAYER
 10
44.4582618611
 20
63.7627283177
 11
44.8890235506
 21
64.0114482814
  0
LINE
  5
28C
100
AcDbEntity
  8
0
100
AcDbLine
 62
7
  6
BYLAYER
 10
44.5147749171
 20
63.7182160047
 11
43.9577804354
 21
63.3966370103
  0
LINE
  5
28D
100
AcDbEntity
  8
0
100
AcDbLine
 62
7
  6
BYLAYER
 10
44.1615077453
 20
62.9835300458
 11
45.3635842686
 21
63.6775451073
  0
LINE
  5
28E
100
AcDbEntity
  8
0
100
AcDbLine
 62
7
  6
BYLAYER
 10
44.7159869722
 20
62.6812853434
 11
45.5534695765
 21
63.1648032642
  0
LINE
  5
28F
100
AcDbEntity
  8
0
100
AcDbLine
 62
7
  6
BYLAYER
 10
41.4580656356
 20
60.7165053478
 11
41.3986783077
 21
60.6822182627
  0
LINE
  5
290
100
AcDbEntity
  8
0
100
AcDbLine
 62
7
  6
BYLAYER
 10
34.1507891999
 20
71.6926033075
 11
34.0507896475
 21
71.7025081633
  0
LINE
  5
291
100
AcDbEntity
  8
0
100
AcDbLine
 62
7
  6
BYLAYER
 10
53.0559281268
 20
47.9210439273
 11
53.0559281265
 21
47.3865440903
  0
LINE
  5
292
100
AcDbEntity
  8
0
100
AcDbLine
 62
7
  6
BYLAYER
 10
53.0559282385
 20
59.9606812496
 11
53.0559281684
 21
59.4261814528
  0
LINE
  5
293
100
AcDbEntity
  8
0
100
AcDbLine
 62
7
  6
BYLAYER
 10
53.3488344291
 20
59.0085702339
 11
53.3488344291
 21
48.0674378443
  0
LINE
  5
294
100
AcDbEntity
  8
0
100
AcDbLine
 62
7
  6
BYLAYER
 10
54.4802052797
 20
48.0674405639
 11
54.4802052797
 21
59.0085729534
  0
LINE
  5
295
100
AcDbEntity
  8
0
100
AcDbLine
 62
7
  6
BYLAYER
 10
54.7529843811
 20
47.7131491359
 11
54.7529843821
 21
47.9246298269
  0
LINE
  5
296
100
AcDbEntity
  8
0
100
AcDbLine
 62
7
  6
BYLAYER
 10
54.7529843825
 20
59.4226037542
 11
54.7529843817
 21
59.6340844436
  0
LINE
  5
297
100
AcDbEntity
  8
0
100
AcDbLine
 62
7
  6
BYLAYER
 10
54.9398227735
 20
48.3327992637
 11
54.9398227735
 21
59.2739316532
  0
LINE
  5
298
100
AcDbEntity
  8
0
100
AcDbLine
 62
7
  6
BYLAYER
 10
55.000470727
 20
48.0681433681
 11
55.000470727
 21
49.9383306022
  0
LINE
  5
299
100
AcDbEntity
  8
0
100
AcDbLine
 62
7
  6
BYLAYER
 10
55.000470727
 20
57.6946738886
 11
55.000470727
 21
59.5648611226
  0
LINE
  5
29A
100
AcDbEntity
  8
0
100
AcDbLine
 62
7
  6
BYLAYER
 10
42.983150516
 20
57.5272967396
 11
43.5064117126
 21
58.0493168665
  0
LINE
  5
29B
100
AcDbEntity
  8
0
100
AcDbLine
 62
7
  6
BYLAYER
 10
79.7136939022
 20
82.3732613899
 11
81.1279015767
 21
83.1897496977
  0
LINE
  5
29C
100
AcDbEntity
  8
0
100
AcDbLine
 62
7
  6
BYLAYER
 10
80.7578101817
 20
81.7704542123
 11
81.0052965247
 21
81.9133396661
  0
LINE
  5
29D
100
AcDbEntity
  8
0
100
AcDbLine
 62
7
  6
BYLAYER
 10
43.5064117126
 20
60.219770532
 11
42.983150516
 21
59.9176673426
  0
LINE
  5
29E
100
AcDbEntity
  8
0
100
AcDbLine
 62
7
  6
BYLAYER
 10
43.5064117126
 20
60.1859494812
 11
42.9624393196
 21
59.8718887484
  0
LINE
  5
29F
100
AcDbEntity
  8
0
100
AcDbLine
 62
7
  6
BYLAYER
 10
81.7643032733
 20
82.0874895976
 11
81.5521721221
 21
81.9650163514
  0
LINE
  5
2A0
100
AcDbEntity
  8
0
100
AcDbLine
 62
7
  6
BYLAYER
 10
43.5064176388
 20
59.6155589196
 11
43.4569087327
 21
59.58697511
  0
LINE
  5
2A1
100
AcDbEntity
  8
0
100
AcDbLine
 62
7
  6
BYLAYER
 10
43.5243627014
 20
59.4418861098
 11
42.8879692479
 21
59.0744663713
  0
LINE
  5
2A2
100
AcDbEntity
  8
0
100
AcDbLine
 62
7
  6
BYLAYER
 10
43.5999706602
 20
59.4817772133
 11
42.886162513
 21
59.0696623473
  0
LINE
  5
2A3
100
AcDbEntity
  8
0
100
AcDbLine
 62
7
  6
BYLAYER
 10
42.983150516
 20
58.937864442
 11
43.7609846548
 21
59.3869445108
  0
LINE
  5
2A4
100
AcDbEntity
  8
0
100
AcDbLine
 62
7
  6
BYLAYER
 10
44.2549555436
 20
59.101756737
 11
43.527122909
 21
58.6815448778
  0
LINE
  5
2A5
100
AcDbEntity
  8
0
100
AcDbLine
 62
7
  6
BYLAYER
 10
43.6015929807
 20
58.6624648378
 11
44.2379864342
 21
59.0298845763
  0
LINE
  5
2A6
100
AcDbEntity
  8
0
100
AcDbLine
 62
7
  6
BYLAYER
 10
81.0130737996
 20
76.0360574439
 11
81.0130323105
 21
76.0360410407
  0
LINE
  5
2A7
100
AcDbEntity
  8
0
100
AcDbLine
 62
7
  6
BYLAYER
 10
82.8603268802
 20
80.9648254831
 11
83.2845891823
 21
81.2097719753
  0
LINE
  5
2A8
100
AcDbEntity
  8
0
100
AcDbLine
 62
7
  6
BYLAYER
 10
84.4866727711
 20
81.2506061137
 11
83.3199514397
 21
80.5770032598
  0
LWPOLYLINE
  5
2A9
100
AcDbEntity
  8
0
100
AcDbPolyline
 62
7
  6
BYLAYER
 90
4
 70
0
 10
81.5967201773
 20
76.3097750719
 10
81.426136802
 20
76.2178785199
 10
81.181156593
 20
76.1048470225
 10
81.0130865001
 20
76.0360876281
  0
LINE
  5
2AA
100
AcDbEntity
  8
0
100
AcDbLine
 62
7
  6
BYLAYER
 10
45.4656720726
 20
58.6263611734
 11
45.5534695765
 21
58.6687825078
  0
LINE
  5
2AB
100
AcDbEntity
  8
0
100
AcDbLine
 62
7
  6
BYLAYER
 10
45.5041393707
 20
57.8284450947
 11
45.4656720726
 21
57.8098587563
  0
LINE
  5
2AC
100
AcDbEntity
  8
0
100
AcDbLine
 62
7
  6
BYLAYER
 10
81.5967201773
 20
76.3097750719
 11
81.5965999419
 21
76.3097056416
  0
LINE
  5
2AD
100
AcDbEntity
  8
0
100
AcDbLine
 62
7
  6
BYLAYER
 10
81.1232771099
 20
76.0019826678
 11
53.7771845809
 21
60.2138030763
  0
LINE
  5
2AE
100
AcDbEntity
  8
0
100
AcDbLine
 62
7
  6
BYLAYER
 10
87.3846051101
 20
79.6169404677
 11
82.2639947469
 21
76.6605720321
  0
LINE
  5
2AF
100
AcDbEntity
  8
0
100
AcDbLine
 62
7
  6
BYLAYER
 10
54.7529843817
 20
59.6340844436
 11
87.7011113951
 21
78.6565808918
  0
LINE
  5
2B0
100
AcDbEntity
  8
0
100
AcDbLine
 62
7
  6
BYLAYER
 10
54.4802052797
 20
59.0085729534
 11
54.9398227735
 21
59.2739316532
  0
LINE
  5
2B1
100
AcDbEntity
  8
0
100
AcDbLine
 62
7
  6
BYLAYER
 10
54.7529843825
 20
59.4226037542
 11
55.0004705734
 21
59.564861034
  0
LINE
  5
2B2
100
AcDbEntity
  8
0
100
AcDbLine
 62
7
  6
BYLAYER
 10
44.8007205245
 20
56.8210383137
 11
45.096030909
 21
56.9517304034
  0
LINE
  5
2B3
100
AcDbEntity
  8
0
100
AcDbLine
 62
7
  6
BYLAYER
 10
54.4387828866
 20
47.9758833753
 11
54.4802052793
 21
48.0674405636
  0
LINE
  5
2B4
100
AcDbEntity
  8
0
100
AcDbLine
 62
7
  6
BYLAYER
 10
54.9398227735
 20
48.3327992637
 11
54.8983982115
 21
48.2412458327
  0
LWPOLYLINE
  5
2B5
100
AcDbEntity
  8
0
100
AcDbPolyline
 62
7
  6
BYLAYER
 90
4
 70
0
 10
82.0706172449
 20
76.6450009974
 10
81.9407228925
 20
76.540189113
 10
81.7424757921
 20
76.3993445626
 10
81.5966037777
 20
76.3096990245
  0
LINE
  5
2B6
100
AcDbEntity
  8
0
100
AcDbLine
 62
7
  6
BYLAYER
 10
82.0706820027
 20
76.6450339108
 11
82.0705042342
 21
76.6448841405
  0
LINE
  5
2B7
100
AcDbEntity
  8
0
100
AcDbLine
 62
7
  6
BYLAYER
 10
81.1232771086
 20
76.0019826671
 11
81.0130737996
 21
76.0360574439
  0
LINE
  5
2B8
100
AcDbEntity
  8
0
100
AcDbLine
 62
7
  6
BYLAYER
 10
69.9909234056
 20
89.6195415814
 11
69.9909234056
 21
88.3131532341
  0
LINE
  5
2B9
100
AcDbEntity
  8
0
100
AcDbLine
 62
7
  6
BYLAYER
 10
54.752984384
 20
47.924468188
 11
55.0004699452
 21
48.0683507372
  0
LINE
  5
2BA
100
AcDbEntity
  8
0
100
AcDbLine
 62
7
  6
BYLAYER
 10
54.9398227735
 20
48.3327992637
 11
54.4802052797
 21
48.0674405639
  0
LINE
  5
2BB
100
AcDbEntity
  8
0
100
AcDbLine
 62
7
  6
BYLAYER
 10
54.8984003808
 20
48.2412420753
 11
54.4387828866
 21
47.9758833753
  0
LINE
  5
2BC
100
AcDbEntity
  8
0
100
AcDbLine
 62
7
  6
BYLAYER
 10
71.3291165973
 20
87.6222222334
 11
71.7940579151
 21
87.5987387638
  0
LINE
  5
2BD
100
AcDbEntity
  8
0
100
AcDbLine
 62
7
  6
BYLAYER
 10
71.1388569893
 20
87.6096023212
 11
71.1388569893
 21
87.323833793
  0
LINE
  5
2BE
100
AcDbEntity
  8
0
100
AcDbLine
 62
7
  6
BYLAYER
 10
71.3291165973
 20
87.6222222334
 11
71.3291165973
 21
87.2139898421
  0
LINE
  5
2BF
100
AcDbEntity
  8
0
100
AcDbLine
 62
7
  6
BYLAYER
 10
71.7940579151
 20
87.5987387638
 11
71.7940579151
 21
86.9455619197
  0
LINE
  5
2C0
100
AcDbEntity
  8
0
100
AcDbLine
 62
7
  6
BYLAYER
 10
72.0061890662
 20
87.7212120099
 11
72.0061890662
 21
87.0631332612
  0
LINE
  5
2C1
100
AcDbEntity
  8
0
100
AcDbLine
 62
7
  6
BYLAYER
 10
87.7011113951
 20
66.7356455912
 11
54.7529843811
 21
47.7131491359
  0
LINE
  5
2C2
100
AcDbEntity
  8
0
100
AcDbLine
 62
7
  6
BYLAYER
 10
54.401218828
 20
47.2733110651
 11
87.6848323502
 21
66.4894995866
  0
LINE
  5
2C3
100
AcDbEntity
  8
0
100
AcDbLine
 62
7
  6
BYLAYER
 10
54.401218828
 20
47.2733110651
 11
54.380422576
 21
47.2616578192
  0
LWPOLYLINE
  5
2C4
100
AcDbEntity
  8
0
100
AcDbPolyline
 62
7
  6
BYLAYER
 90
4
 70
0
 10
87.6836840537
 20
66.4888588289
 10
87.7448522413
 20
66.5337634964
 10
87.8475143332
 20
66.7750143998
 10
87.8475599082
 20
66.7696074249
  0
LWPOLYLINE
  5
2C5
100
AcDbEntity
  8
0
100
AcDbPolyline
 62
7
  6
BYLAYER
 90
4
 70
0
 10
67.2627468605
 20
91.32999046
 10
67.127874004
 20
91.3640630155
 10
66.9508523646
 20
91.3645332081
 10
66.8417375751
 20
91.3365780283
  0
LINE
  5
2C6
100
AcDbEntity
  8
0
100
AcDbLine
 62
7
  6
BYLAYER
 10
67.2384297463
 20
91.2648504924
 11
67.1612674089
 21
91.2926258937
  0
LINE
  5
2C7
100
AcDbEntity
  8
0
100
AcDbLine
 62
7
  6
BYLAYER
 10
67.2627292039
 20
91.3299968088
 11
67.2628001576
 21
91.3299712552
  0
LINE
  5
2C8
100
AcDbEntity
  8
0
100
AcDbLine
 62
7
  6
BYLAYER
 10
70.8913706462
 20
87.4667168673
 11
71.9354869256
 21
86.8639096897
  0
LINE
  5
2C9
100
AcDbEntity
  8
0
100
AcDbLine
 62
7
  6
BYLAYER
 10
79.7136939022
 20
82.3732613899
 11
80.7578101817
 21
81.7704542123
  0
LINE
  5
2CA
100
AcDbEntity
  8
0
100
AcDbLine
 62
7
  6
BYLAYER
 10
83.3199514397
 20
80.5770032598
 11
81.0052965247
 21
81.9133396661
  0
LINE
  5
2CB
100
AcDbEntity
  8
0
100
AcDbLine
 62
7
  6
BYLAYER
 10
71.1388569893
 20
87.6096023212
 11
68.8242020742
 21
88.9459387275
  0
LINE
  5
2CC
100
AcDbEntity
  8
0
100
AcDbLine
 62
7
  6
BYLAYER
 10
82.86032688
 20
80.964825483
 11
81.5928511376
 21
81.6965863895
  0
LINE
  5
2CD
100
AcDbEntity
  8
0
100
AcDbLine
 62
7
  6
BYLAYER
 10
71.3291165973
 20
87.6222222334
 11
70.0616408549
 21
88.3539831398
  0
LINE
  5
2CE
100
AcDbEntity
  8
0
100
AcDbLine
 62
7
  6
BYLAYER
 10
67.2366285326
 20
91.2631852435
 11
67.1612674089
 21
91.2926258937
  0
LINE
  5
2CF
100
AcDbEntity
  8
0
100
AcDbLine
 62
7
  6
BYLAYER
 10
83.2845891823
 20
81.2097719753
 11
81.7643032733
 21
82.0874895976
  0
LINE
  5
2D0
100
AcDbEntity
  8
0
100
AcDbLine
 62
7
  6
BYLAYER
 10
72.0061890662
 20
87.7212120099
 11
70.4859031576
 21
88.5989296324
  0
LINE
  5
2D1
100
AcDbEntity
  8
0
100
AcDbLine
 62
7
  6
BYLAYER
 10
69.9909234056
 20
89.6195415814
 11
73.3496946001
 21
87.6803979974
  0
LINE
  5
2D2
100
AcDbEntity
  8
0
100
AcDbLine
 62
7
  6
BYLAYER
 10
81.1279015767
 20
83.1897496977
 11
84.4866727711
 21
81.2506061137
  0
LINE
  5
2D3
100
AcDbEntity
  8
0
100
AcDbLine
 62
7
  6
BYLAYER
 10
81.1279015767
 20
83.1897496977
 11
81.1279015767
 21
81.8425552077
  0
LINE
  5
2D4
100
AcDbEntity
  8
0
100
AcDbLine
 62
7
  6
BYLAYER
 10
81.5521721221
 20
81.9650163514
 11
81.5521721221
 21
81.5976080355
  0
LINE
  5
2D5
100
AcDbEntity
  8
0
100
AcDbLine
 62
7
  6
BYLAYER
 10
81.5928511376
 20
81.6965863895
 11
81.5928511375
 21
81.5741225263
  0
LINE
  5
2D6
100
AcDbEntity
  8
0
100
AcDbLine
 62
7
  6
BYLAYER
 10
87.5886106494
 20
79.5919482405
 11
87.5879714668
 21
79.5925374896
  0
LINE
  5
2D7
100
AcDbEntity
  8
0
100
AcDbLine
 62
7
  6
BYLAYER
 10
82.96638338
 20
80.7811312563
 11
82.86032688
 21
80.964825483
  0
LINE
  5
2D8
100
AcDbEntity
  8
0
100
AcDbLine
 62
7
  6
BYLAYER
 10
83.2845891823
 20
81.2097719753
 11
83.5674281846
 21
80.7198831722
  0
LINE
  5
2D9
100
AcDbEntity
  8
0
100
AcDbLine
 62
7
  6
BYLAYER
 10
81.5521721221
 20
81.9650163514
 11
81.5928511375
 21
81.6965863895
  0
LINE
  5
2DA
100
AcDbEntity
  8
0
100
AcDbLine
 62
7
  6
BYLAYER
 10
87.7011113951
 20
78.6565808918
 11
87.7011113951
 21
66.7356455912
  0
LINE
  5
2DB
100
AcDbEntity
  8
0
100
AcDbLine
 62
7
  6
BYLAYER
 10
87.8475565226
 20
66.76973952
 11
87.8475565316
 21
79.0309493992
  0
LWPOLYLINE
  5
2DC
100
AcDbEntity
  8
0
100
AcDbPolyline
 62
7
  6
BYLAYER
 90
4
 70
0
 10
87.7890556217
 20
79.3068731322
 10
87.7423341005
 20
79.3956005092
 10
87.6413438476
 20
79.5374408315
 10
87.5880179427
 20
79.5924948842
  0
LINE
  5
2DD
100
AcDbEntity
  8
0
100
AcDbLine
 62
7
  6
BYLAYER
 10
87.7890440122
 20
79.3068980162
 11
87.7890556217
 21
79.3068731322
  0
LINE
  5
2DE
100
AcDbEntity
  8
0
100
AcDbLine
 62
7
  6
BYLAYER
 10
87.8475598169
 20
79.0314694564
 11
87.7890451437
 21
79.3068956036
  0
ARC
  5
2DF
100
AcDbEntity
  8
0
100
AcDbCircle
 62
7
  6
BYLAYER
 10
5.9178192095
 20
90.6232399915
 40
49.2135359834
100
AcDbArc
 50
320.0035664077
 51
320.4912940371
  0
ARC
  5
2E0
100
AcDbEntity
  8
0
100
AcDbCircle
 62
7
  6
BYLAYER
 10
32.8147030397
 20
71.3932371878
 40
9.8486520843
100
AcDbArc
 50
134.0953237608
 51
134.242838141
  0
ARC
  5
2E1
100
AcDbEntity
  8
0
100
AcDbCircle
 62
7
  6
BYLAYER
 10
32.7565537628
 20
71.4533443712
 40
9.765020704
100
AcDbArc
 50
133.4660078044
 51
134.095699322
  0
ARC
  5
2E2
100
AcDbEntity
  8
0
100
AcDbCircle
 62
7
  6
BYLAYER
 10
32.4768347631
 20
71.7506253078
 40
9.3568340403
100
AcDbArc
 50
130.2991228573
 51
133.475141077
  0
ARC
  5
2E3
100
AcDbEntity
  8
0
100
AcDbCircle
 62
7
  6
BYLAYER
 10
31.9052195291
 20
72.4222041146
 40
8.474927437
100
AcDbArc
 50
125.9698160375
 51
130.2883327117
  0
ARC
  5
2E4
100
AcDbEntity
  8
0
100
AcDbCircle
 62
7
  6
BYLAYER
 10
29.8963754374
 20
73.9910904216
 40
6.6910503664
100
AcDbArc
 50
119.677388577
 51
120.0000354409
  0
ARC
  5
2E5
100
AcDbEntity
  8
0
100
AcDbCircle
 62
7
  6
BYLAYER
 10
30.8345859769
 20
73.9990744111
 40
6.5674649694
100
AcDbArc
 50
119.6774669626
 51
120.0001138264
  0
ARC
  5
2E6
100
AcDbEntity
  8
0
100
AcDbCircle
 62
7
  6
BYLAYER
 10
27.6981821332
 20
75.1584232416
 40
4.4784109829
100
AcDbArc
 50
120.0001626607
 51
120.3511566282
  0
ARC
  5
2E7
100
AcDbEntity
  8
0
100
AcDbCircle
 62
7
  6
BYLAYER
 10
37.7952636499
 20
73.4352705394
 40
2.3419499474
100
AcDbArc
 50
55.0683655099
 51
59.9933875448
  0
ARC
  5
2E8
100
AcDbEntity
  8
0
100
AcDbCircle
 62
7
  6
BYLAYER
 10
36.6024769982
 20
60.0226997808
 40
1.8342453559
100
AcDbArc
 50
197.4694307655
 51
198.5417062869
  0
ARC
  5
2E9
100
AcDbEntity
  8
0
100
AcDbCircle
 62
7
  6
BYLAYER
 10
42.6832374407
 20
67.0394340869
 40
0.9770421164
100
AcDbArc
 50
113.1690825117
 51
116.3715105116
  0
ARC
  5
2EA
100
AcDbEntity
  8
0
100
AcDbCircle
 62
7
  6
BYLAYER
 10
42.655739229
 20
67.0949986139
 40
0.9150456151
100
AcDbArc
 50
116.3743059642
 51
118.3240394517
  0
ARC
  5
2EB
100
AcDbEntity
  8
0
100
AcDbCircle
 62
7
  6
BYLAYER
 10
36.5744299551
 20
68.856399531
 40
0.3420335547
100
AcDbArc
 50
141.589873619
 51
150.0066822369
  0
ARC
  5
2EC
100
AcDbEntity
  8
0
100
AcDbCircle
 62
7
  6
BYLAYER
 10
34.1507891999
 20
62.2048452204
 40
0.2
100
AcDbArc
 50
180.0
 51
240.0005612632
  0
ARC
  5
2ED
100
AcDbEntity
  8
0
100
AcDbCircle
 62
7
  6
BYLAYER
 10
34.1507891999
 20
71.529302824
 40
0.2
100
AcDbArc
 50
119.9998519061
 51
180.0
  0
ARC
  5
2EE
100
AcDbEntity
  8
0
100
AcDbCircle
 62
7
  6
BYLAYER
 10
42.7494028657
 20
59.8583162434
 40
0.1423616204
100
AcDbArc
 50
13.2595952488
 51
16.1267257672
  0
ARC
  5
2EF
100
AcDbEntity
  8
0
100
AcDbCircle
 62
7
  6
BYLAYER
 10
42.9878678155
 20
59.9956760582
 40
0.1411103994
100
AcDbArc
 50
223.8835739069
 51
226.0880152511
  0
ARC
  5
2F0
100
AcDbEntity
  8
0
100
AcDbCircle
 62
7
  6
BYLAYER
 10
43.5016944131
 20
58.5577575681
 40
0.1411103995
100
AcDbArc
 50
43.8835739071
 51
46.088015251
  0
ARC
  5
2F1
100
AcDbEntity
  8
0
100
AcDbCircle
 62
7
  6
BYLAYER
 10
42.9849809922
 20
59.9926878793
 40
0.1369555339
100
AcDbArc
 50
226.0910382343
 51
227.4939694178
  0
ARC
  5
2F2
100
AcDbEntity
  8
0
100
AcDbCircle
 62
7
  6
BYLAYER
 10
42.8372294635
 20
59.0908072282
 40
0.0533061847
100
AcDbArc
 50
336.6299291337
 51
342.1487339731
  0
ARC
  5
2F3
100
AcDbEntity
  8
0
100
AcDbCircle
 62
7
  6
BYLAYER
 10
48.4115346311
 20
34.1220293721
 40
60.0470337255
100
AcDbArc
 50
60.001374942
 51
60.7867167143
  0
ARC
  5
2F4
100
AcDbEntity
  8
0
100
AcDbCircle
 62
7
  6
BYLAYER
 10
49.2619571822
 20
35.5880593339
 40
58.3522034499
100
AcDbArc
 50
58.9168280895
 51
60.0048245613
  0
ARC
  5
2F5
100
AcDbEntity
  8
0
100
AcDbCircle
 62
7
  6
BYLAYER
 10
51.6199401373
 20
11.9374738748
 40
48.5446346208
100
AcDbArc
 50
99.6214024608
 51
100.0058530385
  0
ARC
  5
2F6
100
AcDbEntity
  8
0
100
AcDbCircle
 62
7
  6
BYLAYER
 10
53.6365193296
 20
48.3928075194
 40
1.1617453395
100
AcDbArc
 50
240.0160277722
 51
247.3414542747
  0
ARC
  5
2F7
100
AcDbEntity
  8
0
100
AcDbCircle
 62
7
  6
BYLAYER
 10
54.0829522096
 20
48.7562976939
 40
0.7951944085
100
AcDbArc
 50
295.5308242064
 51
299.9713724684
  0
ARC
  5
2F8
100
AcDbEntity
  8
0
100
AcDbCircle
 62
7
  6
BYLAYER
 10
73.7852508738
 20
78.0910662608
 40
9.5071324306
100
AcDbArc
 50
50.374611952
 51
53.3997628307
  0
ARC
  5
2F9
100
AcDbEntity
  8
0
100
AcDbCircle
 62
7
  6
BYLAYER
 10
75.6468120375
 20
81.305203528
 40
5.7801457597
100
AcDbArc
 50
68.4200050733
 51
69.3970035015
  0
ARC
  5
2FA
100
AcDbEntity
  8
0
100
AcDbCircle
 62
7
  6
BYLAYER
 10
75.7391955792
 20
81.5542287223
 40
5.5145391553
100
AcDbArc
 50
69.3850048701
 51
71.4666801973
  0
ARC
  5
2FB
100
AcDbEntity
  8
0
100
AcDbCircle
 62
7
  6
BYLAYER
 10
79.1598770065
 20
80.9737970255
 40
5.345453954
100
AcDbArc
 50
290.5675905967
 51
291.5493686752
  0
ARC
  5
2FC
100
AcDbEntity
  8
0
100
AcDbCircle
 62
7
  6
BYLAYER
 10
65.5746216031
 20
87.981716871
 40
4.0600810815
100
AcDbArc
 50
299.3304244912
 51
301.1432910004
  0
ARC
  5
2FD
100
AcDbEntity
  8
0
100
AcDbCircle
 62
7
  6
BYLAYER
 10
77.6375796391
 20
76.2720231726
 40
3.7331310968
100
AcDbArc
 50
119.9897496019
 51
121.635345253
  0
ARC
  5
2FE
100
AcDbEntity
  8
0
100
AcDbCircle
 62
7
  6
BYLAYER
 10
77.6321320623
 20
73.260969147
 40
3.7217427555
100
AcDbArc
 50
119.9941014501
 51
122.2574680323
  0
ARC
  5
2FF
100
AcDbEntity
  8
0
100
AcDbCircle
 62
7
  6
BYLAYER
 10
63.4829868738
 20
81.4375944403
 40
3.7080394906
100
AcDbArc
 50
119.9923124511
 51
122.5813899726
  0
ARC
  5
300
100
AcDbEntity
  8
0
100
AcDbCircle
 62
7
  6
BYLAYER
 10
65.5751554036
 20
81.4972166099
 40
3.6381981325
100
AcDbArc
 50
56.9361330941
 51
60.0044368178
  0
ARC
  5
301
100
AcDbEntity
  8
0
100
AcDbCircle
 62
7
  6
BYLAYER
 10
79.784030718
 20
73.4361392371
 40
3.5148801519
100
AcDbArc
 50
56.7684866164
 51
57.2802635176
  0
ARC
  5
302
100
AcDbEntity
  8
0
100
AcDbCircle
 62
7
  6
BYLAYER
 10
45.2187842211
 20
60.8940704622
 40
3.4357910459
100
AcDbArc
 50
186.3042560259
 51
187.7797013908
  0
ARC
  5
303
100
AcDbEntity
  8
0
100
AcDbCircle
 62
7
  6
BYLAYER
 10
44.1806978035
 20
60.6828322929
 40
3.2062832658
100
AcDbArc
 50
180.0109945307
 51
181.6939200312
  0
ARC
  5
304
100
AcDbEntity
  8
0
100
AcDbCircle
 62
7
  6
BYLAYER
 10
44.3131834677
 20
60.6827695277
 40
2.9145052118
100
AcDbArc
 50
180.010837225
 51
181.6939337558
  0
ARC
  5
305
100
AcDbEntity
  8
0
100
AcDbCircle
 62
7
  6
BYLAYER
 10
80.6441886256
 20
78.2786770927
 40
2.3132757054
100
AcDbArc
 50
294.0215112414
 51
295.9026213954
  0
ARC
  5
306
100
AcDbEntity
  8
0
100
AcDbCircle
 62
7
  6
BYLAYER
 10
80.7518049581
 20
78.0618528387
 40
2.0712237101
100
AcDbArc
 50
295.8448943714
 51
299.9689469009
  0
ARC
  5
307
100
AcDbEntity
  8
0
100
AcDbCircle
 62
7
  6
BYLAYER
 10
80.7837381121
 20
77.9562338826
 40
1.9672059534
100
AcDbArc
 50
314.5987071927
 51
318.8045146872
  0
ARC
  5
308
100
AcDbEntity
  8
0
100
AcDbCircle
 62
7
  6
BYLAYER
 10
80.8341583207
 20
77.9060119622
 40
1.8960440565
100
AcDbArc
 50
313.0090620709
 51
314.5794086119
  0
ARC
  5
309
100
AcDbEntity
  8
0
100
AcDbCircle
 62
7
  6
BYLAYER
 10
44.0148916516
 20
57.7147514732
 40
1.5902090717
100
AcDbArc
 50
333.528063635
 51
335.9812457164
  0
ARC
  5
30A
100
AcDbEntity
  8
0
100
AcDbCircle
 62
7
  6
BYLAYER
 10
81.3737062965
 20
77.8417390995
 40
1.3543584584
100
AcDbArc
 50
359.4320386053
 51
0.0009834461
  0
ARC
  5
30B
100
AcDbEntity
  8
0
100
AcDbCircle
 62
7
  6
BYLAYER
 10
44.4075113781
 20
57.7099364663
 40
0.9719833524
100
AcDbArc
 50
293.8624710105
 51
304.9539805445
  0
ARC
  5
30C
100
AcDbEntity
  8
0
100
AcDbCircle
 62
7
  6
BYLAYER
 10
53.7012733525
 20
61.0796426151
 40
0.8674359424
100
AcDbArc
 50
240.0414488765
 51
263.1311224992
  0
ARC
  5
30D
100
AcDbEntity
  8
0
100
AcDbCircle
 62
7
  6
BYLAYER
 10
66.9232760174
 20
91.0200638876
 40
0.3222393961
100
AcDbArc
 50
104.6627398719
 51
109.46922669
  0
ARC
  5
30E
100
AcDbEntity
  8
0
100
AcDbCircle
 62
7
  6
BYLAYER
 10
43.7401593629
 20
58.6951173828
 40
0.1423616204
100
AcDbArc
 50
193.2595952487
 51
196.1267257674
  0
ARC
  5
30F
100
AcDbEntity
  8
0
100
AcDbCircle
 62
7
  6
BYLAYER
 10
43.6523327651
 20
59.462626398
 40
0.0533061846
100
AcDbArc
 50
156.6299291336
 51
162.1487339731
  0
SPLINE
  5
310
100
AcDbEntity
  8
0
100
AcDbSpline
 62
7
  6
BYLAYER
 70
0
 71
3
 72
17
 73
13
 74
0
 42
0.0000001
 43
0.0000001
 44
0.0000000001
 40
0.0
 40
0.0
 40
0.0
 40
0.0
 40
0.0473669816
 40
0.0964267279
 40
0.1474233046
 40
0.2005392659
 40
0.3134665989
 40
0.4356133054
 40
0.5665447539
 40
0.7052577635
 40
0.8503221523
 40
1.0
 40
1.0
 40
1.0
 40
1.0
 10
76.3736978225
 20
87.3758899129
 30
0.0
 10
76.4908911283
 20
87.3902983388
 30
0.0
 10
76.7312992809
 20
87.4061394075
 30
0.0
 10
77.0990977848
 20
87.3918718003
 30
0.0
 10
77.4779889834
 20
87.3402138038
 30
0.0
 10
78.0059773035
 20
87.2193858949
 30
0.0
 10
78.683627267
 20
86.9717124246
 30
0.0
 10
79.4910035133
 20
86.5417170013
 30
0.0
 10
80.2937966345
 20
85.9818792849
 30
0.0
 10
81.0761463782
 20
85.3035083352
 30
0.0
 10
81.8225711411
 20
84.5202635429
 30
0.0
 10
82.2812544316
 20
83.9449330462
 30
0.0
 10
82.5015053435
 20
83.6437617748
 30
0.0
  0
SPLINE
  5
311
100
AcDbEntity
  8
0
100
AcDbSpline
 62
7
  6
BYLAYER
 70
0
 71
3
 72
12
 73
8
 74
0
 42
0.0000001
 43
0.0000001
 44
0.0000000001
 40
0.0
 40
0.0
 40
0.0
 40
0.0
 40
0.2648258092
 40
0.5174075915
 40
0.7611006408
 40
0.880867851
 40
1.0
 40
1.0
 40
1.0
 40
1.0
 10
41.3433709879
 20
60.8736484732
 30
0.0
 10
41.3603816314
 20
60.973833618
 30
0.0
 10
41.4075615909
 20
61.1676667046
 30
0.0
 10
41.5239624711
 20
61.4371542651
 30
0.0
 10
41.6592443435
 20
61.6333292294
 30
0.0
 10
41.788196909
 20
61.7666740763
 30
0.0
 10
41.8591611304
 20
61.8250941779
 30
0.0
 10
41.8960841684
 20
61.8520460909
 30
0.0
  0
SPLINE
  5
312
100
AcDbEntity
  8
0
100
AcDbSpline
 62
7
  6
BYLAYER
 70
0
 71
3
 72
13
 73
9
 74
0
 42
0.0000001
 43
0.0000001
 44
0.0000000001
 40
0.0
 40
0.0
 40
0.0
 40
0.0
 40
0.1204602553
 40
0.2521978946
 40
0.5287961972
 40
0.6638216238
 40
0.789664979
 40
1.0
 40
1.0
 40
1.0
 40
1.0
 10
43.5064117126
 20
59.6155691842
 30
0.0
 10
43.5064117126
 20
59.6085651456
 30
0.0
 10
43.508038296
 20
59.5938837442
 30
0.0
 10
43.5164526335
 20
59.5642204315
 30
0.0
 10
43.5317136907
 20
59.5359897503
 30
0.0
 10
43.5520209306
 20
59.512062902
 30
0.0
 10
43.5727516012
 20
59.4942169352
 30
0.0
 10
43.5912502646
 20
59.4851701253
 30
0.0
 10
43.6033997156
 20
59.4837712789
 30
0.0
  0
SPLINE
  5
313
100
AcDbEntity
  8
0
100
AcDbSpline
 62
7
  6
BYLAYER
 70
0
 71
3
 72
11
 73
7
 74
0
 42
0.0000001
 43
0.0000001
 44
0.0000000001
 40
0.0
 40
0.0
 40
0.0
 40
0.0
 40
0.3031357238
 40
0.5688822489
 40
0.7968537661
 40
1.0
 40
1.0
 40
1.0
 40
1.0
 10
42.8924445473
 20
59.8917234072
 30
0.0
 10
42.8982004047
 20
59.8864485905
 30
0.0
 10
42.9098744014
 20
59.8774152258
 30
0.0
 10
42.928668717
 20
59.8686520718
 30
0.0
 10
42.9467998085
 20
59.8661110492
 30
0.0
 10
42.9579048486
 20
59.869278601
 30
0.0
 10
42.9624381524
 20
59.8718907703
 30
0.0
  0
SPLINE
  5
314
100
AcDbEntity
  8
0
100
AcDbSpline
 62
7
  6
BYLAYER
 70
0
 71
3
 72
9
 73
5
 74
0
 42
0.0000001
 43
0.0000001
 44
0.0000000001
 40
0.0
 40
0.0
 40
0.0
 40
0.0
 40
0.2380697709
 40
1.0
 40
1.0
 40
1.0
 40
1.0
 10
44.2347294304
 20
59.0562600383
 30
0.0
 10
44.2347294304
 20
59.0541483753
 30
0.0
 10
44.2350277349
 20
59.0452790623
 30
0.0
 10
44.2364382007
 20
59.0364631164
 30
0.0
 10
44.2379864342
 20
59.0298845763
 30
0.0
  0
SPLINE
  5
315
100
AcDbEntity
  8
0
100
AcDbSpline
 62
7
  6
BYLAYER
 70
0
 71
3
 72
11
 73
7
 74
0
 42
0.0000001
 43
0.0000001
 44
0.0000000001
 40
0.0
 40
0.0
 40
0.0
 40
0.0
 40
0.2922463319
 40
0.5505443346
 40
0.7810947853
 40
1.0
 40
1.0
 40
1.0
 40
1.0
 10
41.4324229991
 20
60.731309796
 30
0.0
 10
41.4173856501
 20
60.739991417
 30
0.0
 10
41.3903695175
 20
60.7589009223
 30
0.0
 10
41.3592255887
 20
60.794053782
 30
0.0
 10
41.3419740629
 20
60.8333205783
 30
0.0
 10
41.3412176341
 20
60.8608236356
 30
0.0
 10
41.3433857887
 20
60.873647687
 30
0.0
  0
LINE
  5
316
100
AcDbEntity
  8
0
100
AcDbLine
 62
7
  6
BYLAYER
 10
41.4111755623
 20
60.1506704517
 11
41.8146166795
 21
60.4289861046
  0
SPLINE
  5
317
100
AcDbEntity
  8
0
100
AcDbSpline
 62
7
  6
BYLAYER
 70
0
 71
3
 72
11
 73
7
 74
0
 42
0.0000001
 43
0.0000001
 44
0.0000000001
 40
0.0
 40
0.0
 40
0.0
 40
0.0
 40
0.2896514517
 40
0.5491013872
 40
0.7822260414
 40
1.0
 40
1.0
 40
1.0
 40
1.0
 10
44.7159869722
 20
62.6812853434
 30
0.0
 10
44.7159869722
 20
62.6614077593
 30
0.0
 10
44.7129672811
 20
62.6235976798
 30
0.0
 10
44.6976622925
 20
62.5716480516
 30
0.0
 10
44.6718835525
 20
62.529484528
 30
0.0
 10
44.6476571478
 20
62.5091419288
 30
0.0
 10
44.6347174274
 20
62.5016643277
 30
0.0
  0
SPLINE
  5
318
100
AcDbEntity
  8
0
100
AcDbSpline
 62
7
  6
BYLAYER
 70
0
 71
3
 72
11
 73
7
 74
0
 42
0.0000001
 43
0.0000001
 44
0.0000000001
 40
0.0
 40
0.0
 40
0.0
 40
0.0
 40
0.2329838028
 40
0.4866366114
 40
0.7473054861
 40
1.0
 40
1.0
 40
1.0
 40
1.0
 10
45.3635842686
 20
63.6775451073
 30
0.0
 10
45.3652039194
 20
63.6431450983
 30
0.0
 10
45.3776573769
 20
63.5716331436
 30
0.0
 10
45.4168085567
 20
63.4677901152
 30
0.0
 10
45.474267791
 20
63.3694684083
 30
0.0
 10
45.5233680992
 20
63.3109685086
 30
0.0
 10
45.5501045826
 20
63.2848858667
 30
0.0
  0
SPLINE
  5
319
100
AcDbEntity
  8
0
100
AcDbSpline
 62
7
  6
BYLAYER
 70
0
 71
3
 72
9
 73
5
 74
0
 42
0.0000001
 43
0.0000001
 44
0.0000000001
 40
0.0
 40
0.0
 40
0.0
 40
0.0
 40
0.2548416206
 40
1.0
 40
1.0
 40
1.0
 40
1.0
 10
45.3597362617
 20
63.7182016066
 30
0.0
 10
45.3602180219
 20
63.714765442
 30
0.0
 10
45.3619614591
 20
63.7012619314
 30
0.0
 10
45.3631071117
 20
63.6876795153
 30
0.0
 10
45.3635842686
 20
63.6775451073
 30
0.0
  0
SPLINE
  5
31A
100
AcDbEntity
  8
0
100
AcDbSpline
 62
7
  6
BYLAYER
 70
0
 71
3
 72
11
 73
7
 74
0
 42
0.0000001
 43
0.0000001
 44
0.0000000001
 40
0.0
 40
0.0
 40
0.0
 40
0.0
 40
0.2176722312
 40
0.4509485789
 40
0.7108375664
 40
1.0
 40
1.0
 40
1.0
 40
1.0
 10
43.5271240763
 20
58.6815428559
 30
0.0
 10
43.5238256461
 20
58.6796422424
 30
0.0
 10
43.5176547619
 20
58.6744521783
 30
0.0
 10
43.5110748476
 20
58.6637030731
 30
0.0
 10
43.5071961344
 20
58.6504554986
 30
0.0
 10
43.5064117126
 20
58.640823396
 30
0.0
 10
43.5064117126
 20
58.6357662837
 30
0.0
  0
SPLINE
  5
31B
100
AcDbEntity
  8
0
100
AcDbSpline
 62
7
  6
BYLAYER
 70
0
 71
3
 72
11
 73
7
 74
0
 42
0.0000001
 43
0.0000001
 44
0.0000000001
 40
0.0
 40
0.0
 40
0.0
 40
0.0
 40
0.2420489065
 40
0.4885954211
 40
0.7411065197
 40
1.0
 40
1.0
 40
1.0
 40
1.0
 10
45.3597362617
 20
63.7182016066
 30
0.0
 10
45.3570794379
 20
63.737186171
 30
0.0
 10
45.345723759
 20
63.7747929378
 30
0.0
 10
45.3151924196
 20
63.8255019145
 30
0.0
 10
45.2735229344
 20
63.8692150667
 30
0.0
 10
45.2412399471
 20
63.8939004487
 30
0.0
 10
45.2242030987
 20
63.9053085096
 30
0.0
  0
SPLINE
  5
31C
100
AcDbEntity
  8
0
100
AcDbSpline
 62
7
  6
BYLAYER
 70
0
 71
3
 72
11
 73
7
 74
0
 42
0.0000001
 43
0.0000001
 44
0.0000000001
 40
0.0
 40
0.0
 40
0.0
 40
0.0
 40
0.2240997346
 40
0.4574080979
 40
0.7137520139
 40
1.0
 40
1.0
 40
1.0
 40
1.0
 10
41.342981698
 20
60.0257373185
 30
0.0
 10
41.3413946582
 20
60.0368063746
 30
0.0
 10
41.3419272536
 20
60.0601363979
 30
0.0
 10
41.3547107664
 20
60.0939957081
 30
0.0
 10
41.3783931576
 20
60.1251581913
 30
0.0
 10
41.3994186066
 20
60.1425594557
 30
0.0
 10
41.4111755623
 20
60.1506704517
 30
0.0
  0
SPLINE
  5
31D
100
AcDbEntity
  8
0
100
AcDbSpline
 62
7
  6
BYLAYER
 70
0
 71
3
 72
23
 73
19
 74
0
 42
0.0000001
 43
0.0000001
 44
0.0000000001
 40
0.0
 40
0.0
 40
0.0
 40
0.0
 40
0.0490917167
 40
0.0991035084
 40
0.1507936909
 40
0.2047427287
 40
0.2614340084
 40
0.3211032848
 40
0.3837364522
 40
0.4490987106
 40
0.5167684697
 40
0.5861785881
 40
0.6566620767
 40
0.7274953668
 40
0.7979345669
 40
0.8672462673
 40
0.9348035468
 40
1.0
 40
1.0
 40
1.0
 40
1.0
 10
44.8007205245
 20
56.8210383137
 30
0.0
 10
44.7218394605
 20
56.7861288366
 30
0.0
 10
44.5542933372
 20
56.7331130832
 30
0.0
 10
44.2889731896
 20
56.7070259489
 30
0.0
 10
44.015123657
 20
56.7312634417
 30
0.0
 10
43.7378679231
 20
56.8027829241
 30
0.0
 10
43.4607250704
 20
56.91794545
 30
0.0
 10
43.186697124
 20
57.0737194616
 30
0.0
 10
42.9188378979
 20
57.267018844
 30
0.0
 10
42.6604362346
 20
57.4945480892
 30
0.0
 10
42.4150040133
 20
57.7526284448
 30
0.0
 10
42.1861192657
 20
58.0370898471
 30
0.0
 10
41.97728924
 20
58.3433110252
 30
0.0
 10
41.7918358144
 20
58.6663104489
 30
0.0
 10
41.632800654
 20
59.0008286037
 30
0.0
 10
41.5027543429
 20
59.3415256521
 30
0.0
 10
41.4040027836
 20
59.682994921
 30
0.0
 10
41.3592739648
 20
59.9123439398
 30
0.0
 10
41.3429711375
 20
60.0257367409
 30
0.0
  0
SPLINE
  5
31E
100
AcDbEntity
  8
0
100
AcDbSpline
 62
7
  6
BYLAYER
 70
0
 71
3
 72
12
 73
8
 74
0
 42
0.0000001
 43
0.0000001
 44
0.0000000001
 40
0.0
 40
0.0
 40
0.0
 40
0.0
 40
0.2343274207
 40
0.4937811749
 40
0.7567307021
 40
0.8823185335
 40
1.0
 40
1.0
 40
1.0
 40
1.0
 10
45.0571392295
 20
58.6386262474
 30
0.0
 10
45.0856909621
 20
58.6221422698
 30
0.0
 10
45.1516013991
 20
58.5971988199
 30
0.0
 10
45.2577596179
 20
58.5828530671
 30
0.0
 10
45.349516819
 20
58.5893926493
 30
0.0
 10
45.4187523217
 20
58.6066670282
 30
0.0
 10
45.4507639124
 20
58.6191580904
 30
0.0
 10
45.4656720726
 20
58.6263611734
 30
0.0
  0
SPLINE
  5
31F
100
AcDbEntity
  8
0
100
AcDbSpline
 62
7
  6
BYLAYER
 70
0
 71
3
 72
9
 73
5
 74
0
 42
0.0000001
 43
0.0000001
 44
0.0000000001
 40
0.0
 40
0.0
 40
0.0
 40
0.0
 40
0.257599592
 40
1.0
 40
1.0
 40
1.0
 40
1.0
 10
41.8972914039
 20
61.6632032305
 30
0.0
 10
41.9026658663
 20
61.6897882805
 30
0.0
 10
41.9254267513
 20
61.7925905813
 30
0.0
 10
41.9560021267
 20
61.8937252732
 30
0.0
 10
41.9835966504
 20
61.9668605346
 30
0.0
  0
SPLINE
  5
320
100
AcDbEntity
  8
0
100
AcDbSpline
 62
7
  6
BYLAYER
 70
0
 71
3
 72
22
 73
18
 74
0
 42
0.0000001
 43
0.0000001
 44
0.0000000001
 40
0.0
 40
0.0
 40
0.0
 40
0.0
 40
0.0548737315
 40
0.1066218405
 40
0.1561796823
 40
0.2047375145
 40
0.2536108626
 40
0.304074887
 40
0.3572093502
 40
0.4138082883
 40
0.4743562328
 40
0.5390536597
 40
0.6078591561
 40
0.6805303095
 40
0.7566637896
 40
0.8357319075
 40
1.0
 40
1.0
 40
1.0
 40
1.0
 10
41.9835966504
 20
61.9668605346
 30
0.0
 10
42.0131377006
 20
62.0451547809
 30
0.0
 10
42.0816272114
 20
62.1935007722
 30
0.0
 10
42.217195626
 20
62.390825957
 30
0.0
 10
42.3807068271
 20
62.5526116606
 30
0.0
 10
42.5698021262
 20
62.6758917136
 30
0.0
 10
42.7813353922
 20
62.7584763628
 30
0.0
 10
43.0116555886
 20
62.7992639554
 30
0.0
 10
43.2571251967
 20
62.7981143022
 30
0.0
 10
43.5142579466
 20
62.7555168332
 30
0.0
 10
43.7796449979
 20
62.6724318941
 30
0.0
 10
44.0498420549
 20
62.5501936523
 30
0.0
 10
44.3213183402
 20
62.3905374449
 30
0.0
 10
44.5904767562
 20
62.1956666562
 30
0.0
 10
44.8537549073
 20
61.9682222487
 30
0.0
 10
45.1963923898
 20
61.621388521
 30
0.0
 10
45.4271896218
 20
61.3286907064
 30
0.0
 10
45.5688457455
 20
61.1220813366
 30
0.0
  0
SPLINE
  5
321
100
AcDbEntity
  8
0
100
AcDbSpline
 62
7
  6
BYLAYER
 70
0
 71
3
 72
17
 73
13
 74
0
 42
0.0000001
 43
0.0000001
 44
0.0000000001
 40
0.0
 40
0.0
 40
0.0
 40
0.0
 40
0.0428242176
 40
0.0873366059
 40
0.1349210369
 40
0.1864881952
 40
0.3026228689
 40
0.4350437018
 40
0.578533649
 40
0.7257343711
 40
0.868639291
 40
1.0
 40
1.0
 40
1.0
 40
1.0
 10
44.6347174274
 20
62.5016643277
 30
0.0
 10
44.6252770379
 20
62.4962089187
 30
0.0
 10
44.6045177203
 20
62.4875111054
 30
0.0
 10
44.5702910579
 20
62.4821832637
 30
0.0
 10
44.5335336547
 20
62.4844349678
 30
0.0
 10
44.4801183662
 20
62.4978051442
 30
0.0
 10
44.4115671654
 20
62.5338498685
 30
0.0
 10
44.3352791804
 20
62.5991154015
 30
0.0
 10
44.2670484721
 20
62.6831783251
 30
0.0
 10
44.2121890132
 20
62.7795520093
 30
0.0
 10
44.1749268919
 20
62.8806870554
 30
0.0
 10
44.1630807025
 20
62.9501217698
 30
0.0
 10
44.1615077453
 20
62.9835300458
 30
0.0
  0
SPLINE
  5
322
100
AcDbEntity
  8
0
100
AcDbSpline
 62
7
  6
BYLAYER
 70
0
 71
3
 72
9
 73
5
 74
0
 42
0.0000001
 43
0.0000001
 44
0.0000000001
 40
0.0
 40
0.0
 40
0.0
 40
0.0
 40
0.2585949844
 40
1.0
 40
1.0
 40
1.0
 40
1.0
 10
43.1853691162
 20
59.7437450341
 30
0.0
 10
43.1797711992
 20
59.7641677326
 30
0.0
 10
43.1597891427
 20
59.8435798714
 30
0.0
 10
43.1465535801
 20
59.9247709105
 30
0.0
 10
43.141537993
 20
59.9852760761
 30
0.0
  0
SPLINE
  5
323
100
AcDbEntity
  8
0
100
AcDbSpline
 62
7
  6
BYLAYER
 70
0
 71
3
 72
11
 73
7
 74
0
 42
0.0000001
 43
0.0000001
 44
0.0000000001
 40
0.0
 40
0.0
 40
0.0
 40
0.0
 40
0.2372444228
 40
0.5000010918
 40
0.7627571666
 40
1.0
 40
1.0
 40
1.0
 40
1.0
 10
43.5276197052
 20
59.4645007928
 30
0.0
 10
43.5276197052
 20
59.4760929086
 30
0.0
 10
43.5232706191
 20
59.500539311
 30
0.0
 10
43.5081167286
 20
59.5348906139
 30
0.0
 10
43.4859444819
 20
59.5651897561
 30
0.0
 10
43.466947789
 20
59.5811791893
 30
0.0
 10
43.4569087327
 20
59.58697511
 30
0.0
  0
SPLINE
  5
324
100
AcDbEntity
  8
0
100
AcDbSpline
 62
7
  6
BYLAYER
 70
0
 71
3
 72
9
 73
5
 74
0
 42
0.0000001
 43
0.0000001
 44
0.0000000001
 40
0.0
 40
0.0
 40
0.0
 40
0.0
 40
0.2344707692
 40
1.0
 40
1.0
 40
1.0
 40
1.0
 10
43.5243627014
 20
59.4418861098
 30
0.0
 10
43.5249131261
 20
59.4435893373
 30
0.0
 10
43.5269171046
 20
59.4509642768
 30
0.0
 10
43.5276197052
 20
59.4586567146
 30
0.0
 10
43.5276197052
 20
59.4645007928
 30
0.0
  0
SPLINE
  5
325
100
AcDbEntity
  8
0
100
AcDbSpline
 62
7
  6
BYLAYER
 70
0
 71
3
 72
10
 73
6
 74
0
 42
0.0000001
 43
0.0000001
 44
0.0000000001
 40
0.0
 40
0.0
 40
0.0
 40
0.0
 40
0.2450244524
 40
0.4947040538
 40
1.0
 40
1.0
 40
1.0
 40
1.0
 10
45.2242030987
 20
63.9053085096
 30
0.0
 10
45.2002499481
 20
63.9213478026
 30
0.0
 10
45.148889244
 20
63.9493738541
 30
0.0
 10
45.0385750863
 20
63.9908809779
 30
0.0
 10
44.9503878432
 20
64.0074402136
 30
0.0
 10
44.8911735364
 20
64.0127106387
 30
0.0
  0
SPLINE
  5
326
100
AcDbEntity
  8
0
100
AcDbSpline
 62
7
  6
BYLAYER
 70
0
 71
3
 72
11
 73
7
 74
0
 42
0.0000001
 43
0.0000001
 44
0.0000000001
 40
0.0
 40
0.0
 40
0.0
 40
0.0
 40
0.2863557387
 40
0.5464158235
 40
0.7818840524
 40
1.0
 40
1.0
 40
1.0
 40
1.0
 10
41.4324229991
 20
59.9148073788
 30
0.0
 10
41.4202644087
 20
59.9218269855
 30
0.0
 10
41.3979665345
 20
59.936918629
 30
0.0
 10
41.370368961
 20
59.9638842521
 30
0.0
 10
41.3511785036
 20
59.9935449726
 30
0.0
 10
41.3444994133
 20
60.0151517767
 30
0.0
 10
41.342981698
 20
60.0257373185
 30
0.0
  0
SPLINE
  5
327
100
AcDbEntity
  8
0
100
AcDbSpline
 62
7
  6
BYLAYER
 70
0
 71
3
 72
11
 73
7
 74
0
 42
0.0000001
 43
0.0000001
 44
0.0000000001
 40
0.0
 40
0.0
 40
0.0
 40
0.0
 40
0.3040995428
 40
0.5708078898
 40
0.7984428208
 40
1.0
 40
1.0
 40
1.0
 40
1.0
 10
43.5995618881
 20
58.6594143542
 30
0.0
 10
43.5936760875
 20
58.6650795607
 30
0.0
 10
43.581677469
 20
58.6748131983
 30
0.0
 10
43.5622465014
 20
58.6844138235
 30
0.0
 10
43.5434038495
 20
58.6874386961
 30
0.0
 10
43.5318155584
 20
58.6842461705
 30
0.0
 10
43.5271240763
 20
58.6815428559
 30
0.0
  0
SPLINE
  5
328
100
AcDbEntity
  8
0
100
AcDbSpline
 62
7
  6
BYLAYER
 70
0
 71
3
 72
28
 73
24
 74
0
 42
0.0000001
 43
0.0000001
 44
0.0000000001
 40
0.0
 40
0.0
 40
0.0
 40
0.0
 40
0.0715957253
 40
0.1467210047
 40
0.224017214
 40
0.3019894829
 40
0.3791048871
 40
0.4538793851
 40
0.5249770506
 40
0.591315871
 40
0.6521928642
 40
0.680535313
 40
0.707505893
 40
0.7576633918
 40
0.7812937222
 40
0.8042553895
 40
0.8268495306
 40
0.8494045985
 40
0.8722516356
 40
0.8956979476
 40
0.9453299272
 40
0.9719988451
 40
1.0
 40
1.0
 40
1.0
 40
1.0
 10
41.4324229991
 20
59.9148073788
 30
0.0
 10
41.4533436965
 20
59.7788967577
 30
0.0
 10
41.5141610533
 20
59.5029362633
 30
0.0
 10
41.6528987831
 20
59.0948640242
 30
0.0
 10
41.8378482469
 20
58.692021961
 30
0.0
 10
42.0636297943
 20
58.3061740465
 30
0.0
 10
42.3237002091
 20
57.9484874797
 30
0.0
 10
42.6105228172
 20
57.6293350381
 30
0.0
 10
42.9158831198
 20
57.3579077829
 30
0.0
 10
43.2310483237
 20
57.1420615763
 30
0.0
 10
43.5009828775
 20
57.0105982794
 30
0.0
 10
43.7134083384
 20
56.9410745757
 30
0.0
 10
43.9113872253
 20
56.8972686312
 30
0.0
 10
44.1068313022
 20
56.8860250995
 30
0.0
 10
44.2912571755
 20
56.912621509
 30
0.0
 10
44.4192945924
 20
56.9499070666
 30
0.0
 10
44.5385904153
 20
57.0047585318
 30
0.0
 10
44.6481818976
 20
57.0766812459
 30
0.0
 10
44.7471234323
 20
57.1651341999
 30
0.0
 10
44.8660603134
 20
57.3065211021
 30
0.0
 10
44.9581710213
 20
57.4771544786
 30
0.0
 10
45.0232526303
 20
57.6668089884
 30
0.0
 10
45.0472432048
 20
57.7692613183
 30
0.0
 10
45.0571392295
 20
57.8221238303
 30
0.0
  0
SPLINE
  5
329
100
AcDbEntity
  8
0
100
AcDbSpline
 62
7
  6
BYLAYER
 70
0
 71
3
 72
13
 73
9
 74
0
 42
0.0000001
 43
0.0000001
 44
0.0000000001
 40
0.0
 40
0.0
 40
0.0
 40
0.0
 40
0.1204602553
 40
0.2521978946
 40
0.5287961972
 40
0.6638216238
 40
0.789664979
 40
1.0
 40
1.0
 40
1.0
 40
1.0
 10
42.983150516
 20
58.937864442
 30
0.0
 10
42.983150516
 20
58.9448684806
 30
0.0
 10
42.9815239326
 20
58.9595498821
 30
0.0
 10
42.9731095951
 20
58.9892131947
 30
0.0
 10
42.9578485379
 20
59.0174438759
 30
0.0
 10
42.9375412981
 20
59.0413707242
 30
0.0
 10
42.9168106274
 20
59.0592166911
 30
0.0
 10
42.898311964
 20
59.0682635009
 30
0.0
 10
42.886162513
 20
59.0696623473
 30
0.0
  0
SPLINE
  5
32A
100
AcDbEntity
  8
0
100
AcDbSpline
 62
7
  6
BYLAYER
 70
0
 71
3
 72
11
 73
7
 74
0
 42
0.0000001
 43
0.0000001
 44
0.0000000001
 40
0.0
 40
0.0
 40
0.0
 40
0.0
 40
0.1490918772
 40
0.3431673496
 40
0.6131324847
 40
1.0
 40
1.0
 40
1.0
 40
1.0
 10
45.0412111475
 20
64.0275814853
 30
0.0
 10
45.0346759996
 20
64.0319516644
 30
0.0
 10
45.0181175912
 20
64.0398942933
 30
0.0
 10
44.9856416889
 20
64.0446679434
 30
0.0
 10
44.9407220327
 20
64.0375114081
 30
0.0
 10
44.9088401956
 20
64.0229160998
 30
0.0
 10
44.89117362
 20
64.0127159176
 30
0.0
  0
SPLINE
  5
32B
100
AcDbEntity
  8
0
100
AcDbSpline
 62
7
  6
BYLAYER
 70
0
 71
3
 72
9
 73
5
 74
0
 42
0.0000001
 43
0.0000001
 44
0.0000000001
 40
0.0
 40
0.0
 40
0.0
 40
0.0
 40
0.2414020596
 40
1.0
 40
1.0
 40
1.0
 40
1.0
 10
43.7992770019
 20
58.8382747864
 30
0.0
 10
43.7837246134
 20
58.8492437423
 30
0.0
 10
43.7204247322
 20
58.8962695954
 30
0.0
 10
43.6615903972
 20
58.9492056
 30
0.0
 10
43.6195442928
 20
58.9917359864
 30
0.0
  0
SPLINE
  5
32C
100
AcDbEntity
  8
0
100
AcDbSpline
 62
7
  6
BYLAYER
 70
0
 71
3
 72
9
 73
5
 74
0
 42
0.0000001
 43
0.0000001
 44
0.0000000001
 40
0.0
 40
0.0
 40
0.0
 40
0.0
 40
0.242815361
 40
1.0
 40
1.0
 40
1.0
 40
1.0
 10
44.8911773807
 20
64.0127137868
 30
0.0
 10
44.8394555982
 20
64.0463185389
 30
0.0
 10
44.6288086786
 20
64.1883336138
 30
0.0
 10
44.4275054723
 20
64.3440675735
 30
0.0
 10
44.2804561045
 20
64.4680483104
 30
0.0
  0
SPLINE
  5
32D
100
AcDbEntity
  8
0
100
AcDbSpline
 62
7
  6
BYLAYER
 70
0
 71
3
 72
12
 73
8
 74
0
 42
0.0000001
 43
0.0000001
 44
0.0000000001
 40
0.0
 40
0.0
 40
0.0
 40
0.0
 40
0.1129510018
 40
0.2277553587
 40
0.4663478827
 40
0.7225024546
 40
1.0
 40
1.0
 40
1.0
 40
1.0
 10
44.9643784433
 20
56.9132867887
 30
0.0
 10
44.9968998079
 20
56.9360145807
 30
0.0
 10
45.0597427914
 20
56.9859036905
 30
0.0
 10
45.1752746923
 20
57.1024811159
 30
0.0
 10
45.2985570279
 20
57.27982335
 30
0.0
 10
45.4060970217
 20
57.5304468574
 30
0.0
 10
45.4497596785
 20
57.7136902918
 30
0.0
 10
45.4656720726
 20
57.8098587563
 30
0.0
  0
SPLINE
  5
32E
100
AcDbEntity
  8
0
100
AcDbSpline
 62
7
  6
BYLAYER
 70
0
 71
3
 72
22
 73
18
 74
0
 42
0.0000001
 43
0.0000001
 44
0.0000000001
 40
0.0
 40
0.0
 40
0.0
 40
0.0
 40
0.0448874799
 40
0.090206085
 40
0.1369278554
 40
0.1858816281
 40
0.2114170918
 40
0.2377274596
 40
0.2928119359
 40
0.3513732146
 40
0.4134379656
 40
0.4788790949
 40
0.5474475996
 40
0.6187916043
 40
0.692478026
 40
0.8447762999
 40
1.0
 40
1.0
 40
1.0
 40
1.0
 10
42.3931553397
 20
62.2148756731
 30
0.0
 10
42.4426838045
 20
62.2510259876
 30
0.0
 10
42.5491984172
 20
62.3146442529
 30
0.0
 10
42.725750452
 20
62.3794084533
 30
0.0
 10
42.916408983
 20
62.4127548148
 30
0.0
 10
43.0826958925
 20
62.4141833196
 30
0.0
 10
43.2197839688
 20
62.4003379866
 30
0.0
 10
43.3638516585
 20
62.3755855709
 30
0.0
 10
43.548642411
 20
62.3245018875
 30
0.0
 10
43.7715111296
 20
62.2341731028
 30
0.0
 10
43.9964496815
 20
62.1149629046
 30
0.0
 10
44.2209590533
 20
61.9682785918
 30
0.0
 10
44.4425394212
 20
61.7957732457
 30
0.0
 10
44.6587123089
 20
61.5993981824
 30
0.0
 10
44.939504922
 20
61.3055354366
 30
0.0
 10
45.2605184829
 20
60.8935900992
 30
0.0
 10
45.4765544526
 20
60.5319032984
 30
0.0
 10
45.5738701816
 20
60.3435115977
 30
0.0
  0
SPLINE
  5
32F
100
AcDbEntity
  8
0
100
AcDbSpline
 62
7
  6
BYLAYER
 70
0
 71
3
 72
12
 73
8
 74
0
 42
0.0000001
 43
0.0000001
 44
0.0000000001
 40
0.0
 40
0.0
 40
0.0
 40
0.0
 40
0.1131327821
 40
0.2348760274
 40
0.4943210726
 40
0.7572474989
 40
1.0
 40
1.0
 40
1.0
 40
1.0
 10
45.0571392295
 20
57.8221238303
 30
0.0
 10
45.0709240511
 20
57.8141653399
 30
0.0
 10
45.1009076956
 20
57.7999461699
 30
0.0
 10
45.1672386376
 20
57.7785678649
 30
0.0
 10
45.2578789396
 20
57.7663667497
 30
0.0
 10
45.3659055861
 20
57.7740631368
 30
0.0
 10
45.434919389
 20
57.7950001736
 30
0.0
 10
45.4656720726
 20
57.8098587563
 30
0.0
  0
SPLINE
  5
330
100
AcDbEntity
  8
0
100
AcDbSpline
 62
7
  6
BYLAYER
 70
0
 71
3
 72
11
 73
7
 74
0
 42
0.0000001
 43
0.0000001
 44
0.0000000001
 40
0.0
 40
0.0
 40
0.0
 40
0.0
 40
0.2176722312
 40
0.4509485789
 40
0.7108375664
 40
1.0
 40
1.0
 40
1.0
 40
1.0
 10
42.9624381524
 20
59.8718907703
 30
0.0
 10
42.9657365825
 20
59.8737913839
 30
0.0
 10
42.9719074667
 20
59.8789814479
 30
0.0
 10
42.978487381
 20
59.8897305532
 30
0.0
 10
42.9823660942
 20
59.9029781277
 30
0.0
 10
42.983150516
 20
59.9126102302
 30
0.0
 10
42.983150516
 20
59.9176673426
 30
0.0
  0
SPLINE
  5
331
100
AcDbEntity
  8
0
100
AcDbSpline
 62
7
  6
BYLAYER
 70
0
 71
3
 72
11
 73
7
 74
0
 42
0.0000001
 43
0.0000001
 44
0.0000000001
 40
0.0
 40
0.0
 40
0.0
 40
0.0
 40
0.228169899
 40
0.4729314972
 40
0.7314107104
 40
1.0
 40
1.0
 40
1.0
 40
1.0
 10
44.4583791387
 20
63.7626614141
 30
0.0
 10
44.3003382799
 20
63.8537295146
 30
0.0
 10
43.9851880455
 20
64.0645450699
 30
0.0
 10
43.5377126956
 20
64.4424438268
 30
0.0
 10
43.1076362636
 20
64.8861523348
 30
0.0
 10
42.8430748165
 20
65.214926306
 30
0.0
 10
42.715775098
 20
65.3878324852
 30
0.0
  0
SPLINE
  5
332
100
AcDbEntity
  8
0
100
AcDbSpline
 62
7
  6
BYLAYER
 70
0
 71
3
 72
9
 73
5
 74
0
 42
0.0000001
 43
0.0000001
 44
0.0000000001
 40
0.0
 40
0.0
 40
0.0
 40
0.0
 40
0.2574878836
 40
1.0
 40
1.0
 40
1.0
 40
1.0
 10
44.5147810467
 20
63.7182124658
 30
0.0
 10
44.5102247046
 20
63.7223666046
 30
0.0
 10
44.4922522984
 20
63.7381907333
 30
0.0
 10
44.4731670477
 20
63.7527721023
 30
0.0
 10
44.4583827941
 20
63.7626493979
 30
0.0
  0
SPLINE
  5
333
100
AcDbEntity
  8
0
100
AcDbSpline
 62
7
  6
BYLAYER
 70
0
 71
3
 72
25
 73
21
 74
0
 42
0.0000001
 43
0.0000001
 44
0.0000000001
 40
0.0
 40
0.0
 40
0.0
 40
0.0
 40
0.0674842297
 40
0.1380117564
 40
0.2107518521
 40
0.2848123722
 40
0.3592282704
 40
0.4330278467
 40
0.5052615008
 40
0.5750444473
 40
0.6415990023
 40
0.7043023721
 40
0.7627423339
 40
0.816783677
 40
0.8666448372
 40
0.9129721824
 40
0.9351757885
 40
0.9569481228
 40
0.9784864409
 40
1.0
 40
1.0
 40
1.0
 40
1.0
 10
45.4656720726
 20
58.6263611734
 30
0.0
 10
45.4487002026
 20
58.7485296916
 30
0.0
 10
45.4006973104
 20
58.9966620777
 30
0.0
 10
45.2924763004
 20
59.3668418226
 30
0.0
 10
45.1482489422
 20
59.7374619625
 30
0.0
 10
44.970863793
 20
60.101286798
 30
0.0
 10
44.7637277096
 20
60.4512838902
 30
0.0
 10
44.5308753074
 20
60.7806563092
 30
0.0
 10
44.2768126019
 20
61.0830180398
 30
0.0
 10
44.0064494583
 20
61.3525168967
 30
0.0
 10
43.7249786399
 20
61.5839530701
 30
0.0
 10
43.4377440605
 20
61.7728650286
 30
0.0
 10
43.1501215722
 20
61.9155870535
 30
0.0
 10
42.8673406295
 20
62.0092148008
 30
0.0
 10
42.5946174648
 20
62.0515856494
 30
0.0
 10
42.3766461106
 20
62.0425751623
 30
0.0
 10
42.2149458158
 20
62.007924528
 30
0.0
 10
42.1012981039
 20
61.9692968509
 30
0.0
 10
41.9942716907
 20
61.9178317761
 30
0.0
 10
41.9278466189
 20
61.8752244357
 30
0.0
 10
41.8960861264
 20
61.8520429634
 30
0.0
  0
SPLINE
  5
334
100
AcDbEntity
  8
0
100
AcDbSpline
 62
7
  6
BYLAYER
 70
0
 71
3
 72
11
 73
7
 74
0
 42
0.0000001
 43
0.0000001
 44
0.0000000001
 40
0.0
 40
0.0
 40
0.0
 40
0.0
 40
0.2338090093
 40
0.4886205221
 40
0.7494153002
 40
1.0
 40
1.0
 40
1.0
 40
1.0
 10
44.1615077453
 20
62.9835300458
 30
0.0
 10
44.1597826479
 20
63.0201696519
 30
0.0
 10
44.1460958527
 20
63.0963594718
 30
0.0
 10
44.1031331934
 20
63.2064268025
 30
0.0
 10
44.0403793287
 20
63.3096226116
 30
0.0
 10
43.9868308041
 20
63.3701510134
 30
0.0
 10
43.9577804354
 20
63.3966370103
 30
0.0
  0
SPLINE
  5
335
100
AcDbEntity
  8
0
100
AcDbSpline
 62
7
  6
BYLAYER
 70
0
 71
3
 72
11
 73
7
 74
0
 42
0.0000001
 43
0.0000001
 44
0.0000000001
 40
0.0
 40
0.0
 40
0.0
 40
0.0
 40
0.2375788236
 40
0.4882617663
 40
0.744965955
 40
1.0
 40
1.0
 40
1.0
 40
1.0
 10
45.0571392295
 20
58.6386262474
 30
0.0
 10
45.0311271641
 20
58.8076127734
 30
0.0
 10
44.9499328365
 20
59.1509727332
 30
0.0
 10
44.7577582263
 20
59.6529263194
 30
0.0
 10
44.4993475427
 20
60.1384399291
 30
0.0
 10
44.2875025877
 20
60.4410613031
 30
0.0
 10
44.1727686113
 20
60.5843183173
 30
0.0
  0
SPLINE
  5
336
100
AcDbEntity
  8
0
100
AcDbSpline
 62
7
  6
BYLAYER
 70
0
 71
3
 72
22
 73
18
 74
0
 42
0.0000001
 43
0.0000001
 44
0.0000000001
 40
0.0
 40
0.0
 40
0.0
 40
0.0
 40
0.1641758105
 40
0.2419843534
 40
0.3161371826
 40
0.3862283793
 40
0.4520281017
 40
0.5135236617
 40
0.5709712773
 40
0.6249380329
 40
0.6763180337
 40
0.7262991226
 40
0.77625226
 40
0.8275488224
 40
0.8813836179
 40
0.9386911547
 40
1.0
 40
1.0
 40
1.0
 40
1.0
 10
44.1727686113
 20
60.5843183173
 30
0.0
 10
44.0495262651
 20
60.7381988949
 30
0.0
 10
43.8516537422
 20
60.9530399868
 30
0.0
 10
43.5620912378
 20
61.1990801987
 30
0.0
 10
43.3441760033
 20
61.3534428081
 30
0.0
 10
43.124744283
 20
61.4787165528
 30
0.0
 10
42.9067431722
 20
61.5731465005
 30
0.0
 10
42.6930875937
 20
61.6353090957
 30
0.0
 10
42.4866303047
 20
61.6641524185
 30
0.0
 10
42.2902015031
 20
61.6589544878
 30
0.0
 10
42.1067204447
 20
61.6193418116
 30
0.0
 10
41.9392491995
 20
61.5455630101
 30
0.0
 10
41.7907727222
 20
61.4387500967
 30
0.0
 10
41.6637890993
 20
61.3009043854
 30
0.0
 10
41.5600534642
 20
61.1345050131
 30
0.0
 10
41.4808018834
 20
60.9423117466
 30
0.0
 10
41.4459699923
 20
60.8036750244
 30
0.0
 10
41.4324229991
 20
60.731309796
 30
0.0
  0
SPLINE
  5
337
100
AcDbEntity
  8
0
100
AcDbSpline
 62
7
  6
BYLAYER
 70
0
 71
3
 72
9
 73
5
 74
0
 42
0.0000001
 43
0.0000001
 44
0.0000000001
 40
0.0
 40
0.0
 40
0.0
 40
0.0
 40
0.2553298388
 40
1.0
 40
1.0
 40
1.0
 40
1.0
 10
71.997828545
 20
86.8997783984
 30
0.0
 10
71.9992109591
 20
86.9136341021
 30
0.0
 10
72.003991225
 20
86.9679602643
 30
0.0
 10
72.0061890662
 20
87.0225224307
 30
0.0
 10
72.0061890662
 20
87.0631332612
 30
0.0
  0
SPLINE
  5
338
100
AcDbEntity
  8
0
100
AcDbSpline
 62
7
  6
BYLAYER
 70
0
 71
3
 72
25
 73
21
 74
0
 42
0.0000001
 43
0.0000001
 44
0.0000000001
 40
0.0
 40
0.0
 40
0.0
 40
0.0
 40
0.0213324163
 40
0.0428931309
 40
0.0648988528
 40
0.0875438458
 40
0.1353194646
 40
0.1872201097
 40
0.2436571978
 40
0.3046048826
 40
0.3696927654
 40
0.4382901773
 40
0.5095766013
 40
0.582600736
 40
0.6563321401
 40
0.7297090599
 40
0.8016853379
 40
0.8712779129
 40
0.9376169255
 40
1.0
 40
1.0
 40
1.0
 40
1.0
 10
32.4665900811
 20
64.2049418924
 30
0.0
 10
32.3928758962
 20
64.2475045127
 30
0.0
 10
32.2499747917
 20
64.3426878488
 30
0.0
 10
32.0538492006
 20
64.5127598954
 30
0.0
 10
31.8764968426
 20
64.7094579977
 30
0.0
 10
31.66264578
 20
65.0107992753
 30
0.0
 10
31.4485732805
 20
65.4536047383
 30
0.0
 10
31.285393346
 20
66.0577352415
 30
0.0
 10
31.2126727619
 20
66.7316575913
 30
0.0
 10
31.2312521758
 20
67.4613452254
 30
0.0
 10
31.3403053249
 20
68.2317976324
 30
0.0
 10
31.5374046058
 20
69.026896513
 30
0.0
 10
31.8183226221
 20
69.8298687832
 30
0.0
 10
32.177076336
 20
70.6236639712
 30
0.0
 10
32.6060177361
 20
71.3913697223
 30
0.0
 10
33.0959989601
 20
72.1166118808
 30
0.0
 10
33.6365649502
 20
72.7839181331
 30
0.0
 10
34.2162714773
 20
73.3791207206
 30
0.0
 10
34.8227210982
 20
73.8894876048
 30
0.0
 10
35.2509660658
 20
74.1756739477
 30
0.0
 10
35.4665358661
 20
74.300132487
 30
0.0
  0
SPLINE
  5
339
100
AcDbEntity
  8
0
100
AcDbSpline
 62
7
  6
BYLAYER
 70
0
 71
3
 72
28
 73
24
 74
0
 42
0.0000001
 43
0.0000001
 44
0.0000000001
 40
0.0
 40
0.0
 40
0.0
 40
0.0
 40
0.061686795
 40
0.1253582004
 40
0.1908307186
 40
0.2576923628
 40
0.325337595
 40
0.3930670991
 40
0.4601694945
 40
0.5260124409
 40
0.5901260125
 40
0.6522770484
 40
0.6826365209
 40
0.7125492871
 40
0.742063872
 40
0.7712461014
 40
0.8288338342
 40
0.8574308793
 40
0.8859621126
 40
0.9144691843
 40
0.9429743849
 40
0.9714616013
 40
1.0
 40
1.0
 40
1.0
 40
1.0
 10
26.5508466698
 20
79.7857079475
 30
0.0
 10
26.2986335891
 20
79.6400935267
 30
0.0
 10
25.8049262414
 20
79.3106175492
 30
0.0
 10
25.1158033204
 20
78.7277736333
 30
0.0
 10
24.4733241374
 20
78.0596637888
 30
0.0
 10
23.8860080548
 20
77.3187241796
 30
0.0
 10
23.3629030875
 20
76.5184460307
 30
0.0
 10
22.9130434264
 20
75.673539196
 30
0.0
 10
22.5448305078
 20
74.7991613143
 30
0.0
 10
22.2657027236
 20
73.9101291038
 30
0.0
 10
22.0822369747
 20
73.02027854
 30
0.0
 10
22.0136912292
 20
72.2821257732
 30
0.0
 10
22.0144723396
 20
71.7037996392
 30
0.0
 10
22.0430938494
 20
71.280543974
 30
0.0
 10
22.100846845
 20
70.8657992428
 30
0.0
 10
22.2173818887
 20
70.328955317
 30
0.0
 10
22.3973268338
 20
69.8114596453
 30
0.0
 10
22.6439267
 20
69.3285258633
 30
0.0
 10
22.8619509046
 20
68.9872434625
 30
0.0
 10
23.1130677783
 20
68.6700436714
 30
0.0
 10
23.395918067
 20
68.3809819576
 30
0.0
 10
23.7082870895
 20
68.1238941074
 30
0.0
 10
23.9342187862
 20
67.9762956747
 30
0.0
 10
24.0509015775
 20
67.9089303577
 30
0.0
  0
SPLINE
  5
33A
100
AcDbEntity
  8
0
100
AcDbSpline
 62
7
  6
BYLAYER
 70
0
 71
3
 72
15
 73
11
 74
0
 42
0.0000001
 43
0.0000001
 44
0.0000000001
 40
0.0
 40
0.0
 40
0.0
 40
0.0
 40
0.1485637172
 40
0.2895074889
 40
0.4227262743
 40
0.5486370947
 40
0.6679993774
 40
0.7819361275
 40
0.8919847862
 40
1.0
 40
1.0
 40
1.0
 40
1.0
 10
21.3243413632
 20
81.4239069956
 30
0.0
 10
21.4308903029
 20
81.4854226874
 30
0.0
 10
21.6436335258
 20
81.5967759294
 30
0.0
 10
21.9681231902
 20
81.7296159154
 30
0.0
 10
22.2868580479
 20
81.8225339407
 30
0.0
 10
22.59677992
 20
81.8745040278
 30
0.0
 10
22.8950239677
 20
81.8849068258
 30
0.0
 10
23.178722525
 20
81.8532463016
 30
0.0
 10
23.44485601
 20
81.7796724228
 30
0.0
 10
23.6093259376
 20
81.7026388986
 30
0.0
 10
23.6867970146
 20
81.6579187531
 30
0.0
  0
SPLINE
  5
33B
100
AcDbEntity
  8
0
100
AcDbSpline
 62
7
  6
BYLAYER
 70
0
 71
3
 72
13
 73
9
 74
0
 42
0.0000001
 43
0.0000001
 44
0.0000000001
 40
0.0
 40
0.0
 40
0.0
 40
0.0
 40
0.1174733472
 40
0.2357393568
 40
0.35556122
 40
0.4776563898
 40
0.7309343709
 40
1.0
 40
1.0
 40
1.0
 40
1.0
 10
31.966599045
 20
63.338912435
 30
0.0
 10
32.0346431756
 20
63.299623829
 30
0.0
 10
32.1752894111
 20
63.2276494641
 30
0.0
 10
32.3971567792
 20
63.140994165
 30
0.0
 10
32.6294580128
 20
63.0757083465
 30
0.0
 10
32.9558345688
 20
63.0168133269
 30
0.0
 10
33.3888636473
 20
62.9995650952
 30
0.0
 10
33.7370599037
 20
63.0430469567
 30
0.0
 10
33.9136722734
 20
63.0776225822
 30
0.0
  0
SPLINE
  5
33C
100
AcDbEntity
  8
0
100
AcDbSpline
 62
7
  6
BYLAYER
 70
0
 71
3
 72
16
 73
12
 74
0
 42
0.0000001
 43
0.0000001
 44
0.0000000001
 40
0.0
 40
0.0
 40
0.0
 40
0.0
 40
0.1232984866
 40
0.2464821131
 40
0.3081494644
 40
0.3698173792
 40
0.4932954704
 40
0.617464789
 40
0.7428838624
 40
0.8702363688
 40
1.0
 40
1.0
 40
1.0
 40
1.0
 10
31.0507828083
 20
80.0333545813
 30
0.0
 10
30.8840417602
 20
80.1296203926
 30
0.0
 10
30.534929692
 20
80.2960350314
 30
0.0
 10
30.0717017241
 20
80.4332902406
 30
0.0
 10
29.6923697428
 20
80.5005888888
 30
0.0
 10
29.3086541723
 20
80.5397855794
 30
0.0
 10
28.8239704055
 20
80.5372523151
 30
0.0
 10
28.2454573254
 20
80.4567722964
 30
0.0
 10
27.6753514644
 20
80.3050114297
 30
0.0
 10
27.1177460669
 20
80.0878107046
 30
0.0
 10
26.759581596
 20
79.9047804524
 30
0.0
 10
26.5835304827
 20
79.8044554809
 30
0.0
  0
SPLINE
  5
33D
100
AcDbEntity
  8
0
100
AcDbSpline
 62
7
  6
BYLAYER
 70
0
 71
3
 72
14
 73
10
 74
0
 42
0.0000001
 43
0.0000001
 44
0.0000000001
 40
0.0
 40
0.0
 40
0.0
 40
0.0
 40
0.145727748
 40
0.2851376841
 40
0.5444863316
 40
0.665323743
 40
0.7809100299
 40
0.8921039691
 40
1.0
 40
1.0
 40
1.0
 40
1.0
 10
35.4665358661
 20
74.300132487
 30
0.0
 10
35.5821132616
 20
74.3668607291
 30
0.0
 10
35.8130379828
 20
74.4894959504
 30
0.0
 10
36.2706383369
 20
74.6882287573
 30
0.0
 10
36.7308174076
 20
74.8223816908
 30
0.0
 10
37.1821790375
 20
74.8784750639
 30
0.0
 10
37.5013107724
 20
74.8812176949
 30
0.0
 10
37.8065333786
 20
74.8454844356
 30
0.0
 10
38.0016126181
 20
74.7954184947
 30
0.0
 10
38.0953281689
 20
74.7640977543
 30
0.0
  0
SPLINE
  5
33E
100
AcDbEntity
  8
0
100
AcDbSpline
 62
7
  6
BYLAYER
 70
0
 71
3
 72
25
 73
21
 74
0
 42
0.0000001
 43
0.0000001
 44
0.0000000001
 40
0.0
 40
0.0
 40
0.0
 40
0.0
 40
0.0213324401
 40
0.0428933501
 40
0.0648988245
 40
0.087544131
 40
0.135319693
 40
0.1872208189
 40
0.2436584794
 40
0.3046062445
 40
0.3696938431
 40
0.43829095
 40
0.5095772201
 40
0.5826012239
 40
0.6563330199
 40
0.7297090887
 40
0.8016850998
 40
0.8712756086
 40
0.937618784
 40
1.0
 40
1.0
 40
1.0
 40
1.0
 10
18.9618857118
 20
73.4739473962
 30
0.0
 10
18.903831971
 20
73.5074588928
 30
0.0
 10
18.7912979444
 20
73.5824199659
 30
0.0
 10
18.6368576319
 20
73.7163592726
 30
0.0
 10
18.4971777606
 20
73.8712469848
 30
0.0
 10
18.3287910152
 20
74.1085687565
 30
0.0
 10
18.1601974125
 20
74.4572717705
 30
0.0
 10
18.0316952459
 20
74.9330298
 30
0.0
 10
17.9744253639
 20
75.4637458816
 30
0.0
 10
17.9890569263
 20
76.0383759337
 30
0.0
 10
18.0749369653
 20
76.6451049794
 30
0.0
 10
18.23015426
 20
77.2712421246
 30
0.0
 10
18.4513791172
 20
77.9035795459
 30
0.0
 10
18.733898502
 20
78.5286928002
 30
0.0
 10
19.0716924358
 20
79.1332566819
 30
0.0
 10
19.457546772
 20
79.7043857701
 30
0.0
 10
19.8832424014
 20
80.2298755199
 30
0.0
 10
20.3397535908
 20
80.6986126043
 30
0.0
 10
20.8173408169
 20
81.1005176406
 30
0.0
 10
21.1545853283
 20
81.3258988882
 30
0.0
 10
21.3243413632
 20
81.4239069956
 30
0.0
  0
SPLINE
  5
33F
100
AcDbEntity
  8
0
100
AcDbSpline
 62
7
  6
BYLAYER
 70
0
 71
3
 72
15
 73
11
 74
0
 42
0.0000001
 43
0.0000001
 44
0.0000000001
 40
0.0
 40
0.0
 40
0.0
 40
0.0
 40
0.1080129692
 40
0.2180615248
 40
0.3319988917
 40
0.4513593019
 40
0.5772761766
 40
0.7104915579
 40
0.8514209619
 40
1.0
 40
1.0
 40
1.0
 40
1.0
 10
38.9664726872
 20
75.4633235335
 30
0.0
 10
38.8517104563
 20
75.5295871192
 30
0.0
 10
38.6080361684
 20
75.6436731824
 30
0.0
 10
38.2137801992
 20
75.7527145193
 30
0.0
 10
37.793481523
 20
75.799583648
 30
0.0
 10
37.3516333466
 20
75.7842001243
 30
0.0
 10
36.8924891309
 20
75.7071912569
 30
0.0
 10
36.4203054143
 20
75.5695365702
 30
0.0
 10
35.9395726413
 20
75.3727601185
 30
0.0
 10
35.6244025234
 20
75.2077787172
 30
0.0
 10
35.4665358661
 20
75.1166349042
 30
0.0
  0
SPLINE
  5
340
100
AcDbEntity
  8
0
100
AcDbSpline
 62
7
  6
BYLAYER
 70
0
 71
3
 72
19
 73
15
 74
0
 42
0.0000001
 43
0.0000001
 44
0.0000000001
 40
0.0
 40
0.0
 40
0.0
 40
0.0
 40
0.0565202709
 40
0.1156962893
 40
0.1772021095
 40
0.2407160595
 40
0.3720963307
 40
0.5063681519
 40
0.6397412324
 40
0.7685019411
 40
0.8301358522
 40
0.8894383811
 40
0.9461271793
 40
1.0
 40
1.0
 40
1.0
 40
1.0
 10
25.4352486468
 20
79.0230444349
 30
0.0
 10
25.3172862091
 20
78.9539722476
 30
0.0
 10
25.0821592853
 20
78.8015374445
 30
0.0
 10
24.7420722874
 20
78.5401003499
 30
0.0
 10
24.4096079012
 20
78.2429820012
 30
0.0
 10
23.9764800852
 20
77.7986418367
 30
0.0
 10
23.4778230649
 20
77.1751445269
 30
0.0
 10
22.9683673866
 20
76.3529243432
 30
0.0
 10
22.562044942
 20
75.4821054614
 30
0.0
 10
22.3197959515
 20
74.7349069721
 30
0.0
 10
22.193919872
 20
74.143812155
 30
0.0
 10
22.1355249765
 20
73.7177596078
 30
0.0
 10
22.1123832251
 20
73.3071439201
 30
0.0
 10
22.1208606029
 20
73.039416051
 30
0.0
 10
22.1315374906
 20
72.9095601113
 30
0.0
  0
SPLINE
  5
341
100
AcDbEntity
  8
0
100
AcDbSpline
 62
7
  6
BYLAYER
 70
0
 71
3
 72
15
 73
11
 74
0
 42
0.0000001
 43
0.0000001
 44
0.0000000001
 40
0.0
 40
0.0
 40
0.0
 40
0.0
 40
0.1483732188
 40
0.2891403417
 40
0.4222531888
 40
0.5481372389
 40
0.6675387165
 40
0.7815854482
 40
0.8917959449
 40
1.0
 40
1.0
 40
1.0
 40
1.0
 10
27.5829223023
 20
79.705060695
 30
0.0
 10
27.7394935363
 20
79.794284809
 30
0.0
 10
28.0520055845
 20
79.9556666102
 30
0.0
 10
28.5284202572
 20
80.1476943034
 30
0.0
 10
28.9962007727
 20
80.2814832711
 30
0.0
 10
29.4509675551
 20
80.3555710752
 30
0.0
 10
29.8885697437
 20
80.3690246831
 30
0.0
 10
30.304857886
 20
80.3212514822
 30
0.0
 10
30.6954518219
 20
80.212351527
 30
0.0
 10
30.9369689173
 20
80.0990658249
 30
0.0
 10
31.0507807687
 20
80.0333510486
 30
0.0
  0
SPLINE
  5
342
100
AcDbEntity
  8
0
100
AcDbSpline
 62
7
  6
BYLAYER
 70
0
 71
3
 72
26
 73
22
 74
0
 42
0.0000001
 43
0.0000001
 44
0.0000000001
 40
0.0
 40
0.0
 40
0.0
 40
0.0
 40
0.0623800435
 40
0.1287156227
 40
0.1983045617
 40
0.2702773162
 40
0.3436510498
 40
0.417379357
 40
0.4904003293
 40
0.5616834902
 40
0.6302775807
 40
0.6953623104
 40
0.756307348
 40
0.8127423485
 40
0.8392665635
 40
0.8646886315
 40
0.9124615072
 40
0.9351051176
 40
0.9571095091
 40
0.9786689124
 40
1.0
 40
1.0
 40
1.0
 40
1.0
 10
35.4665358661
 20
75.1166349042
 30
0.0
 10
35.2150379601
 20
74.9714333872
 30
0.0
 10
34.7154199795
 20
74.6375502002
 30
0.0
 10
34.0078975376
 20
74.042124156
 30
0.0
 10
33.3315747335
 20
73.3477239612
 30
0.0
 10
32.7009140468
 20
72.5692006821
 30
0.0
 10
32.1292670229
 20
71.7230826327
 30
0.0
 10
31.6288328366
 20
70.8274213855
 30
0.0
 10
31.2102854006
 20
69.9013236711
 30
0.0
 10
30.8825475151
 20
68.9645182733
 30
0.0
 10
30.6525992158
 20
68.0369105954
 30
0.0
 10
30.5253700381
 20
67.138020507
 30
0.0
 10
30.5036984725
 20
66.2868089814
 30
0.0
 10
30.5758142204
 20
65.6181487827
 30
0.0
 10
30.6897745849
 20
65.1260205255
 30
0.0
 10
30.832880054
 20
64.6840233601
 30
0.0
 10
31.0286881296
 20
64.279038081
 30
0.0
 10
31.278161679
 20
63.9275094764
 30
0.0
 10
31.4850749033
 20
63.6980267154
 30
0.0
 10
31.7138843665
 20
63.4996138833
 30
0.0
 10
31.880600341
 20
63.3885679918
 30
0.0
 10
31.966599045
 20
63.338912435
 30
0.0
  0
SPLINE
  5
343
100
AcDbEntity
  8
0
100
AcDbSpline
 62
7
  6
BYLAYER
 70
0
 71
3
 72
14
 73
10
 74
0
 42
0.0000001
 43
0.0000001
 44
0.0000000001
 40
0.0
 40
0.0
 40
0.0
 40
0.0
 40
0.2858509596
 40
0.4181646541
 40
0.5438426006
 40
0.6636322946
 40
0.7786192322
 40
0.8901964859
 40
1.0
 40
1.0
 40
1.0
 40
1.0
 10
35.2149929433
 20
64.3655068384
 30
0.0
 10
34.9714176858
 20
64.241594617
 30
0.0
 10
34.5991574288
 20
64.0875567691
 30
0.0
 10
34.09283143
 20
63.96579851
 30
0.0
 10
33.7334916371
 20
63.9215054973
 30
0.0
 10
33.387905431
 20
63.9225270894
 30
0.0
 10
33.0589068501
 20
63.9690764203
 30
0.0
 10
32.7495161482
 20
64.061010846
 30
0.0
 10
32.5574995322
 20
64.1524507139
 30
0.0
 10
32.4665900811
 20
64.2049418924
 30
0.0
  0
SPLINE
  5
344
100
AcDbEntity
  8
0
100
AcDbSpline
 62
7
  6
BYLAYER
 70
0
 71
3
 72
25
 73
21
 74
0
 42
0.0000001
 43
0.0000001
 44
0.0000000001
 40
0.0
 40
0.0
 40
0.0
 40
0.0
 40
0.0214527491
 40
0.0430756605
 40
0.0650327524
 40
0.0874746885
 40
0.1342816961
 40
0.1843816335
 40
0.2382621147
 40
0.2960993709
 40
0.357808009
 40
0.4230922153
 40
0.4914910548
 40
0.5624170956
 40
0.6351900145
 40
0.7090661045
 40
0.7832654651
 40
0.8569975123
 40
0.9294868948
 40
1.0
 40
1.0
 40
1.0
 40
1.0
 10
24.0509036172
 20
67.9089338905
 30
0.0
 10
23.976999461
 20
67.9516060291
 30
0.0
 10
23.8331955238
 20
68.0455320941
 30
0.0
 10
23.6329179351
 20
68.210035172
 30
0.0
 10
23.448523446
 20
68.3977516346
 30
0.0
 10
23.2217049053
 20
68.6816232963
 30
0.0
 10
22.9820274299
 20
69.0949171092
 30
0.0
 10
22.7736122045
 20
69.6599810622
 30
0.0
 10
22.6421607539
 20
70.2922303916
 30
0.0
 10
22.5891333764
 20
70.981712625
 30
0.0
 10
22.6149188688
 20
71.7178637382
 30
0.0
 10
22.7189354879
 20
72.4892884571
 30
0.0
 10
22.8994669521
 20
73.2839663603
 30
0.0
 10
23.1536370958
 20
74.0894302587
 30
0.0
 10
23.4774224968
 20
74.892987775
 30
0.0
 10
23.8657021796
 20
75.6819432189
 30
0.0
 10
24.312327551
 20
76.4438069088
 30
0.0
 10
24.810245029
 20
77.1665322304
 30
0.0
 10
25.351516531
 20
77.8386296883
 30
0.0
 10
25.7423415248
 20
78.2529992522
 30
0.0
 10
25.9432894388
 20
78.4487047841
 30
0.0
  0
SPLINE
  5
345
100
AcDbEntity
  8
0
100
AcDbSpline
 62
7
  6
BYLAYER
 70
0
 71
3
 72
9
 73
5
 74
0
 42
0.0000001
 43
0.0000001
 44
0.0000000001
 40
0.0
 40
0.0
 40
0.0
 40
0.0
 40
0.2556107567
 40
1.0
 40
1.0
 40
1.0
 40
1.0
 10
26.9273948544
 20
79.2811877543
 30
0.0
 10
26.9787364123
 20
79.3183532441
 30
0.0
 10
27.1813391693
 20
79.4613168558
 30
0.0
 10
27.3909911228
 20
79.594369882
 30
0.0
 10
27.5508421929
 20
79.6866593894
 30
0.0
  0
SPLINE
  5
346
100
AcDbEntity
  8
0
100
AcDbSpline
 62
7
  6
BYLAYER
 70
0
 71
3
 72
14
 73
10
 74
0
 42
0.0000001
 43
0.0000001
 44
0.0000000001
 40
0.0
 40
0.0
 40
0.0
 40
0.0
 40
0.2892772249
 40
0.4225499391
 40
0.5484958808
 40
0.6678917983
 40
0.7818698439
 40
0.8919531533
 40
1.0
 40
1.0
 40
1.0
 40
1.0
 10
13.8996892491
 20
84.8326948196
 30
0.0
 10
14.0599037621
 20
84.9251941597
 30
0.0
 10
14.3058796124
 20
85.0422707946
 30
0.0
 10
14.6432086152
 20
85.1406232674
 30
0.0
 10
14.8826412344
 20
85.1807895203
 30
0.0
 10
15.1130214861
 20
85.1887860036
 30
0.0
 10
15.3321799345
 20
85.1643652863
 30
0.0
 10
15.53775767
 20
85.1075056306
 30
0.0
 10
15.6648149124
 20
85.0480168904
 30
0.0
 10
15.7246530394
 20
85.0134626281
 30
0.0
  0
SPLINE
  5
347
100
AcDbEntity
  8
0
100
AcDbSpline
 62
7
  6
BYLAYER
 70
0
 71
3
 72
24
 73
20
 74
0
 42
0.0000001
 43
0.0000001
 44
0.0000000001
 40
0.0
 40
0.0
 40
0.0
 40
0.0
 40
0.0213339937
 40
0.0428962282
 40
0.0874750417
 40
0.1352546113
 40
0.1871597356
 40
0.2436013699
 40
0.3045535175
 40
0.3696462016
 40
0.4382485236
 40
0.5095398506
 40
0.5825694307
 40
0.6563063668
 40
0.7296873834
 40
0.8016701836
 40
0.8712631733
 40
0.9376185824
 40
1.0
 40
1.0
 40
1.0
 40
1.0
 10
12.0747254589
 20
78.6914593662
 30
0.0
 10
12.0298839922
 20
78.7173536225
 30
0.0
 10
11.9429530086
 20
78.7752698742
 30
0.0
 10
11.7821524686
 20
78.9146280348
 30
0.0
 10
11.6087647361
 20
79.1336112294
 30
0.0
 10
11.4555093244
 20
79.4509997915
 30
0.0
 10
11.3561472835
 20
79.8186004795
 30
0.0
 10
11.3119338337
 20
80.228544534
 30
0.0
 10
11.3232238274
 20
80.672445435
 30
0.0
 10
11.3895715463
 20
81.1411326638
 30
0.0
 10
11.5094774043
 20
81.624814339
 30
0.0
 10
11.6803685188
 20
82.1132862278
 30
0.0
 10
11.8986069112
 20
82.5961775122
 30
0.0
 10
12.1595405189
 20
83.063196377
 30
0.0
 10
12.4576103274
 20
83.5043856052
 30
0.0
 10
12.7864593777
 20
83.9103081207
 30
0.0
 10
13.1391082051
 20
84.2724210065
 30
0.0
 10
13.5080486742
 20
84.5828739841
 30
0.0
 10
13.7685645204
 20
84.7569903741
 30
0.0
 10
13.8996892491
 20
84.8326948196
 30
0.0
  0
SPLINE
  5
348
100
AcDbEntity
  8
0
100
AcDbSpline
 62
7
  6
BYLAYER
 70
0
 71
3
 72
11
 73
7
 74
0
 42
0.0000001
 43
0.0000001
 44
0.0000000001
 40
0.0
 40
0.0
 40
0.0
 40
0.0
 40
0.2548128259
 40
0.5168066194
 40
0.770294604
 40
1.0
 40
1.0
 40
1.0
 40
1.0
 10
54.8449084759
 20
59.4829353382
 30
0.0
 10
54.8591580969
 20
59.468997544
 30
0.0
 10
54.8851284267
 20
59.4376437475
 30
0.0
 10
54.9150180015
 20
59.3849870173
 30
0.0
 10
54.9345211175
 20
59.3297363022
 30
0.0
 10
54.9398227735
 20
59.2919003567
 30
0.0
 10
54.9398227735
 20
59.2739316532
 30
0.0
  0
SPLINE
  5
349
100
AcDbEntity
  8
0
100
AcDbSpline
 62
7
  6
BYLAYER
 70
0
 71
3
 72
9
 73
5
 74
0
 42
0.0000001
 43
0.0000001
 44
0.0000000001
 40
0.0
 40
0.0
 40
0.0
 40
0.0
 40
0.2531341891
 40
1.0
 40
1.0
 40
1.0
 40
1.0
 10
34.89926043
 20
71.6003943151
 30
0.0
 10
34.8859760975
 20
71.5657798559
 30
0.0
 10
34.8372283743
 20
71.4276417953
 30
0.0
 10
34.8040800625
 20
71.2839319016
 30
0.0
 10
34.7891938008
 20
71.1755575615
 30
0.0
  0
SPLINE
  5
34A
100
AcDbEntity
  8
0
100
AcDbSpline
 62
7
  6
BYLAYER
 70
0
 71
3
 72
13
 73
9
 74
0
 42
0.0000001
 43
0.0000001
 44
0.0000000001
 40
0.0
 40
0.0
 40
0.0
 40
0.0
 40
0.096767933
 40
0.1979116805
 40
0.4223676526
 40
0.5500765513
 40
0.6890651092
 40
1.0
 40
1.0
 40
1.0
 40
1.0
 10
45.0200007682
 20
56.8594159108
 30
0.0
 10
45.0596674151
 20
56.8823173234
 30
0.0
 10
45.1368858516
 20
56.9363149828
 30
0.0
 10
45.2795805097
 20
57.0774795457
 30
0.0
 10
45.3922243175
 20
57.264416283
 30
0.0
 10
45.4726142134
 20
57.4828440559
 30
0.0
 10
45.5370670778
 20
57.7491222932
 30
0.0
 10
45.5534695765
 20
57.9631271329
 30
0.0
 10
45.5534695765
 20
58.1103015094
 30
0.0
  0
SPLINE
  5
34B
100
AcDbEntity
  8
0
100
AcDbSpline
 62
7
  6
BYLAYER
 70
0
 71
3
 72
9
 73
5
 74
0
 42
0.0000001
 43
0.0000001
 44
0.0000000001
 40
0.0
 40
0.0
 40
0.0
 40
0.0
 40
0.5006236527
 40
1.0
 40
1.0
 40
1.0
 40
1.0
 10
45.5534695765
 20
63.5808677041
 30
0.0
 10
45.5534695765
 20
63.6072722705
 30
0.0
 10
45.5625752102
 20
63.6604206739
 30
0.0
 10
45.5887984041
 20
63.7073909319
 30
0.0
 10
45.6050323917
 20
63.7281319286
 30
0.0
  0
SPLINE
  5
34C
100
AcDbEntity
  8
0
100
AcDbSpline
 62
7
  6
BYLAYER
 70
0
 71
3
 72
9
 73
5
 74
0
 42
0.0000001
 43
0.0000001
 44
0.0000000001
 40
0.0
 40
0.0
 40
0.0
 40
0.0
 40
0.4971503225
 40
1.0
 40
1.0
 40
1.0
 40
1.0
 10
34.7722982669
 20
59.9880848729
 30
0.0
 10
34.7722982669
 20
59.8946599425
 30
0.0
 10
34.7870324916
 20
59.7064560419
 30
0.0
 10
34.8304685082
 20
59.5228085039
 30
0.0
 10
34.8588340255
 20
59.432670368
 30
0.0
  0
SPLINE
  5
34D
100
AcDbEntity
  8
0
100
AcDbSpline
 62
7
  6
BYLAYER
 70
0
 71
3
 72
11
 73
7
 74
0
 42
0.0000001
 43
0.0000001
 44
0.0000000001
 40
0.0
 40
0.0
 40
0.0
 40
0.0
 40
0.2256742069
 40
0.4652426072
 40
0.7227194223
 40
1.0
 40
1.0
 40
1.0
 40
1.0
 10
34.8588340255
 20
59.432670368
 30
0.0
 10
34.9077826061
 20
59.2771246831
 30
0.0
 10
35.0496210151
 20
58.9683589483
 30
0.0
 10
35.3667176632
 20
58.549370408
 30
0.0
 10
35.7816519742
 20
58.1701976944
 30
0.0
 10
36.1046880566
 20
57.955482667
 30
0.0
 10
36.278201545
 20
57.855306874
 30
0.0
  0
SPLINE
  5
34E
100
AcDbEntity
  8
0
100
AcDbSpline
 62
7
  6
BYLAYER
 70
0
 71
3
 72
11
 73
7
 74
0
 42
0.0000001
 43
0.0000001
 44
0.0000000001
 40
0.0
 40
0.0
 40
0.0
 40
0.0
 40
0.2419497451
 40
0.500010533
 40
0.7580659555
 40
1.0
 40
1.0
 40
1.0
 40
1.0
 10
53.3902568936
 20
47.9758806146
 30
0.0
 10
53.466272037
 20
47.9319942439
 30
0.0
 10
53.6390304542
 20
47.8677347904
 30
0.0
 10
53.9145299571
 20
47.8372845846
 30
0.0
 10
54.1900231153
 20
47.8677400082
 30
0.0
 10
54.3627729923
 20
47.9319993044
 30
0.0
 10
54.4387828866
 20
47.9758833753
 30
0.0
  0
SPLINE
  5
34F
100
AcDbEntity
  8
0
100
AcDbSpline
 62
7
  6
BYLAYER
 70
0
 71
3
 72
11
 73
7
 74
0
 42
0.0000001
 43
0.0000001
 44
0.0000000001
 40
0.0
 40
0.0
 40
0.0
 40
0.0
 40
0.2817149887
 40
0.5410157663
 40
0.7791814581
 40
1.0
 40
1.0
 40
1.0
 40
1.0
 10
36.2367790809
 20
57.9468641036
 30
0.0
 10
36.068478597
 20
58.044030235
 30
0.0
 10
35.7561618857
 20
58.250818733
 30
0.0
 10
35.3554788211
 20
58.6126051725
 30
0.0
 10
35.0502902017
 20
59.0066308921
 30
0.0
 10
34.9118792168
 20
59.2949977817
 30
0.0
 10
34.8634428539
 20
59.4394191701
 30
0.0
  0
SPLINE
  5
350
100
AcDbEntity
  8
0
100
AcDbSpline
 62
7
  6
BYLAYER
 70
0
 71
3
 72
11
 73
7
 74
0
 42
0.0000001
 43
0.0000001
 44
0.0000000001
 40
0.0
 40
0.0
 40
0.0
 40
0.0
 40
0.217699363
 40
0.4508330524
 40
0.7104673789
 40
1.0
 40
1.0
 40
1.0
 40
1.0
 10
45.5534834592
 20
63.5808677034
 30
0.0
 10
45.5534816186
 20
63.5694456149
 30
0.0
 10
45.5576787258
 20
63.545629608
 30
0.0
 10
45.575743577
 20
63.5124345965
 30
0.0
 10
45.6043090376
 20
63.4824563748
 30
0.0
 10
45.628182574
 20
63.4659898204
 30
0.0
 10
45.6413384253
 20
63.458394458
 30
0.0
  0
SPLINE
  5
351
100
AcDbEntity
  8
0
100
AcDbSpline
 62
7
  6
BYLAYER
 70
0
 71
3
 72
13
 73
9
 74
0
 42
0.0000001
 43
0.0000001
 44
0.0000000001
 40
0.0
 40
0.0
 40
0.0
 40
0.0
 40
0.1141762243
 40
0.2375705078
 40
0.5000006893
 40
0.7624304955
 40
0.8858242827
 40
1.0
 40
1.0
 40
1.0
 40
1.0
 10
53.4902551969
 20
59.2535195479
 30
0.0
 10
53.5192787795
 20
59.2367631537
 30
0.0
 10
53.5828146061
 20
59.2072138811
 30
0.0
 10
53.7235586826
 20
59.1643940391
 30
0.0
 10
53.9145200553
 20
59.1437042686
 30
0.0
 10
54.105481181
 20
59.1643949807
 30
0.0
 10
54.2462246428
 20
59.2072154693
 30
0.0
 10
54.3097600013
 20
59.2367650584
 30
0.0
 10
54.3387833343
 20
59.2535215875
 30
0.0
  0
SPLINE
  5
352
100
AcDbEntity
  8
0
100
AcDbSpline
 62
7
  6
BYLAYER
 70
0
 71
3
 72
14
 73
10
 74
0
 42
0.0000001
 43
0.0000001
 44
0.0000000001
 40
0.0
 40
0.0
 40
0.0
 40
0.0
 40
0.1080484944
 40
0.2181324631
 40
0.3321068072
 40
0.4515058367
 40
0.5774537249
 40
0.7107188047
 40
1.0
 40
1.0
 40
1.0
 40
1.0
 10
34.7723158713
 20
70.9292172625
 30
0.0
 10
34.7723166656
 20
70.8345588082
 30
0.0
 10
34.7887269321
 20
70.643071378
 30
0.0
 10
34.8621238827
 20
70.36024847
 30
0.0
 10
34.9832267263
 20
70.0835071617
 30
0.0
 10
35.150550028
 20
69.815692064
 30
0.0
 10
35.3621853221
 20
69.5591455294
 30
0.0
 10
35.7099280267
 20
69.2263301067
 30
0.0
 10
36.0172995717
 20
69.0147101801
 30
0.0
 10
36.2367790809
 20
68.8879964931
 30
0.0
  0
SPLINE
  5
353
100
AcDbEntity
  8
0
100
AcDbSpline
 62
7
  6
BYLAYER
 70
0
 71
3
 72
9
 73
5
 74
0
 42
0.0000001
 43
0.0000001
 44
0.0000000001
 40
0.0
 40
0.0
 40
0.0
 40
0.0
 40
0.2489580889
 40
1.0
 40
1.0
 40
1.0
 40
1.0
 10
45.0199981334
 20
56.859420474
 30
0.0
 10
45.0042791078
 20
56.8503428388
 30
0.0
 10
44.9401598322
 20
56.8155983848
 30
0.0
 10
44.8722295088
 20
56.7879361351
 30
0.0
 10
44.8200469451
 20
56.7713352854
 30
0.0
  0
SPLINE
  5
354
100
AcDbEntity
  8
0
100
AcDbSpline
 62
7
  6
BYLAYER
 70
0
 71
3
 72
9
 73
5
 74
0
 42
0.0000001
 43
0.0000001
 44
0.0000000001
 40
0.0
 40
0.0
 40
0.0
 40
0.0
 40
0.4889630716
 40
1.0
 40
1.0
 40
1.0
 40
1.0
 10
44.8200469451
 20
56.7713352854
 30
0.0
 10
44.7583148219
 20
56.7516964325
 30
0.0
 10
44.6281006667
 20
56.7232379492
 30
0.0
 10
44.4951005401
 20
56.7174390921
 30
0.0
 10
44.4274276738
 20
56.7195305786
 30
0.0
  0
SPLINE
  5
355
100
AcDbEntity
  8
0
100
AcDbSpline
 62
7
  6
BYLAYER
 70
0
 71
3
 72
9
 73
5
 74
0
 42
0.0000001
 43
0.0000001
 44
0.0000000001
 40
0.0
 40
0.0
 40
0.0
 40
0.0
 40
0.2568075078
 40
1.0
 40
1.0
 40
1.0
 40
1.0
 10
41.4398548432
 20
60.1782437597
 30
0.0
 10
41.434262832
 20
60.2137960456
 30
0.0
 10
41.4145191982
 20
60.3525411002
 30
0.0
 10
41.4030242397
 20
60.4925087802
 30
0.0
 10
41.3999519079
 20
60.5966155453
 30
0.0
  0
SPLINE
  5
356
100
AcDbEntity
  8
0
100
AcDbSpline
 62
7
  6
BYLAYER
 70
0
 71
3
 72
11
 73
7
 74
0
 42
0.0000001
 43
0.0000001
 44
0.0000000001
 40
0.0
 40
0.0
 40
0.0
 40
0.0
 40
0.2391950525
 40
0.4830881536
 40
0.7364590585
 40
1.0
 40
1.0
 40
1.0
 40
1.0
 10
34.0093684324
 20
70.508353896
 30
0.0
 10
33.9996006091
 20
70.5139932239
 30
0.0
 10
33.9816949029
 20
70.5288817833
 30
0.0
 10
33.9631794943
 20
70.5588305994
 30
0.0
 10
33.9528048022
 20
70.5935081525
 30
0.0
 10
33.9507886547
 20
70.6179603257
 30
0.0
 10
33.950788581
 20
70.6303871629
 30
0.0
  0
SPLINE
  5
357
100
AcDbEntity
  8
0
100
AcDbSpline
 62
7
  6
BYLAYER
 70
0
 71
3
 72
14
 73
10
 74
0
 42
0.0000001
 43
0.0000001
 44
0.0000000001
 40
0.0
 40
0.0
 40
0.0
 40
0.0
 40
0.1114380856
 40
0.2320825452
 40
0.3577401113
 40
0.4857010599
 40
0.6145173703
 40
0.743436844
 40
1.0
 40
1.0
 40
1.0
 40
1.0
 10
35.0891102081
 20
64.4474389202
 30
0.0
 10
35.0891102081
 20
64.5868382191
 30
0.0
 10
35.0762990663
 20
64.8771683111
 30
0.0
 10
35.0320333863
 20
65.3225566614
 30
0.0
 10
34.9735840935
 20
65.7870809878
 30
0.0
 10
34.9119584333
 20
66.2614800711
 30
0.0
 10
34.8554189652
 20
66.7406688558
 30
0.0
 10
34.7947763619
 20
67.3811531247
 30
0.0
 10
34.7723016505
 20
67.8634863145
 30
0.0
 10
34.7722987855
 20
68.1844243839
 30
0.0
  0
SPLINE
  5
358
100
AcDbEntity
  8
0
100
AcDbSpline
 62
7
  6
BYLAYER
 70
0
 71
3
 72
11
 73
7
 74
0
 42
0.0000001
 43
0.0000001
 44
0.0000000001
 40
0.0
 40
0.0
 40
0.0
 40
0.0
 40
0.2372196254
 40
0.500001618
 40
0.76278273
 40
1.0
 40
1.0
 40
1.0
 40
1.0
 10
34.0093684324
 20
71.4476539933
 30
0.0
 10
34.0093684324
 20
71.4708359095
 30
0.0
 10
34.0180632118
 20
71.5197293372
 30
0.0
 10
34.0483714172
 20
71.5884353011
 30
0.0
 10
34.0927179715
 20
71.6490360038
 30
0.0
 10
34.1307132409
 20
71.6810125164
 30
0.0
 10
34.1507891999
 20
71.6926033075
 30
0.0
  0
SPLINE
  5
359
100
AcDbEntity
  8
0
100
AcDbSpline
 62
7
  6
BYLAYER
 70
0
 71
3
 72
15
 73
11
 74
0
 42
0.0000001
 43
0.0000001
 44
0.0000000001
 40
0.0
 40
0.0
 40
0.0
 40
0.0
 40
0.2102637846
 40
0.3891850081
 40
0.5399538375
 40
0.6672981782
 40
0.7748950415
 40
0.8651293785
 40
0.9396305049
 40
1.0
 40
1.0
 40
1.0
 40
1.0
 10
35.0891092993
 20
64.4474383665
 30
0.0
 10
35.0891092993
 20
64.3246939378
 30
0.0
 10
35.0801940429
 20
64.0972938184
 30
0.0
 10
35.0377119739
 20
63.7845141375
 30
0.0
 10
34.9793539191
 20
63.5239291056
 30
0.0
 10
34.917232328
 20
63.3074344722
 30
0.0
 10
34.8600219558
 20
63.1264503985
 30
0.0
 10
34.8135704969
 20
62.9743627703
 30
0.0
 10
34.7820543317
 20
62.8467434275
 30
0.0
 10
34.7723006182
 20
62.7681174926
 30
0.0
 10
34.7722989469
 20
62.7328759545
 30
0.0
  0
SPLINE
  5
35A
100
AcDbEntity
  8
0
100
AcDbSpline
 62
7
  6
BYLAYER
 70
0
 71
3
 72
9
 73
5
 74
0
 42
0.0000001
 43
0.0000001
 44
0.0000000001
 40
0.0
 40
0.0
 40
0.0
 40
0.0
 40
0.5274877356
 40
1.0
 40
1.0
 40
1.0
 40
1.0
 10
45.6413382662
 20
57.9878371292
 30
0.0
 10
45.6413382662
 20
57.8222543963
 30
0.0
 10
45.6166594799
 20
57.5074896248
 30
0.0
 10
45.5277948493
 20
57.2029562364
 30
0.0
 10
45.467408136
 20
57.0674796954
 30
0.0
  0
SPLINE
  5
35B
100
AcDbEntity
  8
0
100
AcDbSpline
 62
7
  6
BYLAYER
 70
0
 71
3
 72
26
 73
22
 74
0
 42
0.0000001
 43
0.0000001
 44
0.0000000001
 40
0.0
 40
0.0
 40
0.0
 40
0.0
 40
0.0475998849
 40
0.0702982476
 40
0.0925840047
 40
0.1147606613
 40
0.1371397622
 40
0.1600169827
 40
0.1836575894
 40
0.2339753797
 40
0.2893397017
 40
0.3501238628
 40
0.4160786055
 40
0.4864917603
 40
0.5603217824
 40
0.6363048632
 40
0.713046413
 40
0.7891154067
 40
0.8631043078
 40
0.9337666916
 40
1.0
 40
1.0
 40
1.0
 40
1.0
 10
45.4383717598
 20
57.0059008026
 30
0.0
 10
45.3873324291
 20
56.9034793827
 30
0.0
 10
45.2942939425
 20
56.7595228684
 30
0.0
 10
45.1372155298
 20
56.6010056795
 30
0.0
 10
45.0079827616
 20
56.5032386886
 30
0.0
 10
44.8666000497
 20
56.425675098
 30
0.0
 10
44.7141304265
 20
56.3689763109
 30
0.0
 10
44.5518207851
 20
56.3334154282
 30
0.0
 10
44.3192204982
 20
56.3141694886
 30
0.0
 10
44.0071037172
 20
56.3473191296
 30
0.0
 10
43.623990215
 20
56.4702039086
 30
0.0
 10
43.2336542577
 20
56.6722219186
 30
0.0
 10
42.8462475199
 20
56.9475656708
 30
0.0
 10
42.4719031927
 20
57.2886464783
 30
0.0
 10
42.1207477283
 20
57.6861480611
 30
0.0
 10
41.8023933479
 20
58.1291544061
 30
0.0
 10
41.525603008
 20
58.6054621408
 30
0.0
 10
41.2980530464
 20
59.1019059075
 30
0.0
 10
41.1259136554
 20
59.6048647797
 30
0.0
 10
41.0140884284
 20
60.1003832841
 30
0.0
 10
40.980512735
 20
60.4288929011
 30
0.0
 10
40.9758156753
 20
60.5880539979
 30
0.0
  0
SPLINE
  5
35C
100
AcDbEntity
  8
0
100
AcDbSpline
 62
7
  6
BYLAYER
 70
0
 71
3
 72
11
 73
7
 74
0
 42
0.0000001
 43
0.0000001
 44
0.0000000001
 40
0.0
 40
0.0
 40
0.0
 40
0.0
 40
0.23721727
 40
0.499998382
 40
0.7627803746
 40
1.0
 40
1.0
 40
1.0
 40
1.0
 10
53.4902551969
 20
59.2535195479
 30
0.0
 10
53.4701792379
 20
59.2419287568
 30
0.0
 10
53.4321839685
 20
59.2099522443
 30
0.0
 10
53.3878374142
 20
59.1493515415
 30
0.0
 10
53.3575292088
 20
59.0806455776
 30
0.0
 10
53.3488344294
 20
59.0317521499
 30
0.0
 10
53.3488344294
 20
59.0085702337
 30
0.0
  0
SPLINE
  5
35D
100
AcDbEntity
  8
0
100
AcDbSpline
 62
7
  6
BYLAYER
 70
0
 71
3
 72
11
 73
7
 74
0
 42
0.0000001
 43
0.0000001
 44
0.0000000001
 40
0.0
 40
0.0
 40
0.0
 40
0.0
 40
0.2372193634
 40
0.5000010919
 40
0.762782226
 40
1.0
 40
1.0
 40
1.0
 40
1.0
 10
54.4802052793
 20
59.0085729532
 30
0.0
 10
54.4802052793
 20
59.0317548569
 30
0.0
 10
54.4715104283
 20
59.0806482628
 30
0.0
 10
54.4412019499
 20
59.1493541102
 30
0.0
 10
54.3968549977
 20
59.2099546194
 30
0.0
 10
54.3588594309
 20
59.2419309099
 30
0.0
 10
54.3387833343
 20
59.2535215875
 30
0.0
  0
SPLINE
  5
35E
100
AcDbEntity
  8
0
100
AcDbSpline
 62
7
  6
BYLAYER
 70
0
 71
3
 72
13
 73
9
 74
0
 42
0.0000001
 43
0.0000001
 44
0.0000000001
 40
0.0
 40
0.0
 40
0.0
 40
0.0
 40
0.1142237901
 40
0.2375561812
 40
0.5000005226
 40
0.762444578
 40
0.8857766349
 40
1.0
 40
1.0
 40
1.0
 40
1.0
 10
53.3488344294
 20
59.0085702337
 30
0.0
 10
53.3875490222
 20
58.9862188588
 30
0.0
 10
53.472245762
 20
58.9467891911
 30
0.0
 10
53.6599273602
 20
58.8897665983
 30
0.0
 10
53.9145207408
 20
58.8620838157
 30
0.0
 10
54.1691138766
 20
58.8897677755
 30
0.0
 10
54.3567947713
 20
58.9467912917
 30
0.0
 10
54.4414909921
 20
58.9862213824
 30
0.0
 10
54.4802052797
 20
59.0085729534
 30
0.0
  0
SPLINE
  5
35F
100
AcDbEntity
  8
0
100
AcDbSpline
 62
7
  6
BYLAYER
 70
0
 71
3
 72
10
 73
6
 74
0
 42
0.0000001
 43
0.0000001
 44
0.0000000001
 40
0.0
 40
0.0
 40
0.0
 40
0.0
 40
0.2296143579
 40
0.4827102477
 40
1.0
 40
1.0
 40
1.0
 40
1.0
 10
45.6413384253
 20
63.458394458
 30
0.0
 10
45.6413384253
 20
63.475775556
 30
0.0
 10
45.6463068801
 20
63.51237816
 30
0.0
 10
45.6709451489
 20
63.5841671207
 30
0.0
 10
45.7038901481
 20
63.6342515515
 30
0.0
 10
45.7311906174
 20
63.6623224191
 30
0.0
  0
SPLINE
  5
360
100
AcDbEntity
  8
0
100
AcDbSpline
 62
7
  6
BYLAYER
 70
0
 71
3
 72
11
 73
7
 74
0
 42
0.0000001
 43
0.0000001
 44
0.0000000001
 40
0.0
 40
0.0
 40
0.0
 40
0.0
 40
0.2400791882
 40
0.4999995732
 40
0.7599201856
 40
1.0
 40
1.0
 40
1.0
 40
1.0
 10
54.4256783046
 20
48.0387511999
 30
0.0
 10
54.3498653501
 20
48.0024113953
 30
0.0
 10
54.1809818191
 20
47.9491169823
 30
0.0
 10
53.9145204704
 20
47.9233446801
 30
0.0
 10
53.6480587931
 20
47.949115862
 30
0.0
 10
53.4791747296
 20
48.0024095192
 30
0.0
 10
53.4033613587
 20
48.0387489626
 30
0.0
  0
SPLINE
  5
361
100
AcDbEntity
  8
0
100
AcDbSpline
 62
7
  6
BYLAYER
 70
0
 71
3
 72
9
 73
5
 74
0
 42
0.0000001
 43
0.0000001
 44
0.0000000001
 40
0.0
 40
0.0
 40
0.0
 40
0.0
 40
0.254366304
 40
1.0
 40
1.0
 40
1.0
 40
1.0
 10
53.4033613587
 20
48.0387489626
 30
0.0
 10
53.3986497998
 20
48.041007343
 30
0.0
 10
53.3802082167
 20
48.0500536155
 30
0.0
 10
53.3620983818
 20
48.0597800709
 30
0.0
 10
53.3488344294
 20
48.0674378442
 30
0.0
  0
SPLINE
  5
362
100
AcDbEntity
  8
0
100
AcDbSpline
 62
7
  6
BYLAYER
 70
0
 71
3
 72
9
 73
5
 74
0
 42
0.0000001
 43
0.0000001
 44
0.0000000001
 40
0.0
 40
0.0
 40
0.0
 40
0.0
 40
0.4744377155
 40
1.0
 40
1.0
 40
1.0
 40
1.0
 10
36.2367790809
 20
68.8879964931
 30
0.0
 10
36.2367790809
 20
68.9111784093
 30
0.0
 10
36.2454650372
 20
68.9600565542
 30
0.0
 10
36.2653603389
 20
69.0051422339
 30
0.0
 10
36.2782002646
 20
69.0273817611
 30
0.0
  0
SPLINE
  5
363
100
AcDbEntity
  8
0
100
AcDbSpline
 62
7
  6
BYLAYER
 70
0
 71
3
 72
9
 73
5
 74
0
 42
0.0000001
 43
0.0000001
 44
0.0000000001
 40
0.0
 40
0.0
 40
0.0
 40
0.0
 40
0.2530708351
 40
1.0
 40
1.0
 40
1.0
 40
1.0
 10
36.306418049
 20
69.0689002857
 30
0.0
 10
36.3080134859
 20
69.0709075301
 30
0.0
 10
36.3144111905
 20
69.0787641958
 30
0.0
 10
36.3211852773
 20
69.086315967
 30
0.0
 10
36.3264561227
 20
69.0917463524
 30
0.0
  0
SPLINE
  5
364
100
AcDbEntity
  8
0
100
AcDbSpline
 62
7
  6
BYLAYER
 70
0
 71
3
 72
10
 73
6
 74
0
 42
0.0000001
 43
0.0000001
 44
0.0000000001
 40
0.0
 40
0.0
 40
0.0
 40
0.0
 40
0.5171568731
 40
0.7703591306
 40
1.0
 40
1.0
 40
1.0
 40
1.0
 10
41.0639184907
 20
66.3563557323
 30
0.0
 10
41.0367367678
 20
66.3283018467
 30
0.0
 10
41.0039101918
 20
66.2783101165
 30
0.0
 10
40.9793691376
 20
66.2066611046
 30
0.0
 10
40.9744142393
 20
66.1701288713
 30
0.0
 10
40.9744142393
 20
66.1527834378
 30
0.0
  0
SPLINE
  5
365
100
AcDbEntity
  8
0
100
AcDbSpline
 62
7
  6
BYLAYER
 70
0
 71
3
 72
11
 73
7
 74
0
 42
0.0000001
 43
0.0000001
 44
0.0000000001
 40
0.0
 40
0.0
 40
0.0
 40
0.0
 40
0.2372270423
 40
0.4999163097
 40
0.7626842882
 40
1.0
 40
1.0
 40
1.0
 40
1.0
 10
40.9744142393
 20
66.1527834378
 30
0.0
 10
41.0045294447
 20
66.1353968093
 30
0.0
 10
41.0745518715
 20
66.1100195724
 30
0.0
 10
41.1865205944
 20
66.0978834566
 30
0.0
 10
41.2985038489
 20
66.1100093982
 30
0.0
 10
41.3685519715
 20
66.1353911129
 30
0.0
 10
41.3986783077
 20
66.1527844574
 30
0.0
  0
SPLINE
  5
366
100
AcDbEntity
  8
0
100
AcDbSpline
 62
7
  6
BYLAYER
 70
0
 71
3
 72
11
 73
7
 74
0
 42
0.0000001
 43
0.0000001
 44
0.0000000001
 40
0.0
 40
0.0
 40
0.0
 40
0.0
 40
0.2372465443
 40
0.499999474
 40
0.7627526898
 40
1.0
 40
1.0
 40
1.0
 40
1.0
 10
41.3986783077
 20
60.6822182626
 30
0.0
 10
41.3685607712
 20
60.6648299987
 30
0.0
 10
41.2985259765
 20
60.6394504191
 30
0.0
 10
41.1865466069
 20
60.6273159332
 30
0.0
 10
41.0745670686
 20
60.6394499082
 30
0.0
 10
41.0045319985
 20
60.6648291401
 30
0.0
 10
40.9744142393
 20
60.682217243
 30
0.0
  0
SPLINE
  5
367
100
AcDbEntity
  8
0
100
AcDbSpline
 62
7
  6
BYLAYER
 70
0
 71
3
 72
11
 73
7
 74
0
 42
0.0000001
 43
0.0000001
 44
0.0000000001
 40
0.0
 40
0.0
 40
0.0
 40
0.0
 40
0.2895378676
 40
0.5491098402
 40
0.7822517826
 40
1.0
 40
1.0
 40
1.0
 40
1.0
 10
45.6413384253
 20
57.9878282632
 30
0.0
 10
45.6281823131
 20
57.9954237763
 30
0.0
 10
45.6043078375
 20
58.0118846424
 30
0.0
 10
45.5757494022
 20
58.041865526
 30
0.0
 10
45.5576791991
 20
58.0750574153
 30
0.0
 10
45.5534835143
 20
58.098876838
 30
0.0
 10
45.5534835139
 20
58.1103015094
 30
0.0
  0
SPLINE
  5
368
100
AcDbEntity
  8
0
100
AcDbSpline
 62
7
  6
BYLAYER
 70
0
 71
3
 72
21
 73
17
 74
0
 42
0.0000001
 43
0.0000001
 44
0.0000000001
 40
0.0
 40
0.0
 40
0.0
 40
0.0
 40
0.037413659
 40
0.0772568988
 40
0.1210013524
 40
0.1697279847
 40
0.2237422711
 40
0.2829026274
 40
0.3467880032
 40
0.4147686823
 40
0.4860758721
 40
0.5598414986
 40
0.7108438031
 40
0.8600602605
 40
0.9316681435
 40
1.0
 40
1.0
 40
1.0
 40
1.0
 10
74.5780646421
 20
77.8417623462
 30
0.0
 10
74.5780646421
 20
77.7488379955
 30
0.0
 10
74.6017293091
 20
77.5562591191
 30
0.0
 10
74.7073230273
 20
77.2723742877
 30
0.0
 10
74.8843483459
 20
76.9930271155
 30
0.0
 10
75.1317756742
 20
76.7240814745
 30
0.0
 10
75.4464754387
 20
76.4716696728
 30
0.0
 10
75.8231392743
 20
76.2426467409
 30
0.0
 10
76.2543855915
 20
76.042737688
 30
0.0
 10
76.7317101573
 20
75.8767410835
 30
0.0
 10
77.2457773653
 20
75.7484138033
 30
0.0
 10
77.9723452318
 20
75.6305135833
 30
0.0
 10
78.9043198309
 20
75.5917345244
 30
0.0
 10
79.8263375061
 20
75.6942325737
 30
0.0
 10
80.5253006265
 20
75.8623964106
 30
0.0
 10
80.8552235711
 20
75.9737132589
 30
0.0
 10
81.0130737996
 20
76.0360574439
 30
0.0
  0
SPLINE
  5
369
100
AcDbEntity
  8
0
100
AcDbSpline
 62
7
  6
BYLAYER
 70
0
 71
3
 72
11
 73
7
 74
0
 42
0.0000001
 43
0.0000001
 44
0.0000000001
 40
0.0
 40
0.0
 40
0.0
 40
0.0
 40
0.2913887613
 40
0.550411654
 40
0.7832805782
 40
1.0
 40
1.0
 40
1.0
 40
1.0
 10
82.0705042342
 20
76.6448841405
 30
0.0
 10
82.1749659538
 20
76.7330458037
 30
0.0
 10
82.3605058624
 20
76.914668119
 30
0.0
 10
82.5725379705
 20
77.2178153112
 30
0.0
 10
82.6995086
 20
77.5283078023
 30
0.0
 10
82.7280646421
 20
77.7400980529
 30
0.0
 10
82.7280646421
 20
77.8417623462
 30
0.0
  0
SPLINE
  5
36A
100
AcDbEntity
  8
0
100
AcDbSpline
 62
7
  6
BYLAYER
 70
0
 71
3
 72
11
 73
7
 74
0
 42
0.0000001
 43
0.0000001
 44
0.0000000001
 40
0.0
 40
0.0
 40
0.0
 40
0.0
 40
0.2896433491
 40
0.5491132563
 40
0.7822372768
 40
1.0
 40
1.0
 40
1.0
 40
1.0
 10
42.2017835527
 20
67.941800217
 30
0.0
 10
42.1623005472
 20
67.9645952252
 30
0.0
 10
42.0906594713
 20
68.0139579323
 30
0.0
 10
42.0050163711
 20
68.1039328137
 30
0.0
 10
41.9508236298
 20
68.203492997
 30
0.0
 10
41.93820655
 20
68.274943687
 30
0.0
 10
41.9381927801
 20
68.3092202336
 30
0.0
  0
SPLINE
  5
36B
100
AcDbEntity
  8
0
100
AcDbSpline
 62
7
  6
BYLAYER
 70
0
 71
3
 72
11
 73
7
 74
0
 42
0.0000001
 43
0.0000001
 44
0.0000000001
 40
0.0
 40
0.0
 40
0.0
 40
0.0
 40
0.2453432042
 40
0.5080963449
 40
0.7664807547
 40
1.0
 40
1.0
 40
1.0
 40
1.0
 10
42.2988242495
 20
67.9376755888
 30
0.0
 10
42.3898914045
 20
67.9767130475
 30
0.0
 10
42.5900878324
 20
68.0312496407
 30
0.0
 10
42.9010547196
 20
68.0489421025
 30
0.0
 10
43.2046953042
 20
68.00577214
 30
0.0
 10
43.3928979011
 20
67.9340812879
 30
0.0
 10
43.4745701368
 20
67.8869288674
 30
0.0
  0
SPLINE
  5
36C
100
AcDbEntity
  8
0
100
AcDbSpline
 62
7
  6
BYLAYER
 70
0
 71
3
 72
11
 73
7
 74
0
 42
0.0000001
 43
0.0000001
 44
0.0000000001
 40
0.0
 40
0.0
 40
0.0
 40
0.0
 40
0.1894585849
 40
0.4218966199
 40
0.6991970293
 40
1.0
 40
1.0
 40
1.0
 40
1.0
 10
44.7272954857
 20
66.5110708734
 30
0.0
 10
44.7227604871
 20
66.5342620471
 30
0.0
 10
44.6942630967
 20
66.5821762179
 30
0.0
 10
44.6201854604
 20
66.6312394369
 30
0.0
 10
44.5225009571
 20
66.6608670739
 30
0.0
 10
44.4499837494
 20
66.6666949112
 30
0.0
 10
44.4124852309
 20
66.6654871026
 30
0.0
  0
SPLINE
  5
36D
100
AcDbEntity
  8
0
100
AcDbSpline
 62
7
  6
BYLAYER
 70
0
 71
3
 72
17
 73
13
 74
0
 42
0.0000001
 43
0.0000001
 44
0.0000000001
 40
0.0
 40
0.0
 40
0.0
 40
0.0
 40
0.0428571311
 40
0.0874839212
 40
0.1353159716
 40
0.187279074
 40
0.3045398557
 40
0.4382078566
 40
0.5825510003
 40
0.7297105549
 40
0.871310181
 40
1.0
 40
1.0
 40
1.0
 40
1.0
 10
48.3697292865
 20
65.6352432339
 30
0.0
 10
48.3697395779
 20
65.6096242051
 30
0.0
 10
48.3628798723
 20
65.5571050375
 30
0.0
 10
48.3327687606
 20
65.481271404
 30
0.0
 10
48.2838849827
 20
65.4093819461
 30
0.0
 10
48.1918854103
 20
65.3170330104
 30
0.0
 10
48.035101908
 20
65.2215970441
 30
0.0
 10
47.8096781596
 20
65.146295432
 30
0.0
 10
47.5566977986
 20
65.1107434011
 30
0.0
 10
47.2966678861
 20
65.1179364285
 30
0.0
 10
47.0508185543
 20
65.1671234824
 30
0.0
 10
46.8999710464
 20
65.2293616872
 30
0.0
 10
46.8333491959
 20
65.2678250266
 30
0.0
  0
SPLINE
  5
36E
100
AcDbEntity
  8
0
100
AcDbSpline
 62
7
  6
BYLAYER
 70
0
 71
3
 72
9
 73
5
 74
0
 42
0.0000001
 43
0.0000001
 44
0.0000000001
 40
0.0
 40
0.0
 40
0.0
 40
0.0
 40
0.5112253895
 40
1.0
 40
1.0
 40
1.0
 40
1.0
 10
67.2627292039
 20
91.3299968088
 30
0.0
 10
69.1079734367
 20
90.6668482206
 30
0.0
 10
72.6717241936
 20
89.2376940833
 30
0.0
 10
76.1095795544
 20
87.5251515891
 30
0.0
 10
77.7477705946
 20
86.6136949709
 30
0.0
  0
SPLINE
  5
36F
100
AcDbEntity
  8
0
100
AcDbSpline
 62
7
  6
BYLAYER
 70
0
 71
3
 72
23
 73
19
 74
0
 42
0.0000001
 43
0.0000001
 44
0.0000000001
 40
0.0
 40
0.0
 40
0.0
 40
0.0
 40
0.0620324458
 40
0.1288152256
 40
0.1994480476
 40
0.2729244725
 40
0.3481228658
 40
0.4238715083
 40
0.4989822485
 40
0.5722862987
 40
0.6426717833
 40
0.7091258386
 40
0.7707823025
 40
0.8269966858
 40
0.8774424886
 40
0.9222631344
 40
0.9625466284
 40
1.0
 40
1.0
 40
1.0
 40
1.0
 10
67.5192402314
 20
84.5185883791
 30
0.0
 10
67.3745822002
 20
84.4311600321
 30
0.0
 10
67.0615710933
 20
84.2700401373
 30
0.0
 10
66.5525226242
 20
84.0770733261
 30
0.0
 10
65.9965416292
 20
83.9282764167
 30
0.0
 10
65.4067159675
 20
83.8275767011
 30
0.0
 10
64.7964993461
 20
83.7775787194
 30
0.0
 10
64.1798057465
 20
83.7795105719
 30
0.0
 10
63.5706245396
 20
83.8333135433
 30
0.0
 10
62.9828221798
 20
83.937644121
 30
0.0
 10
62.4298963325
 20
84.0898539223
 30
0.0
 10
61.9247165547
 20
84.2859329074
 30
0.0
 10
61.4791367562
 20
84.5203783946
 30
0.0
 10
61.1035994243
 20
84.7863699004
 30
0.0
 10
60.8065052285
 20
85.0757299949
 30
0.0
 10
60.5926846413
 20
85.3800711975
 30
0.0
 10
60.4646758556
 20
85.6918113187
 30
0.0
 10
60.4358701392
 20
85.9045247214
 30
0.0
 10
60.4358701392
 20
86.0065774366
 30
0.0
  0
SPLINE
  5
370
100
AcDbEntity
  8
0
100
AcDbSpline
 62
7
  6
BYLAYER
 70
0
 71
3
 72
13
 73
9
 74
0
 42
0.0000001
 43
0.0000001
 44
0.0000000001
 40
0.0
 40
0.0
 40
0.0
 40
0.0
 40
0.1009402915
 40
0.2054772344
 40
0.4329734523
 40
0.5599901865
 40
0.6968510835
 40
1.0
 40
1.0
 40
1.0
 40
1.0
 10
68.5858701392
 20
86.0065774366
 30
0.0
 10
68.5858701392
 20
85.9423241967
 30
0.0
 10
68.5748147267
 20
85.8112726237
 30
0.0
 10
68.5068807972
 20
85.543108577
 30
0.0
 10
68.367367066
 20
85.2809059299
 30
0.0
 10
68.1711965349
 20
85.0367890717
 30
0.0
 10
67.9140434973
 20
84.7824987441
 30
0.0
 10
67.68438944
 20
84.6184011735
 30
0.0
 10
67.5192402314
 20
84.5185883791
 30
0.0
  0
SPLINE
  5
371
100
AcDbEntity
  8
0
100
AcDbSpline
 62
7
  6
BYLAYER
 70
0
 71
3
 72
9
 73
5
 74
0
 42
0.0000001
 43
0.0000001
 44
0.0000000001
 40
0.0
 40
0.0
 40
0.0
 40
0.0
 40
0.5142500154
 40
1.0
 40
1.0
 40
1.0
 40
1.0
 10
79.422954094
 20
85.6461444982
 30
0.0
 10
80.9194015758
 20
84.748899442
 30
0.0
 10
83.7531323482
 20
82.8723734585
 30
0.0
 10
86.3802152556
 20
80.7127023738
 30
0.0
 10
87.5886106494
 20
79.5919482405
 30
0.0
  0
SPLINE
  5
372
100
AcDbEntity
  8
0
100
AcDbSpline
 62
7
  6
BYLAYER
 70
0
 71
3
 72
9
 73
5
 74
0
 42
0.0000001
 43
0.0000001
 44
0.0000000001
 40
0.0
 40
0.0
 40
0.0
 40
0.0
 40
0.4812721508
 40
1.0
 40
1.0
 40
1.0
 40
1.0
 10
77.7727490393
 20
86.6801897483
 30
0.0
 10
78.0618917759
 20
86.5658406509
 30
0.0
 10
78.6443724607
 20
86.2806551632
 30
0.0
 10
79.1845855861
 20
85.9232999483
 30
0.0
 10
79.4536713123
 20
85.7235348513
 30
0.0
  0
SPLINE
  5
373
100
AcDbEntity
  8
0
100
AcDbSpline
 62
7
  6
BYLAYER
 70
0
 71
3
 72
14
 73
10
 74
0
 42
0.0000001
 43
0.0000001
 44
0.0000000001
 40
0.0
 40
0.0
 40
0.0
 40
0.0
 40
0.1361962104
 40
0.2735457972
 40
0.4093678302
 40
0.541981361
 40
0.7895987293
 40
0.9007009376
 40
1.0
 40
1.0
 40
1.0
 40
1.0
 10
53.7771846228
 20
60.2138030521
 30
0.0
 10
53.8303126664
 20
60.20690369
 30
0.0
 10
53.936198215
 20
60.1864332918
 30
0.0
 10
54.0911246953
 20
60.1420884992
 30
0.0
 10
54.2409602683
 20
60.0862950256
 30
0.0
 10
54.4233560529
 20
59.9969644099
 30
0.0
 10
54.5827578094
 20
59.8823978099
 30
0.0
 10
54.6998451032
 20
59.7445448247
 30
0.0
 10
54.7400064246
 20
59.6709257081
 30
0.0
 10
54.7529843823
 20
59.6340844423
 30
0.0
  0
SPLINE
  5
374
100
AcDbEntity
  8
0
100
AcDbSpline
 62
7
  6
BYLAYER
 70
0
 71
3
 72
9
 73
5
 74
0
 42
0.0000001
 43
0.0000001
 44
0.0000000001
 40
0.0
 40
0.0
 40
0.0
 40
0.0
 40
0.241920708
 40
1.0
 40
1.0
 40
1.0
 40
1.0
 10
81.5858759692
 20
76.1657479798
 30
0.0
 10
81.5497154832
 20
76.1496243932
 30
0.0
 10
81.3985780942
 20
76.086675511
 30
0.0
 10
81.2423768519
 20
76.0367331642
 30
0.0
 10
81.1232771104
 20
76.0019826684
 30
0.0
  0
SPLINE
  5
375
100
AcDbEntity
  8
0
100
AcDbSpline
 62
7
  6
BYLAYER
 70
0
 71
3
 72
14
 73
10
 74
0
 42
0.0000001
 43
0.0000001
 44
0.0000000001
 40
0.0
 40
0.0
 40
0.0
 40
0.0
 40
0.2834850819
 40
0.414746685
 40
0.5395762309
 40
0.6589894233
 40
0.7743517445
 40
0.8873765833
 40
1.0
 40
1.0
 40
1.0
 40
1.0
 10
36.2267166275
 20
57.1026740713
 30
0.0
 10
36.0068675443
 20
57.2296012424
 30
0.0
 10
35.6987374876
 20
57.4425872788
 30
0.0
 10
35.3513834399
 20
57.7797403431
 30
0.0
 10
35.1396240335
 20
58.0421660807
 30
0.0
 10
34.9723098147
 20
58.318549409
 30
0.0
 10
34.8514206618
 20
58.6069095946
 30
0.0
 10
34.7783684546
 20
58.9046886131
 30
0.0
 10
34.7622782466
 20
59.1071383406
 30
0.0
 10
34.7622371915
 20
59.2079916428
 30
0.0
  0
SPLINE
  5
376
100
AcDbEntity
  8
0
100
AcDbSpline
 62
7
  6
BYLAYER
 70
0
 71
3
 72
9
 73
5
 74
0
 42
0.0000001
 43
0.0000001
 44
0.0000000001
 40
0.0
 40
0.0
 40
0.0
 40
0.0
 40
0.4876716328
 40
1.0
 40
1.0
 40
1.0
 40
1.0
 10
82.1274765629
 20
76.5195376608
 30
0.0
 10
82.0769883236
 20
76.472446405
 30
0.0
 10
81.9680447794
 20
76.3815115731
 30
0.0
 10
81.8492534405
 20
76.3038344629
 30
0.0
 10
81.7864444961
 20
76.2675594726
 30
0.0
  0
SPLINE
  5
377
100
AcDbEntity
  8
0
100
AcDbSpline
 62
7
  6
BYLAYER
 70
0
 71
3
 72
9
 73
5
 74
0
 42
0.0000001
 43
0.0000001
 44
0.0000000001
 40
0.0
 40
0.0
 40
0.0
 40
0.0
 40
0.2569001121
 40
1.0
 40
1.0
 40
1.0
 40
1.0
 10
53.4866482002
 20
47.2420403019
 30
0.0
 10
53.4604135063
 20
47.2451308186
 30
0.0
 10
53.3587641773
 20
47.2609731567
 30
0.0
 10
53.2594838295
 20
47.2912948883
 30
0.0
 10
53.1889703295
 20
47.3207291051
 30
0.0
  0
SPLINE
  5
378
100
AcDbEntity
  8
0
100
AcDbSpline
 62
7
  6
BYLAYER
 70
0
 71
3
 72
13
 73
9
 74
0
 42
0.0000001
 43
0.0000001
 44
0.0000000001
 40
0.0
 40
0.0
 40
0.0
 40
0.0
 40
0.3669670741
 40
0.5285323294
 40
0.6695606325
 40
0.7873403459
 40
0.880231784
 40
1.0
 40
1.0
 40
1.0
 40
1.0
 10
87.6482857782
 20
79.2965429982
 30
0.0
 10
87.6653587412
 20
79.3018955437
 30
0.0
 10
87.6901952989
 20
79.3088892185
 30
0.0
 10
87.7222303884
 20
79.3153396712
 30
0.0
 10
87.7425281443
 20
79.318046971
 30
0.0
 10
87.7598246206
 20
79.3186163787
 30
0.0
 10
87.7755362065
 20
79.3173004028
 30
0.0
 10
87.7865044253
 20
79.312156046
 30
0.0
 10
87.78900397
 20
79.3068784547
 30
0.0
  0
SPLINE
  5
379
100
AcDbEntity
  8
0
100
AcDbSpline
 62
7
  6
BYLAYER
 70
0
 71
3
 72
9
 73
5
 74
0
 42
0.0000001
 43
0.0000001
 44
0.0000000001
 40
0.0
 40
0.0
 40
0.0
 40
0.0
 40
0.2538568459
 40
1.0
 40
1.0
 40
1.0
 40
1.0
 10
53.7235091279
 20
47.2372483097
 30
0.0
 10
53.7034820851
 20
47.2361053007
 30
0.0
 10
53.6245482347
 20
47.2328429579
 30
0.0
 10
53.5452027183
 20
47.2351387874
 30
0.0
 10
53.4866482002
 20
47.2420403019
 30
0.0
  0
SPLINE
  5
37A
100
AcDbEntity
  8
0
100
AcDbSpline
 62
7
  6
BYLAYER
 70
0
 71
3
 72
11
 73
7
 74
0
 42
0.0000001
 43
0.0000001
 44
0.0000000001
 40
0.0
 40
0.0
 40
0.0
 40
0.0
 40
0.2514198011
 40
0.5066207229
 40
0.7596786004
 40
1.0
 40
1.0
 40
1.0
 40
1.0
 10
53.7235091279
 20
47.2372483097
 30
0.0
 10
53.819432846
 20
47.2458593222
 30
0.0
 10
54.0116220656
 20
47.2839077372
 30
0.0
 10
54.2801850835
 20
47.3993807343
 30
0.0
 10
54.5285074419
 20
47.5433829729
 30
0.0
 10
54.6825682737
 20
47.6538510818
 30
0.0
 10
54.7529843816
 20
47.7131491363
 30
0.0
  0
SPLINE
  5
37B
100
AcDbEntity
  8
0
100
AcDbSpline
 62
7
  6
BYLAYER
 70
0
 71
3
 72
9
 73
5
 74
0
 42
0.0000001
 43
0.0000001
 44
0.0000000001
 40
0.0
 40
0.0
 40
0.0
 40
0.0
 40
0.2365393624
 40
1.0
 40
1.0
 40
1.0
 40
1.0
 10
87.384604424
 20
79.6169401
 30
0.0
 10
87.3939601205
 20
79.6098858822
 30
0.0
 10
87.4326661128
 20
79.5789442936
 30
0.0
 10
87.4681181762
 20
79.5440387345
 30
0.0
 10
87.4934863036
 20
79.5159906102
 30
0.0
  0
SPLINE
  5
37C
100
AcDbEntity
  8
0
100
AcDbSpline
 62
7
  6
BYLAYER
 70
0
 71
3
 72
9
 73
5
 74
0
 42
0.0000001
 43
0.0000001
 44
0.0000000001
 40
0.0
 40
0.0
 40
0.0
 40
0.0
 40
0.2381375696
 40
1.0
 40
1.0
 40
1.0
 40
1.0
 10
87.4934863036
 20
79.5159906102
 30
0.0
 10
87.5078044307
 20
79.5001598551
 30
0.0
 10
87.5657087399
 20
79.4316843843
 30
0.0
 10
87.6151256449
 20
79.356219073
 30
0.0
 10
87.648294618
 20
79.2965264663
 30
0.0
  0
SPLINE
  5
37D
100
AcDbEntity
  8
0
100
AcDbSpline
 62
7
  6
BYLAYER
 70
0
 71
3
 72
9
 73
5
 74
0
 42
0.0000001
 43
0.0000001
 44
0.0000000001
 40
0.0
 40
0.0
 40
0.0
 40
0.0
 40
0.5161388193
 40
1.0
 40
1.0
 40
1.0
 40
1.0
 10
87.7011113951
 20
78.6565808918
 30
0.0
 10
87.745292919
 20
78.7110684421
 30
0.0
 10
87.8177206377
 20
78.8285836065
 30
0.0
 10
87.8475617024
 20
78.9651040724
 30
0.0
 10
87.8475488669
 20
79.0308663016
 30
0.0
  0
SPLINE
  5
37E
100
AcDbEntity
  8
0
100
AcDbSpline
 62
7
  6
BYLAYER
 70
0
 71
3
 72
15
 73
11
 74
0
 42
0.0000001
 43
0.0000001
 44
0.0000000001
 40
0.0
 40
0.0
 40
0.0
 40
0.0
 40
0.112060192
 40
0.2339849101
 40
0.3632321376
 40
0.4965587113
 40
0.6303654686
 40
0.7610217975
 40
0.885153159
 40
1.0
 40
1.0
 40
1.0
 40
1.0
 10
81.6839294516
 20
76.393294506
 30
0.0
 10
81.4903329355
 20
76.5176784957
 30
0.0
 10
81.0606043371
 20
76.738596882
 30
0.0
 10
80.3514679558
 20
76.9767693785
 30
0.0
 10
79.5745400082
 20
77.1287734653
 30
0.0
 10
78.7609234578
 20
77.1884651216
 30
0.0
 10
77.9429878632
 20
77.1535506802
 30
0.0
 10
77.1533295699
 20
77.025340103
 30
0.0
 10
76.4235931344
 20
76.809062204
 30
0.0
 10
75.9758302564
 20
76.6022004902
 30
0.0
 10
75.7715925122
 20
76.4842844775
 30
0.0
  0
SPLINE
  5
37F
100
AcDbEntity
  8
0
100
AcDbSpline
 62
7
  6
BYLAYER
 70
0
 71
3
 72
12
 73
8
 74
0
 42
0.0000001
 43
0.0000001
 44
0.0000000001
 40
0.0
 40
0.0
 40
0.0
 40
0.0
 40
0.2519955541
 40
0.5083648188
 40
0.6352243614
 40
0.7596156805
 40
1.0
 40
1.0
 40
1.0
 40
1.0
 10
35.3681251686
 20
72.6104003912
 30
0.0
 10
35.3283240521
 20
72.6186270205
 30
0.0
 10
35.2455837221
 20
72.6256612219
 30
0.0
 10
35.1435061855
 20
72.6044533002
 30
0.0
 10
35.0695836285
 20
72.568290054
 30
0.0
 10
35.0057581266
 20
72.5206705813
 30
0.0
 10
34.9690189794
 20
72.4724735554
 30
0.0
 10
34.9517078934
 20
72.4377832321
 30
0.0
  0
SPLINE
  5
380
100
AcDbEntity
  8
0
100
AcDbSpline
 62
7
  6
BYLAYER
 70
0
 71
3
 72
11
 73
7
 74
0
 42
0.0000001
 43
0.0000001
 44
0.0000000001
 40
0.0
 40
0.0
 40
0.0
 40
0.0
 40
0.2274726506
 40
0.5005173413
 40
0.7732307757
 40
1.0
 40
1.0
 40
1.0
 40
1.0
 10
36.2267166466
 20
69.6768112841
 30
0.0
 10
36.226716628
 20
69.7101570726
 30
0.0
 10
36.239271495
 20
69.7835725327
 30
0.0
 10
36.2850379038
 20
69.8883062503
 30
0.0
 10
36.3528654469
 20
69.9801725827
 30
0.0
 10
36.410069324
 20
70.027621717
 30
0.0
 10
36.4388591293
 20
70.0442416544
 30
0.0
  0
SPLINE
  5
381
100
AcDbEntity
  8
0
100
AcDbSpline
 62
7
  6
BYLAYER
 70
0
 71
3
 72
11
 73
7
 74
0
 42
0.0000001
 43
0.0000001
 44
0.0000000001
 40
0.0
 40
0.0
 40
0.0
 40
0.0
 40
0.2580814974
 40
0.5117240493
 40
0.7583161327
 40
1.0
 40
1.0
 40
1.0
 40
1.0
 10
36.0603732572
 20
73.3366183402
 30
0.0
 10
36.0292302785
 20
73.3506426379
 30
0.0
 10
35.964692102
 20
73.3728505798
 30
0.0
 10
35.8637834656
 20
73.3833922925
 30
0.0
 10
35.7657340067
 20
73.3653979762
 30
0.0
 10
35.7080144855
 20
73.3332012757
 30
0.0
 10
35.6832130467
 20
73.3130041316
 30
0.0
  0
SPLINE
  5
382
100
AcDbEntity
  8
0
100
AcDbSpline
 62
7
  6
BYLAYER
 70
0
 71
3
 72
11
 73
7
 74
0
 42
0.0000001
 43
0.0000001
 44
0.0000000001
 40
0.0
 40
0.0
 40
0.0
 40
0.0
 40
0.226236892
 40
0.4986980043
 40
0.7719930844
 40
1.0
 40
1.0
 40
1.0
 40
1.0
 10
53.2680701377
 20
60.3281119567
 30
0.0
 10
53.239347996
 20
60.3115309403
 30
0.0
 10
53.1822202879
 20
60.2641798284
 30
0.0
 10
53.1143879317
 20
60.1724152386
 30
0.0
 10
53.0685308164
 20
60.0676355514
 30
0.0
 10
53.0559283133
 20
59.9941053373
 30
0.0
 10
53.055928233
 20
59.9606812526
 30
0.0
  0
SPLINE
  5
383
100
AcDbEntity
  8
0
100
AcDbSpline
 62
7
  6
BYLAYER
 70
0
 71
3
 72
9
 73
5
 74
0
 42
0.0000001
 43
0.0000001
 44
0.0000000001
 40
0.0
 40
0.0
 40
0.0
 40
0.0
 40
0.4770133146
 40
1.0
 40
1.0
 40
1.0
 40
1.0
 10
53.0559282034
 20
59.96068127
 30
0.0
 10
53.1200242793
 20
59.9236779297
 30
0.0
 10
53.2619294793
 20
59.8592535164
 30
0.0
 10
53.4091670577
 20
59.8101489489
 30
0.0
 10
53.4866483134
 20
59.7860467803
 30
0.0
  0
SPLINE
  5
384
100
AcDbEntity
  8
0
100
AcDbSpline
 62
7
  6
BYLAYER
 70
0
 71
3
 72
11
 73
7
 74
0
 42
0.0000001
 43
0.0000001
 44
0.0000000001
 40
0.0
 40
0.0
 40
0.0
 40
0.0
 40
0.1968382589
 40
0.4696625965
 40
0.7598731026
 40
1.0
 40
1.0
 40
1.0
 40
1.0
 10
53.5975234948
 20
60.2184144932
 30
0.0
 10
53.5875562889
 20
60.1908517421
 30
0.0
 10
53.5666092204
 20
60.1240802601
 30
0.0
 10
53.5367731871
 20
60.0149279552
 30
0.0
 10
53.5089353315
 20
59.8985998872
 30
0.0
 10
53.4929813674
 20
59.8212367663
 30
0.0
 10
53.4866482858
 20
59.7860467855
 30
0.0
  0
SPLINE
  5
385
100
AcDbEntity
  8
0
100
AcDbSpline
 62
7
  6
BYLAYER
 70
0
 71
3
 72
9
 73
5
 74
0
 42
0.0000001
 43
0.0000001
 44
0.0000000001
 40
0.0
 40
0.0
 40
0.0
 40
0.0
 40
0.2474561057
 40
1.0
 40
1.0
 40
1.0
 40
1.0
 10
53.4866483134
 20
59.7860467803
 30
0.0
 10
53.5060183793
 20
59.7800223124
 30
0.0
 10
53.5843691657
 20
59.7559362221
 30
0.0
 10
53.6634310021
 20
59.7339955614
 30
0.0
 10
53.7235090082
 20
59.7199849392
 30
0.0
  0
SPLINE
  5
386
100
AcDbEntity
  8
0
100
AcDbSpline
 62
7
  6
BYLAYER
 70
0
 71
3
 72
12
 73
8
 74
0
 42
0.0000001
 43
0.0000001
 44
0.0000000001
 40
0.0
 40
0.0
 40
0.0
 40
0.0
 40
0.0852319023
 40
0.1936351929
 40
0.4658605817
 40
0.7576266902
 40
1.0
 40
1.0
 40
1.0
 40
1.0
 10
53.7771893598
 20
60.2138033173
 30
0.0
 10
53.7794632927
 20
60.1997904596
 30
0.0
 10
53.7826562032
 20
60.1676390854
 30
0.0
 10
53.7844837314
 20
60.0900258156
 30
0.0
 10
53.7767931782
 20
59.9780565003
 30
0.0
 10
53.756408819
 20
59.8451981594
 30
0.0
 10
53.7354930571
 20
59.7585348016
 30
0.0
 10
53.7235152539
 20
59.7199831523
 30
0.0
  0
SPLINE
  5
387
100
AcDbEntity
  8
0
100
AcDbSpline
 62
7
  6
BYLAYER
 70
0
 71
3
 72
11
 73
7
 74
0
 42
0.0000001
 43
0.0000001
 44
0.0000000001
 40
0.0
 40
0.0
 40
0.0
 40
0.0
 40
0.216462053
 40
0.457859311
 40
0.7213490476
 40
1.0
 40
1.0
 40
1.0
 40
1.0
 10
54.7529843821
 20
59.6340844437
 30
0.0
 10
54.6810138225
 20
59.6115809255
 30
0.0
 10
54.5216772207
 20
59.5852732527
 30
0.0
 10
54.2695983843
 20
59.6006855088
 30
0.0
 10
54.0014411323
 20
59.6527504291
 30
0.0
 10
53.8173179438
 20
59.6950324552
 30
0.0
 10
53.7235090082
 20
59.7199849392
 30
0.0
  0
SPLINE
  5
388
100
AcDbEntity
  8
0
100
AcDbSpline
 62
7
  6
BYLAYER
 70
0
 71
3
 72
9
 73
5
 74
0
 42
0.0000001
 43
0.0000001
 44
0.0000000001
 40
0.0
 40
0.0
 40
0.0
 40
0.0
 40
0.4966976851
 40
1.0
 40
1.0
 40
1.0
 40
1.0
 10
78.4338035733
 20
86.1250064676
 30
0.0
 10
78.6034667724
 20
86.0588359918
 30
0.0
 10
78.9404810592
 20
85.9135479904
 30
0.0
 10
79.2646916324
 20
85.741034174
 30
0.0
 10
79.4229672246
 20
85.6461615956
 30
0.0
  0
SPLINE
  5
389
100
AcDbEntity
  8
0
100
AcDbSpline
 62
7
  6
BYLAYER
 70
0
 71
3
 72
26
 73
22
 74
0
 42
0.0000001
 43
0.0000001
 44
0.0000000001
 40
0.0
 40
0.0
 40
0.0
 40
0.0
 40
0.0716937852
 40
0.1471254437
 40
0.2247328289
 40
0.3028164603
 40
0.379637759
 40
0.4535470927
 40
0.5231046171
 40
0.5872272503
 40
0.6453614382
 40
0.6976987249
 40
0.7220716289
 40
0.7455227682
 40
0.7683626211
 40
0.7909458458
 40
0.8136495053
 40
0.8368406103
 40
0.885827281
 40
0.9399395699
 40
1.0
 40
1.0
 40
1.0
 40
1.0
 10
62.0406579099
 20
88.3362586547
 30
0.0
 10
62.2685192491
 20
88.4262542766
 30
0.0
 10
62.7492158102
 20
88.5788439889
 30
0.0
 10
63.5048333421
 20
88.7240718373
 30
0.0
 10
64.2935333675
 20
88.7882669616
 30
0.0
 10
65.0892963803
 20
88.7693218974
 30
0.0
 10
65.8661285255
 20
88.6678380819
 30
0.0
 10
66.5986468767
 20
88.4871197935
 30
0.0
 10
67.2630985347
 20
88.2329569561
 30
0.0
 10
67.8382349649
 20
87.9130383112
 30
0.0
 10
68.3055972686
 20
87.5368992436
 30
0.0
 10
68.5991568343
 20
87.1754861227
 30
0.0
 10
68.7584368097
 20
86.8714099615
 30
0.0
 10
68.8392648679
 20
86.6429251653
 30
0.0
 10
68.8833652265
 20
86.4107687343
 30
0.0
 10
68.8901613521
 20
86.1770774204
 30
0.0
 10
68.8595583683
 20
85.9440889314
 30
0.0
 10
68.7679056465
 20
85.631890971
 30
0.0
 10
68.5544484936
 20
85.2500427329
 30
0.0
 10
68.1695504893
 20
84.8410210459
 30
0.0
 10
67.850063648
 20
84.6129470991
 30
0.0
 10
67.674414952
 20
84.5067886299
 30
0.0
  0
SPLINE
  5
38A
100
AcDbEntity
  8
0
100
AcDbSpline
 62
7
  6
BYLAYER
 70
0
 71
3
 72
9
 73
5
 74
0
 42
0.0000001
 43
0.0000001
 44
0.0000000001
 40
0.0
 40
0.0
 40
0.0
 40
0.0
 40
0.4885736884
 40
1.0
 40
1.0
 40
1.0
 40
1.0
 10
77.7182113097
 20
86.5316178201
 30
0.0
 10
76.0823587633
 20
87.4464530009
 30
0.0
 10
72.6468299304
 20
89.1655548015
 30
0.0
 10
69.0840874692
 20
90.5994186376
 30
0.0
 10
67.2384297463
 20
91.2648504924
 30
0.0
  0
SPLINE
  5
38B
100
AcDbEntity
  8
0
100
AcDbSpline
 62
7
  6
BYLAYER
 70
0
 71
3
 72
9
 73
5
 74
0
 42
0.0000001
 43
0.0000001
 44
0.0000000001
 40
0.0
 40
0.0
 40
0.0
 40
0.0
 40
0.4857133148
 40
1.0
 40
1.0
 40
1.0
 40
1.0
 10
87.3846051101
 20
79.6169404677
 30
0.0
 10
86.2002193938
 20
80.7154262728
 30
0.0
 10
83.6268863317
 20
82.8341710297
 30
0.0
 10
80.8529394731
 20
84.6788928478
 30
0.0
 10
79.3881387574
 20
85.5619808445
 30
0.0
  0
SPLINE
  5
38C
100
AcDbEntity
  8
0
100
AcDbSpline
 62
7
  6
BYLAYER
 70
0
 71
3
 72
26
 73
22
 74
0
 42
0.0000001
 43
0.0000001
 44
0.0000000001
 40
0.0
 40
0.0
 40
0.0
 40
0.0
 40
0.0653001557
 40
0.1358420591
 40
0.2103737678
 40
0.2873334251
 40
0.3649739832
 40
0.4415014705
 40
0.5151989407
 40
0.5845641106
 40
0.6484593678
 40
0.7062961769
 40
0.7582644546
 40
0.7824406641
 40
0.805699581
 40
0.8283651944
 40
0.8508077256
 40
0.8734158541
 40
0.8965607023
 40
0.9456286819
 40
1.0
 40
1.0
 40
1.0
 40
1.0
 10
75.4605984953
 20
79.8138039821
 30
0.0
 10
75.6553347826
 20
79.9337882527
 30
0.0
 10
76.0824406707
 20
80.1485038605
 30
0.0
 10
76.7819890678
 20
80.3859616294
 30
0.0
 10
77.545072279
 20
80.5452201057
 30
0.0
 10
78.3456748656
 20
80.6208762116
 30
0.0
 10
79.1567458328
 20
80.6103765048
 30
0.0
 10
79.9507009341
 20
80.5140931512
 30
0.0
 10
80.7006485314
 20
80.3352509436
 30
0.0
 10
81.3813568444
 20
80.0798155831
 30
0.0
 10
81.9702632389
 20
79.7557851948
 30
0.0
 10
82.4477927249
 20
79.373160599
 30
0.0
 10
82.7462651967
 20
79.0043724073
 30
0.0
 10
82.9063372002
 20
78.6939614905
 30
0.0
 10
82.9863032111
 20
78.4607974037
 30
0.0
 10
83.0280356079
 20
78.2239569631
 30
0.0
 10
83.0310027702
 20
77.9857298584
 30
0.0
 10
82.9951121553
 20
77.7485205927
 30
0.0
 10
82.8944211227
 20
77.4307327122
 30
0.0
 10
82.6660680217
 20
77.0437222951
 30
0.0
 10
82.4095395915
 20
76.7834062685
 30
0.0
 10
82.2639947469
 20
76.6605720321
 30
0.0
  0
SPLINE
  5
38D
100
AcDbEntity
  8
0
100
AcDbSpline
 62
7
  6
BYLAYER
 70
0
 71
3
 72
26
 73
22
 74
0
 42
0.0000001
 43
0.0000001
 44
0.0000000001
 40
0.0
 40
0.0
 40
0.0
 40
0.0
 40
0.0723105927
 40
0.1481335768
 40
0.2259424392
 40
0.3040582519
 40
0.3807847071
 40
0.4545181283
 40
0.5238680489
 40
0.5877980274
 40
0.6457931005
 40
0.698067618
 40
0.7224370361
 40
0.7458994395
 40
0.7687595804
 40
0.7913644965
 40
0.8140832078
 40
0.8372754351
 40
0.8862038145
 40
0.9401658736
 40
1.0
 40
1.0
 40
1.0
 40
1.0
 10
81.0377997104
 20
75.9690708299
 30
0.0
 10
80.8092811574
 20
75.8833122724
 30
0.0
 10
80.3290694793
 20
75.7387207668
 30
0.0
 10
79.5769783539
 20
75.6038349519
 30
0.0
 10
78.7952192169
 20
75.5485022692
 30
0.0
 10
78.0089396548
 20
75.5745546139
 30
0.0
 10
77.2432848811
 20
75.6811477909
 30
0.0
 10
76.5227104008
 20
75.8649027936
 30
0.0
 10
75.8700626803
 20
76.1200627216
 30
0.0
 10
75.3057538256
 20
76.4390871852
 30
0.0
 10
74.8475118102
 20
76.812683557
 30
0.0
 10
74.5598828577
 20
77.1705898153
 30
0.0
 10
74.4036821909
 20
77.4713138719
 30
0.0
 10
74.3242927658
 20
77.6972494847
 30
0.0
 10
74.280785573
 20
77.9267437074
 30
0.0
 10
74.2737474279
 20
78.157742948
 30
0.0
 10
74.3032412124
 20
78.3880903278
 30
0.0
 10
74.3922475613
 20
78.6967476836
 30
0.0
 10
74.6001206207
 20
79.074676534
 30
0.0
 10
74.9760298376
 20
79.4806550336
 30
0.0
 10
75.2886495689
 20
79.7078598522
 30
0.0
 10
75.4605984953
 20
79.8138039821
 30
0.0
  0
SPLINE
  5
38E
100
AcDbEntity
  8
0
100
AcDbSpline
 62
7
  6
BYLAYER
 70
0
 71
3
 72
9
 73
5
 74
0
 42
0.0000001
 43
0.0000001
 44
0.0000000001
 40
0.0
 40
0.0
 40
0.0
 40
0.0
 40
0.7512706898
 40
1.0
 40
1.0
 40
1.0
 40
1.0
 10
53.5975181997
 20
60.2183997565
 30
0.0
 10
53.6422316501
 20
60.2130099431
 30
0.0
 10
53.7024006576
 20
60.2107462202
 30
0.0
 10
53.7622981988
 20
60.2129814632
 30
0.0
 10
53.7771872541
 20
60.2137865978
 30
0.0
  0
SPLINE
  5
38F
100
AcDbEntity
  8
0
100
AcDbSpline
 62
7
  6
BYLAYER
 70
0
 71
3
 72
9
 73
5
 74
0
 42
0.0000001
 43
0.0000001
 44
0.0000000001
 40
0.0
 40
0.0
 40
0.0
 40
0.0
 40
0.2575395202
 40
1.0
 40
1.0
 40
1.0
 40
1.0
 10
35.3682421632
 20
72.6103910865
 30
0.0
 10
35.3479014282
 20
72.5775767172
 30
0.0
 10
35.2731324519
 20
72.4476255653
 30
0.0
 10
35.216098036
 20
72.3072639477
 30
0.0
 10
35.186354968
 20
72.2000105484
 30
0.0
  0
SPLINE
  5
390
100
AcDbEntity
  8
0
100
AcDbSpline
 62
7
  6
BYLAYER
 70
0
 71
3
 72
15
 73
11
 74
0
 42
0.0000001
 43
0.0000001
 44
0.0000000001
 40
0.0
 40
0.0
 40
0.0
 40
0.0
 40
0.1102094875
 40
0.2197496432
 40
0.3318042034
 40
0.4490833624
 40
0.5736208172
 40
0.7066651919
 40
0.8487981632
 40
1.0
 40
1.0
 40
1.0
 40
1.0
 10
35.186354968
 20
72.2000105484
 30
0.0
 10
35.1599821692
 20
72.1049103283
 30
0.0
 10
35.126780047
 20
71.9091571591
 30
0.0
 10
35.1416313025
 20
71.6102224417
 30
0.0
 10
35.2195043468
 20
71.3147937342
 30
0.0
 10
35.3581721682
 20
71.0279453021
 30
0.0
 10
35.5537350108
 20
70.7534341174
 30
0.0
 10
35.802420197
 20
70.4944641159
 30
0.0
 10
36.1001512064
 20
70.2540940282
 30
0.0
 10
36.321681945
 20
70.1119667294
 30
0.0
 10
36.4389398189
 20
70.0442699005
 30
0.0
  0
SPLINE
  5
391
100
AcDbEntity
  8
0
100
AcDbSpline
 62
7
  6
BYLAYER
 70
0
 71
3
 72
9
 73
5
 74
0
 42
0.0000001
 43
0.0000001
 44
0.0000000001
 40
0.0
 40
0.0
 40
0.0
 40
0.0
 40
0.2668020278
 40
1.0
 40
1.0
 40
1.0
 40
1.0
 10
36.0603951956
 20
73.3365996557
 30
0.0
 10
35.9884509478
 20
73.2833459024
 30
0.0
 10
35.7267881214
 20
73.0737043018
 30
0.0
 10
35.497708185
 20
72.8194929946
 30
0.0
 10
35.3681181198
 20
72.610416739
 30
0.0
  0
SPLINE
  5
392
100
AcDbEntity
  8
0
100
AcDbSpline
 62
7
  6
BYLAYER
 70
0
 71
3
 72
26
 73
22
 74
0
 42
0.0000001
 43
0.0000001
 44
0.0000000001
 40
0.0
 40
0.0
 40
0.0
 40
0.0
 40
0.0666594935
 40
0.1382135212
 40
0.2133960759
 40
0.2906358288
 40
0.3682225508
 40
0.4444193528
 40
0.5175853143
 40
0.5863048105
 40
0.6495324027
 40
0.70677124
 40
0.7582934136
 40
0.782321805
 40
0.8054868131
 40
0.8281102199
 40
0.850554576
 40
0.8731967934
 40
0.8963943079
 40
0.9455757721
 40
1.0
 40
1.0
 40
1.0
 40
1.0
 10
67.5634338804
 20
84.4421004914
 30
0.0
 10
67.363034239
 20
84.3294395804
 30
0.0
 10
66.9282161138
 20
84.1293300691
 30
0.0
 10
66.2233013548
 20
83.9119209817
 30
0.0
 10
65.4619965804
 20
83.7716552661
 30
0.0
 10
64.6693983326
 20
83.7132418289
 30
0.0
 10
63.8715591166
 20
83.7385576453
 30
0.0
 10
63.0947949291
 20
83.8467733738
 30
0.0
 10
62.3646227843
 20
84.034366182
 30
0.0
 10
61.7048517115
 20
84.2952863559
 30
0.0
 10
61.1366898567
 20
84.6216423948
 30
0.0
 10
60.678484218
 20
85.0037191713
 30
0.0
 10
60.3947441656
 20
85.3695756423
 30
0.0
 10
60.2444862554
 20
85.6762282675
 30
0.0
 10
60.1706376365
 20
85.9063728914
 30
0.0
 10
60.1339130481
 20
86.1397982517
 30
0.0
 10
60.134809118
 20
86.3743185536
 30
0.0
 10
60.1733186759
 20
86.6076447164
 30
0.0
 10
60.2759274507
 20
86.9200958902
 30
0.0
 10
60.5032647348
 20
87.3002805562
 30
0.0
 10
60.7564960195
 20
87.5566083064
 30
0.0
 10
60.8999381852
 20
87.6776679293
 30
0.0
  0
SPLINE
  5
393
100
AcDbEntity
  8
0
100
AcDbSpline
 62
7
  6
BYLAYER
 70
0
 71
3
 72
11
 73
7
 74
0
 42
0.0000001
 43
0.0000001
 44
0.0000000001
 40
0.0
 40
0.0
 40
0.0
 40
0.0
 40
0.2896433173
 40
0.5491131736
 40
0.7822372103
 40
1.0
 40
1.0
 40
1.0
 40
1.0
 10
48.1061394025
 20
66.0026626744
 30
0.0
 10
48.1456223155
 20
65.9798677197
 30
0.0
 10
48.2172631773
 20
65.9305050518
 30
0.0
 10
48.3029059462
 20
65.8405302591
 30
0.0
 10
48.3570984923
 20
65.7409702586
 30
0.0
 10
48.3697155172
 20
65.6695197144
 30
0.0
 10
48.3697292865
 20
65.6352432339
 30
0.0
  0
SPLINE
  5
394
100
AcDbEntity
  8
0
100
AcDbSpline
 62
7
  6
BYLAYER
 70
0
 71
3
 72
12
 73
8
 74
0
 42
0.0000001
 43
0.0000001
 44
0.0000000001
 40
0.0
 40
0.0
 40
0.0
 40
0.0
 40
0.1091167269
 40
0.2201281405
 40
0.4539113626
 40
0.7123037939
 40
1.0
 40
1.0
 40
1.0
 40
1.0
 10
74.578067386
 20
77.8417623461
 30
0.0
 10
74.578073318
 20
77.9157034966
 30
0.0
 10
74.5903868422
 20
78.0651544922
 30
0.0
 10
74.6646875176
 20
78.3647905581
 30
0.0
 10
74.8554231685
 20
78.733267637
 30
0.0
 10
75.2127941183
 20
79.128356685
 30
0.0
 10
75.5135332444
 20
79.3481594294
 30
0.0
 10
75.6795104597
 20
79.450424166
 30
0.0
  0
SPLINE
  5
395
100
AcDbEntity
  8
0
100
AcDbSpline
 62
7
  6
BYLAYER
 70
0
 71
3
 72
14
 73
10
 74
0
 42
0.0000001
 43
0.0000001
 44
0.0000000001
 40
0.0
 40
0.0
 40
0.0
 40
0.0
 40
0.0271727331
 40
0.0869039314
 40
0.1800308784
 40
0.3029065208
 40
0.4514739192
 40
0.6210130919
 40
1.0
 40
1.0
 40
1.0
 40
1.0
 10
53.7805164692
 20
47.084569271
 30
0.0
 10
53.7790321403
 20
47.0845172937
 30
0.0
 10
53.7755123209
 20
47.0890098082
 30
0.0
 10
53.7711723362
 20
47.0970535524
 30
0.0
 10
53.7650037513
 20
47.1112153836
 30
0.0
 10
53.7579453052
 20
47.1296946418
 30
0.0
 10
53.7499490086
 20
47.1524919496
 30
0.0
 10
53.7380887066
 20
47.1886797515
 30
0.0
 10
53.7293628835
 20
47.2173774626
 30
0.0
 10
53.7235095164
 20
47.2372483877
 30
0.0
  0
SPLINE
  5
396
100
AcDbEntity
  8
0
100
AcDbSpline
 62
7
  6
BYLAYER
 70
0
 71
3
 72
12
 73
8
 74
0
 42
0.0000001
 43
0.0000001
 44
0.0000000001
 40
0.0
 40
0.0
 40
0.0
 40
0.0
 40
0.1433260006
 40
0.2443035789
 40
0.3654871179
 40
0.6598653533
 40
1.0
 40
1.0
 40
1.0
 40
1.0
 10
53.5501804406
 20
47.0995632622
 30
0.0
 10
53.5425473821
 20
47.1006761033
 30
0.0
 10
53.5313099508
 20
47.1100586588
 30
0.0
 10
53.5207336528
 20
47.1263498825
 30
0.0
 10
53.5085207192
 20
47.1515170469
 30
0.0
 10
53.4965059184
 20
47.1904863996
 30
0.0
 10
53.4896647798
 20
47.2239846463
 30
0.0
 10
53.4866482979
 20
47.2420403298
 30
0.0
  0
SPLINE
  5
397
100
AcDbEntity
  8
0
100
AcDbSpline
 62
7
  6
BYLAYER
 70
0
 71
3
 72
9
 73
5
 74
0
 42
0.0000001
 43
0.0000001
 44
0.0000000001
 40
0.0
 40
0.0
 40
0.0
 40
0.0
 40
0.4933164933
 40
1.0
 40
1.0
 40
1.0
 40
1.0
 10
34.762237031
 20
71.6531429396
 30
0.0
 10
34.7622387909
 20
71.5827042325
 30
0.0
 10
34.7728637824
 20
71.4397426938
 30
0.0
 10
34.8036212252
 20
71.2997968276
 30
0.0
 10
34.8237240631
 20
71.2302985395
 30
0.0
  0
SPLINE
  5
398
100
AcDbEntity
  8
0
100
AcDbSpline
 62
7
  6
BYLAYER
 70
0
 71
3
 72
11
 73
7
 74
0
 42
0.0000001
 43
0.0000001
 44
0.0000000001
 40
0.0
 40
0.0
 40
0.0
 40
0.0
 40
0.2147800519
 40
0.4512847871
 40
0.7128735959
 40
1.0
 40
1.0
 40
1.0
 40
1.0
 10
34.8237240631
 20
71.2302985395
 30
0.0
 10
34.8662976563
 20
71.0831157454
 30
0.0
 10
34.9991207542
 20
70.7855851966
 30
0.0
 10
35.3069243492
 20
70.3767073305
 30
0.0
 10
35.7221041632
 20
69.9967917953
 30
0.0
 10
36.0493313543
 20
69.779222521
 30
0.0
 10
36.2267166459
 20
69.6768112845
 30
0.0
  0
SPLINE
  5
399
100
AcDbEntity
  8
0
100
AcDbSpline
 62
7
  6
BYLAYER
 70
0
 71
3
 72
13
 73
9
 74
0
 42
0.0000001
 43
0.0000001
 44
0.0000000001
 40
0.0
 40
0.0
 40
0.0
 40
0.0
 40
0.0516073371
 40
0.1245303582
 40
0.219830539
 40
0.3367661031
 40
0.6311170997
 40
1.0
 40
1.0
 40
1.0
 40
1.0
 10
36.1333179015
 20
73.6154773661
 30
0.0
 10
36.1289751091
 20
73.6129603263
 30
0.0
 10
36.1207959454
 20
73.6034079409
 30
0.0
 10
36.111259902
 20
73.5843192991
 30
0.0
 10
36.1019018467
 20
73.5581169672
 30
0.0
 10
36.0888781348
 20
73.5105927448
 30
0.0
 10
36.074256603
 20
73.4360374895
 30
0.0
 10
36.0650312452
 20
73.3721895986
 30
0.0
 10
36.0603600035
 20
73.3366162486
 30
0.0
  0
SPLINE
  5
39A
100
AcDbEntity
  8
0
100
AcDbSpline
 62
7
  6
BYLAYER
 70
0
 71
3
 72
11
 73
7
 74
0
 42
0.0000001
 43
0.0000001
 44
0.0000000001
 40
0.0
 40
0.0
 40
0.0
 40
0.0
 40
0.2282359622
 40
0.4661947137
 40
0.7218621595
 40
1.0
 40
1.0
 40
1.0
 40
1.0
 10
60.4358700266
 20
86.0065774366
 30
0.0
 10
60.435868037
 20
86.1247548769
 30
0.0
 10
60.4681354372
 20
86.3671961667
 30
0.0
 10
60.6097020713
 20
86.716772089
 30
0.0
 10
60.8391605205
 20
87.0472884956
 30
0.0
 10
61.0374889887
 20
87.2420414769
 30
0.0
 10
61.1475476895
 20
87.3349267562
 30
0.0
  0
SPLINE
  5
39B
100
AcDbEntity
  8
0
100
AcDbSpline
 62
7
  6
BYLAYER
 70
0
 71
3
 72
8
 73
4
 74
0
 42
0.0000001
 43
0.0000001
 44
0.0000000001
 40
0.0
 40
0.0
 40
0.0
 40
0.0
 40
1.0
 40
1.0
 40
1.0
 40
1.0
 10
87.8475519972
 20
66.7696860416
 30
0.0
 10
87.8475544953
 20
66.7657416166
 30
0.0
 10
87.8461770916
 20
66.7616579172
 30
0.0
 10
87.8439177816
 20
66.7584246506
 30
0.0
  0
SPLINE
  5
39C
100
AcDbEntity
  8
0
100
AcDbSpline
 62
7
  6
BYLAYER
 70
0
 71
3
 72
11
 73
7
 74
0
 42
0.0000001
 43
0.0000001
 44
0.0000000001
 40
0.0
 40
0.0
 40
0.0
 40
0.0
 40
0.1433227553
 40
0.3551738215
 40
0.6421228313
 40
1.0
 40
1.0
 40
1.0
 40
1.0
 10
87.8439177816
 20
66.7584246506
 30
0.0
 10
87.8398607271
 20
66.7526186574
 30
0.0
 10
87.8239327683
 20
66.7430362478
 30
0.0
 10
87.7930560147
 20
66.7359760461
 30
0.0
 10
87.7506124937
 20
66.732953033
 30
0.0
 10
87.7187430955
 20
66.7342566004
 30
0.0
 10
87.7011113951
 20
66.7356455912
 30
0.0
  0
SPLINE
  5
39D
100
AcDbEntity
  8
0
100
AcDbSpline
 62
7
  6
BYLAYER
 70
0
 71
3
 72
11
 73
7
 74
0
 42
0.0000001
 43
0.0000001
 44
0.0000000001
 40
0.0
 40
0.0
 40
0.0
 40
0.0
 40
0.2352933851
 40
0.4816158468
 40
0.7384731683
 40
1.0
 40
1.0
 40
1.0
 40
1.0
 10
87.5879261788
 20
79.592488494
 30
0.0
 10
87.5755446032
 20
79.6038911619
 30
0.0
 10
87.5457010457
 20
79.6227035421
 30
0.0
 10
87.4935273286
 20
79.6349967133
 30
0.0
 10
87.4383321065
 20
79.6327772751
 30
0.0
 10
87.4022114923
 20
79.6232680348
 30
0.0
 10
87.3846050925
 20
79.616940486
 30
0.0
  0
SPLINE
  5
39E
100
AcDbEntity
  8
0
100
AcDbSpline
 62
7
  6
BYLAYER
 70
0
 71
3
 72
13
 73
9
 74
0
 42
0.0000001
 43
0.0000001
 44
0.0000000001
 40
0.0
 40
0.0
 40
0.0
 40
0.0
 40
0.1053440461
 40
0.205473559
 40
0.4161199857
 40
0.5388060803
 40
0.6764897783
 40
1.0
 40
1.0
 40
1.0
 40
1.0
 10
87.6847659936
 20
66.4896450958
 30
0.0
 10
87.6929602612
 20
66.494440877
 30
0.0
 10
87.7079794365
 20
66.5056691687
 30
0.0
 10
87.731150877
 20
66.5357770461
 30
0.0
 10
87.7402021717
 20
66.5756020595
 30
0.0
 10
87.737773231
 20
66.6180047247
 30
0.0
 10
87.7275595297
 20
66.669798239
 30
0.0
 10
87.712818853
 20
66.7089417577
 30
0.0
 10
87.7011113957
 20
66.7356455898
 30
0.0
  0
SPLINE
  5
39F
100
AcDbEntity
  8
0
100
AcDbSpline
 62
7
  6
BYLAYER
 70
0
 71
3
 72
19
 73
15
 74
0
 42
0.0000001
 43
0.0000001
 44
0.0000000001
 40
0.0
 40
0.0
 40
0.0
 40
0.0
 40
0.1371464844
 40
0.2826627774
 40
0.4297026389
 40
0.5711593374
 40
0.6378584399
 40
0.7009733511
 40
0.7600706185
 40
0.8149533652
 40
0.8657208952
 40
0.9128353331
 40
0.9571734246
 40
1.0
 40
1.0
 40
1.0
 40
1.0
 10
62.2100437004
 20
87.9483549107
 30
0.0
 10
62.5281557416
 20
88.0739957535
 30
0.0
 10
63.2111725273
 20
88.2660551488
 30
0.0
 10
64.2804502031
 20
88.3836006535
 30
0.0
 10
65.365951471
 20
88.3356089068
 30
0.0
 10
66.2383203688
 20
88.1567659331
 30
0.0
 10
66.8769708932
 20
87.9308366285
 30
0.0
 10
67.3039215546
 20
87.7295355634
 30
0.0
 10
67.6804380182
 20
87.4966376515
 30
0.0
 10
67.9998156044
 20
87.2360292146
 30
0.0
 10
68.2561843309
 20
86.9519082976
 30
0.0
 10
68.4443449557
 20
86.6486336898
 30
0.0
 10
68.5597199283
 20
86.3315556008
 30
0.0
 10
68.5858757152
 20
86.1133810958
 30
0.0
 10
68.5858686072
 20
86.0065774367
 30
0.0
  0
SPLINE
  5
3A0
100
AcDbEntity
  8
0
100
AcDbSpline
 62
7
  6
BYLAYER
 70
0
 71
3
 72
11
 73
7
 74
0
 42
0.0000001
 43
0.0000001
 44
0.0000000001
 40
0.0
 40
0.0
 40
0.0
 40
0.0
 40
0.2233907305
 40
0.4992812966
 40
0.7747406073
 40
1.0
 40
1.0
 40
1.0
 40
1.0
 10
62.0406538848
 20
88.3362873959
 30
0.0
 10
62.0653164803
 20
88.3154741974
 30
0.0
 10
62.1123470192
 20
88.2595221624
 30
0.0
 10
62.1656135948
 20
88.1604583028
 30
0.0
 10
62.2005529349
 20
88.0532383735
 30
0.0
 10
62.2100558573
 20
87.9808961405
 30
0.0
 10
62.2100556321
 20
87.948354953
 30
0.0
  0
SPLINE
  5
3A1
100
AcDbEntity
  8
0
100
AcDbSpline
 62
7
  6
BYLAYER
 70
0
 71
3
 72
17
 73
13
 74
0
 42
0.0000001
 43
0.0000001
 44
0.0000000001
 40
0.0
 40
0.0
 40
0.0
 40
0.0
 40
0.0428571279
 40
0.0874839091
 40
0.1353159407
 40
0.1872790131
 40
0.3045397098
 40
0.4382076183
 40
0.5825507005
 40
0.7297102646
 40
0.8713099941
 40
1.0
 40
1.0
 40
1.0
 40
1.0
 10
41.9381927801
 20
68.3092202336
 30
0.0
 10
41.9381824882
 20
68.334839216
 30
0.0
 10
41.9450421685
 20
68.3873582847
 30
0.0
 10
41.9751531698
 20
68.4631917876
 30
0.0
 10
42.0240367765
 20
68.5350811361
 30
0.0
 10
42.1160360305
 20
68.6274299554
 30
0.0
 10
42.2728190358
 20
68.7228658799
 30
0.0
 10
42.4982421611
 20
68.7981676055
 30
0.0
 10
42.7512219414
 20
68.8337199061
 30
0.0
 10
43.0112514574
 20
68.8265273415
 30
0.0
 10
43.2571005748
 20
68.7773407443
 30
0.0
 10
43.4079482764
 20
68.7151032222
 30
0.0
 10
43.4745701368
 20
68.6766399433
 30
0.0
  0
SPLINE
  5
3A2
100
AcDbEntity
  8
0
100
AcDbSpline
 62
7
  6
BYLAYER
 70
0
 71
3
 72
11
 73
7
 74
0
 42
0.0000001
 43
0.0000001
 44
0.0000000001
 40
0.0
 40
0.0
 40
0.0
 40
0.0
 40
0.2456979654
 40
0.453115445
 40
0.6591980998
 40
1.0
 40
1.0
 40
1.0
 40
1.0
 10
60.8999435223
 20
87.6776953551
 30
0.0
 10
60.9337225873
 20
87.6643549529
 30
0.0
 10
60.9919792595
 20
87.6289531578
 30
0.0
 10
61.061361771
 20
87.5595859544
 30
0.0
 10
61.1229773902
 20
87.4663317615
 30
0.0
 10
61.1475520165
 20
87.3852967991
 30
0.0
 10
61.1475472483
 20
87.3349210572
 30
0.0
  0
SPLINE
  5
3A3
100
AcDbEntity
  8
0
100
AcDbSpline
 62
7
  6
BYLAYER
 70
0
 71
3
 72
9
 73
5
 74
0
 42
0.0000001
 43
0.0000001
 44
0.0000000001
 40
0.0
 40
0.0
 40
0.0
 40
0.0
 40
0.2683009027
 40
1.0
 40
1.0
 40
1.0
 40
1.0
 10
67.1612724135
 20
91.2926301698
 30
0.0
 10
67.1411097958
 20
91.3015381035
 30
0.0
 10
67.0645254196
 20
91.3311140318
 30
0.0
 10
66.9812936113
 20
91.3456684555
 30
0.0
 10
66.9212254268
 20
91.343320659
 30
0.0
  0
SPLINE
  5
3A4
100
AcDbEntity
  8
0
100
AcDbSpline
 62
7
  6
BYLAYER
 70
0
 71
3
 72
9
 73
5
 74
0
 42
0.0000001
 43
0.0000001
 44
0.0000000001
 40
0.0
 40
0.0
 40
0.0
 40
0.0
 40
0.256060543
 40
1.0
 40
1.0
 40
1.0
 40
1.0
 10
66.9212254268
 20
91.343320659
 30
0.0
 10
66.9143653757
 20
91.3430525303
 30
0.0
 10
66.887607966
 20
91.3413412887
 30
0.0
 10
66.8610019703
 20
91.3368663386
 30
0.0
 10
66.8417079247
 20
91.3318087748
 30
0.0
  0
SPLINE
  5
3A5
100
AcDbEntity
  8
0
100
AcDbSpline
 62
7
  6
BYLAYER
 70
0
 71
3
 72
9
 73
5
 74
0
 42
0.0000001
 43
0.0000001
 44
0.0000000001
 40
0.0
 40
0.0
 40
0.0
 40
0.0
 40
0.4839191205
 40
1.0
 40
1.0
 40
1.0
 40
1.0
 10
61.377490388
 20
88.0504084309
 30
0.0
 10
61.4785423461
 20
88.1087526534
 30
0.0
 10
61.6944332068
 20
88.2172587868
 30
0.0
 10
61.9212011045
 20
88.3013933706
 30
0.0
 10
62.0406578162
 20
88.3362586486
 30
0.0
  0
SPLINE
  5
3A6
100
AcDbEntity
  8
0
100
AcDbSpline
 62
7
  6
BYLAYER
 70
0
 71
3
 72
9
 73
5
 74
0
 42
0.0000001
 43
0.0000001
 44
0.0000000001
 40
0.0
 40
0.0
 40
0.0
 40
0.0
 40
0.4764016705
 40
1.0
 40
1.0
 40
1.0
 40
1.0
 10
60.8999392775
 20
87.6776684245
 30
0.0
 10
60.9635208097
 20
87.7502818891
 30
0.0
 10
61.1151967212
 20
87.8868685067
 30
0.0
 10
61.2856234881
 20
87.9973712073
 30
0.0
 10
61.377490388
 20
88.0504084309
 30
0.0
  0
SPLINE
  5
3A7
100
AcDbEntity
  8
0
100
AcDbSpline
 62
7
  6
BYLAYER
 70
0
 71
3
 72
15
 73
11
 74
0
 42
0.0000001
 43
0.0000001
 44
0.0000000001
 40
0.0
 40
0.0
 40
0.0
 40
0.0
 40
0.1141300247
 40
0.2372866161
 40
0.3669313292
 40
0.4999583186
 40
0.6329894636
 40
0.7626521155
 40
0.8858368675
 40
1.0
 40
1.0
 40
1.0
 40
1.0
 10
67.3940104778
 20
84.6481294729
 30
0.0
 10
67.1967874933
 20
84.7621279467
 30
0.0
 10
66.7654584996
 20
84.9632022462
 30
0.0
 10
66.0629650525
 20
85.1769606961
 30
0.0
 10
65.3023064355
 20
85.3085962459
 30
0.0
 10
64.5120775164
 20
85.3531001591
 30
0.0
 10
63.7217979168
 20
85.308865399
 30
0.0
 10
62.9609932897
 20
85.177488659
 30
0.0
 10
62.2582652793
 20
84.9639608606
 30
0.0
 10
61.8267355849
 20
84.7630317851
 30
0.0
 10
61.6293980092
 20
84.6490995679
 30
0.0
  0
SPLINE
  5
3A8
100
AcDbEntity
  8
0
100
AcDbSpline
 62
7
  6
BYLAYER
 70
0
 71
3
 72
11
 73
7
 74
0
 42
0.0000001
 43
0.0000001
 44
0.0000000001
 40
0.0
 40
0.0
 40
0.0
 40
0.0
 40
0.2501050232
 40
0.4989138331
 40
0.7481838242
 40
1.0
 40
1.0
 40
1.0
 40
1.0
 10
54.7529843818
 20
47.713149138
 30
0.0
 10
54.7411230508
 20
47.6664797248
 30
0.0
 10
54.70634095
 20
47.5758796337
 30
0.0
 10
54.626136945
 20
47.4550022251
 30
0.0
 10
54.5231673927
 20
47.3525583693
 30
0.0
 10
54.4432340082
 20
47.2975922307
 30
0.0
 10
54.4012397759
 20
47.2733631882
 30
0.0
  0
SPLINE
  5
3A9
100
AcDbEntity
  8
0
100
AcDbSpline
 62
7
  6
BYLAYER
 70
0
 71
3
 72
11
 73
7
 74
0
 42
0.0000001
 43
0.0000001
 44
0.0000000001
 40
0.0
 40
0.0
 40
0.0
 40
0.0
 40
0.2326659166
 40
0.478140271
 40
0.734659011
 40
1.0
 40
1.0
 40
1.0
 40
1.0
 10
55.8489953316
 20
54.30639523
 30
0.0
 10
55.8489953316
 20
53.9596547165
 30
0.0
 10
55.8097788624
 20
53.2467201799
 30
0.0
 10
55.6462857593
 20
52.162734404
 30
0.0
 10
55.3786633826
 20
51.0496213738
 30
0.0
 10
55.1370669874
 20
50.3094250254
 30
0.0
 10
55.000470713
 20
49.9383306188
 30
0.0
  0
SPLINE
  5
3AA
100
AcDbEntity
  8
0
100
AcDbSpline
 62
7
  6
BYLAYER
 70
0
 71
3
 72
11
 73
7
 74
0
 42
0.0000001
 43
0.0000001
 44
0.0000000001
 40
0.0
 40
0.0
 40
0.0
 40
0.0
 40
0.2245981535
 40
0.4651716146
 40
0.7235046023
 40
1.0
 40
1.0
 40
1.0
 40
1.0
 10
55.000470713
 20
57.6946738558
 30
0.0
 10
55.1432295522
 20
57.4716801846
 30
0.0
 10
55.3952687886
 20
56.9809545992
 30
0.0
 10
55.6587107378
 20
56.1665803355
 30
0.0
 10
55.8163732083
 20
55.2635724985
 30
0.0
 10
55.8489953316
 20
54.6323520977
 30
0.0
 10
55.8489953316
 20
54.30639523
 30
0.0
  0
SPLINE
  5
3AB
100
AcDbEntity
  8
0
100
AcDbSpline
 62
7
  6
BYLAYER
 70
0
 71
3
 72
13
 73
9
 74
0
 42
0.0000001
 43
0.0000001
 44
0.0000000001
 40
0.0
 40
0.0
 40
0.0
 40
0.0
 40
0.2404986565
 40
0.3691310816
 40
0.5002275048
 40
0.7595056148
 40
0.8831948886
 40
1.0
 40
1.0
 40
1.0
 40
1.0
 10
77.3234308549
 20
75.7776853783
 30
0.0
 10
77.5226397828
 20
75.8699251998
 30
0.0
 10
77.8485931788
 20
75.969868939
 30
0.0
 10
78.3006795947
 20
76.0364466396
 30
0.0
 10
78.7745265461
 20
76.0588659023
 30
0.0
 10
79.245347984
 20
76.0135344153
 30
0.0
 10
79.6876262801
 20
75.8989827907
 30
0.0
 10
79.8930452159
 20
75.8196064773
 30
0.0
 10
79.9896436305
 20
75.7744782655
 30
0.0
  0
SPLINE
  5
3AC
100
AcDbEntity
  8
0
100
AcDbSpline
 62
7
  6
BYLAYER
 70
0
 71
3
 72
11
 73
7
 74
0
 42
0.0000001
 43
0.0000001
 44
0.0000000001
 40
0.0
 40
0.0
 40
0.0
 40
0.0
 40
0.2672556049
 40
0.5252926091
 40
0.7692063142
 40
1.0
 40
1.0
 40
1.0
 40
1.0
 10
82.2639918939
 20
76.6605890761
 30
0.0
 10
82.2471705562
 20
76.6672329307
 30
0.0
 10
82.212858071
 20
76.6774295108
 30
0.0
 10
82.1604353267
 20
76.6813681931
 30
0.0
 10
82.1111382484
 20
76.6714310807
 30
0.0
 10
82.08261567
 20
76.6551101802
 30
0.0
 10
82.0706911866
 20
76.64502352
 30
0.0
  0
SPLINE
  5
3AD
100
AcDbEntity
  8
0
100
AcDbSpline
 62
7
  6
BYLAYER
 70
0
 71
3
 72
11
 73
7
 74
0
 42
0.0000001
 43
0.0000001
 44
0.0000000001
 40
0.0
 40
0.0
 40
0.0
 40
0.0
 40
0.2749773671
 40
0.5380825511
 40
0.7793734465
 40
1.0
 40
1.0
 40
1.0
 40
1.0
 10
81.7864471098
 20
76.2675746499
 30
0.0
 10
81.7717427183
 20
76.2793055741
 30
0.0
 10
81.7411332005
 20
76.3001184939
 30
0.0
 10
81.6914637617
 20
76.3208561447
 30
0.0
 10
81.6413051229
 20
76.326429402
 30
0.0
 10
81.6097826617
 20
76.3173349682
 30
0.0
 10
81.5967483435
 20
76.3097264652
 30
0.0
  0
SPLINE
  5
3AE
100
AcDbEntity
  8
0
100
AcDbSpline
 62
7
  6
BYLAYER
 70
0
 71
3
 72
22
 73
18
 74
0
 42
0.0000001
 43
0.0000001
 44
0.0000000001
 40
0.0
 40
0.0
 40
0.0
 40
0.0
 40
0.0624447638
 40
0.1288837066
 40
0.1985608917
 40
0.2706320055
 40
0.4177711817
 40
0.4908543493
 40
0.5621769976
 40
0.6307830151
 40
0.6958507534
 40
0.756752341
 40
0.8131226566
 40
0.8649447244
 40
0.9126476595
 40
0.9571802781
 40
1.0
 40
1.0
 40
1.0
 40
1.0
 10
75.7715925122
 20
79.5053434209
 30
0.0
 10
75.918341887
 20
79.5900687062
 30
0.0
 10
76.2329533836
 20
79.7450957397
 30
0.0
 10
76.7404368413
 20
79.9287958545
 30
0.0
 10
77.2889853001
 20
80.0676881382
 30
0.0
 10
78.0641126557
 20
80.1899679921
 30
0.0
 10
78.8616695935
 20
80.2111073595
 30
0.0
 10
79.6495442266
 20
80.1317489579
 30
0.0
 10
80.2181494352
 20
80.0231719215
 30
0.0
 10
80.7532058587
 20
79.867802134
 30
0.0
 10
81.2434333509
 20
79.6688883614
 30
0.0
 10
81.6784732794
 20
79.4305195048
 30
0.0
 10
82.0491745524
 20
79.1573845702
 30
0.0
 10
82.347576588
 20
78.854615662
 30
0.0
 10
82.566743807
 20
78.5276010572
 30
0.0
 10
82.7003971184
 20
78.1828687571
 30
0.0
 10
82.7291500715
 20
77.9445045632
 30
0.0
 10
82.7279982134
 20
77.8283138398
 30
0.0
  0
SPLINE
  5
3AF
100
AcDbEntity
  8
0
100
AcDbSpline
 62
7
  6
BYLAYER
 70
0
 71
3
 72
10
 73
6
 74
0
 42
0.0000001
 43
0.0000001
 44
0.0000000001
 40
0.0
 40
0.0
 40
0.0
 40
0.0
 40
0.2599757117
 40
0.6366461712
 40
1.0
 40
1.0
 40
1.0
 40
1.0
 10
61.6293980749
 20
87.6643661509
 30
0.0
 10
61.5854462227
 20
87.6392118563
 30
0.0
 10
61.4789989154
 20
87.5755435655
 30
0.0
 10
61.316074498
 20
87.4685486643
 30
0.0
 10
61.2018086977
 20
87.3803720693
 30
0.0
 10
61.1475476895
 20
87.3349267562
 30
0.0
  0
SPLINE
  5
3B0
100
AcDbEntity
  8
0
100
AcDbSpline
 62
7
  6
BYLAYER
 70
0
 71
3
 72
13
 73
9
 74
0
 42
0.0000001
 43
0.0000001
 44
0.0000000001
 40
0.0
 40
0.0
 40
0.0
 40
0.0
 40
0.211973232
 40
0.3443476785
 40
0.4868890741
 40
0.6315827918
 40
0.7698318636
 40
1.0
 40
1.0
 40
1.0
 40
1.0
 10
61.3774892626
 20
88.0504169962
 30
0.0
 10
61.4096823091
 20
88.0389270215
 30
0.0
 10
61.4576460409
 20
88.0079713081
 30
0.0
 10
61.5130230838
 20
87.9522756353
 30
0.0
 10
61.5540439427
 20
87.8981302608
 30
0.0
 10
61.5874754298
 20
87.8379488933
 30
0.0
 10
61.6182211352
 20
87.7610505811
 30
0.0
 10
61.6294002286
 20
87.7014815164
 30
0.0
 10
61.6293990153
 20
87.6643654332
 30
0.0
  0
SPLINE
  5
3B1
100
AcDbEntity
  8
0
100
AcDbSpline
 62
7
  6
BYLAYER
 70
0
 71
3
 72
10
 73
6
 74
0
 42
0.0000001
 43
0.0000001
 44
0.0000000001
 40
0.0
 40
0.0
 40
0.0
 40
0.0
 40
0.2573116919
 40
0.6349082536
 40
1.0
 40
1.0
 40
1.0
 40
1.0
 10
62.2100437004
 20
87.9483549107
 30
0.0
 10
62.1585165431
 20
87.9277775294
 30
0.0
 10
62.0322381299
 20
87.8747782094
 30
0.0
 10
61.8380794381
 20
87.7807128658
 30
0.0
 10
61.6974275828
 20
87.7039836653
 30
0.0
 10
61.6293980749
 20
87.6643661504
 30
0.0
  0
SPLINE
  5
3B2
100
AcDbEntity
  8
0
100
AcDbSpline
 62
7
  6
BYLAYER
 70
0
 71
3
 72
13
 73
9
 74
0
 42
0.0000001
 43
0.0000001
 44
0.0000000001
 40
0.0
 40
0.0
 40
0.0
 40
0.0
 40
0.2401707517
 40
0.3687203954
 40
0.4997945266
 40
0.759198142
 40
0.8830234757
 40
1.0
 40
1.0
 40
1.0
 40
1.0
 10
63.1741035783
 20
83.9391832343
 30
0.0
 10
63.3728278889
 20
84.0320104066
 30
0.0
 10
63.6983281039
 20
84.1327957318
 30
0.0
 10
64.1500801901
 20
84.2004453995
 30
0.0
 10
64.62412934
 20
84.223964321
 30
0.0
 10
65.0954951446
 20
84.1796136006
 30
0.0
 10
65.5386443336
 20
84.0659675479
 30
0.0
 10
65.7446299854
 20
83.9869871003
 30
0.0
 10
65.8415440055
 20
83.9420419878
 30
0.0
  0
SPLINE
  5
3B3
100
AcDbEntity
  8
0
100
AcDbSpline
 62
7
  6
BYLAYER
 70
0
 71
3
 72
9
 73
5
 74
0
 42
0.0000001
 43
0.0000001
 44
0.0000000001
 40
0.0
 40
0.0
 40
0.0
 40
0.0
 40
0.2570675123
 40
1.0
 40
1.0
 40
1.0
 40
1.0
 10
78.4338035733
 20
86.1250064676
 30
0.0
 10
78.3788901913
 20
86.171937501
 30
0.0
 10
78.1622208713
 20
86.3507334133
 30
0.0
 10
77.9302184381
 20
86.5122202753
 30
0.0
 10
77.7477863151
 20
86.6137124211
 30
0.0
  0
SPLINE
  5
3B4
100
AcDbEntity
  8
0
100
AcDbSpline
 62
7
  6
BYLAYER
 70
0
 71
3
 72
10
 73
6
 74
0
 42
0.0000001
 43
0.0000001
 44
0.0000000001
 40
0.0
 40
0.0
 40
0.0
 40
0.0
 40
0.4979707038
 40
0.7521511882
 40
1.0
 40
1.0
 40
1.0
 40
1.0
 10
87.7011115205
 20
78.6565809076
 30
0.0
 10
87.7315345905
 20
78.7611211371
 30
0.0
 10
87.7505050151
 20
78.9290294647
 30
0.0
 10
87.7149125979
 20
79.1456714092
 30
0.0
 10
87.6746029949
 20
79.2491508085
 30
0.0
 10
87.6482962738
 20
79.2965271577
 30
0.0
  0
ELLIPSE
  5
3B5
100
AcDbEntity
  8
0
100
AcDbEllipse
 62
7
  6
BYLAYER
 10
39.7622358367
 20
71.1692815006
 30
0.0
 11
4.9999924905
 21
-0.015062332
 31
0.0
 40
0.575323159
 41
-3.139859511
 42
-2.3544571842
  0
ELLIPSE
  5
3B6
100
AcDbEntity
  8
0
100
AcDbEllipse
 62
7
  6
BYLAYER
 10
53.9044527138
 20
59.9126543005
 30
0.0
 11
1.1999981977
 21
-0.0036149597
 31
0.0
 40
0.575323159
 41
-2.3544571144
 42
-0.7836608574
  0
ELLIPSE
  5
3B7
100
AcDbEntity
  8
0
100
AcDbEllipse
 62
7
  6
BYLAYER
 10
48.191541051
 20
50.5625134147
 30
0.0
 11
4.9738187865
 21
8.6753520842
 31
0.0
 40
0.5753331358
 41
-1.0695815896
 42
-0.5047066892
  0
ELLIPSE
  5
3B8
100
AcDbEntity
  8
0
100
AcDbEllipse
 62
7
  6
BYLAYER
 10
53.9044527138
 20
48.4143570934
 30
0.0
 11
1.1999981467
 21
0.0036402846
 31
0.0
 40
0.5793538371
 41
-2.3579478176
 42
-0.7871515116
  0
ELLIPSE
  5
3B9
100
AcDbEntity
  8
0
100
AcDbEllipse
 62
7
  6
BYLAYER
 10
39.7622358367
 20
59.6926453779
 30
0.0
 11
4.9999922779
 21
0.0151678526
 31
0.0
 40
0.5793538371
 41
9.3963981268
 42
10.2084227759
  0
ENDSEC
  0
SECTION
  2
OBJECTS
  0
DICTIONARY
  5
C
100
AcDbDictionary
280
0
281
1
  3
ACAD_GROUP
350
D
  3
ACAD_MLINESTYLE
350
17
  3
ACAD_LAYOUT
350
1A
  3
ACAD_PLOTSETTINGS
350
19
  3
ACAD_PLOTSTYLENAME
350
E
  0
DICTIONARY
  5
D
102
{ACAD_REACTORS
330
C
102
}
100
AcDbDictionary
280
0
281
1
  0
ACDBDICTIONARYWDFLT
  5
E
102
{ACAD_REACTORS
330
C
102
}
100
AcDbDictionary
281
1
  3
Normal
350
F
100
AcDbDictionaryWithDefault
340
F
  0
DICTIONARY
  5
17
102
{ACAD_REACTORS
330
C
102
}
100
AcDbDictionary
280
0
281
1
  3
Standard
350
18
  0
DICTIONARY
  5
19
102
{ACAD_REACTORS
330
C
102
}
100
AcDbDictionary
281
1
  0
DICTIONARY
  5
1A
102
{ACAD_REACTORS
330
C
102
}
100
AcDbDictionary
281
1
  3
Model
350
3BA
  3
Layout1
350
3BB
  0
ACDBPLACEHOLDER
  5
F
102
{ACAD_REACTORS
330
E
102
}
  0
MLINESTYLE
  5
18
102
{ACAD_REACTORS
330
17
102
}
100
AcDbMlineStyle
  2
STANDARD
 70
0
  3

 62
256
 51
90.0
 52
90.0
 71
2
 49
0.5
 62
256
  6
BYLAYER
 49
-0.5
 62
256
  6
BYLAYER
  0
LAYOUT
  5
3BA
102
{ACAD_REACTORS
330
1A
102
}
100
AcDbPlotSettings
  1

  2
none_device
  4

  6

 40
0.0
 41
0.0
 42
0.0
 43
0.0
 44
210.0
 45
297.0
 46
0.0
 47
0.0
 48
0.0
 49
0.0
140
0.0
141
0.0
142
1.0
143
1.0
 70
1024
 72
1
 73
0
 74
0
  7

 75
0
147
1.0
148
0.0
149
0.0
100
AcDbLayout
  1
Model
 70
0
 71
0
 10
0.0
 20
0.0
 11
210.0
 21
297.0
 12
0.0
 22
0.0
 32
0.0
 14
0.0
 24
0.0
 34
0.0
 15
0.0
 25
0.0
 35
0.0
146
0.0
 13
0.0
 23
0.0
 33
0.0
 16
1.0
 26
0.0
 36
0.0
 17
0.0
 27
1.0
 37
0.0
 76
0
330
210
345
0
346
0
  0
LAYOUT
  5
3BB
102
{ACAD_REACTORS
330
1A
102
}
100
AcDbPlotSettings
  1

  2
none_device
  4

  6

 40
0.0
 41
0.0
 42
0.0
 43
0.0
 44
210.0
 45
297.0
 46
0.0
 47
0.0
 48
0.0
 49
0.0
140
0.0
141
0.0
142
1.0
143
1.0
 70
0
 72
1
 73
0
 74
0
  7

 75
0
147
1.0
148
0.0
149
0.0
100
AcDbLayout
  1
Layout1
 70
0
 71
1
 10
0.0
 20
0.0
 11
210.0
 21
297.0
 12
0.0
 22
0.0
 32
0.0
 14
0.0
 24
0.0
 34
0.0
 15
0.0
 25
0.0
 35
0.0
146
0.0
 13
0.0
 23
0.0
 33
0.0
 16
1.0
 26
0.0
 36
0.0
 17
0.0
 27
1.0
 37
0.0
 76
0
330
211
345
0
346
0
  0
ENDSEC
  0
EOF
