999
DXF file: C:\Users\sesa63760\Documents\7-Dev\_Creo\CAD\MCADFD0001429_3D-CAD\drw0001_3.dxf
999
Pro/ENGINEER 2019471 by Parametric Technology Corporation
  0
SECTION
  2
HEADER
  9
$ACADVER
  1
AC1024
  9
$DWGCODEPAGE
  3
ANSI_1252
  9
$EXTMAX
 10
60.1338256977
 20
85.0464106296
 30
0.0
  9
$EXTMIN
 10
0.0
 20
0.0
 30
0.0
  9
$LIMMIN
 10
0.0
 20
0.0
  9
$LIMMAX
 10
60.1338256977
 20
85.0464106296
  9
$VIEWCTR
 10
30.0669128489
 20
42.5232053148
  9
$VIEWSIZE
 40
85.0464106296
  9
$CLAYER
  8
0
  9
$LTSCALE
 40
5.5437660262
  9
$CELTYPE
  6
BYLAYER
  9
$DIMSCALE
 40
1.0
  9
$DIMASZ
 40
0.7158788774
  9
$DIMEXO
 40
1.0
  9
$DIMDLI
 40
3.8302383454
  9
$DIMEXE
 40
1.0
  9
$DIMCEN
 40
0.9071617134
  9
$DIMLFAC
 40
1.0
  9
$DIMBLK
  1
_FILLED
  9
$DIMALT
 70
0
  9
$DIMALTF
 40
0.0393700787
  9
$DIMTXT
 40
1.0022304283
  9
$DIMTOL
 70
1
  9
$DIMLIM
 70
0
  9
$DIMTFAC
 40
1.0
  9
$DIMTP
 40
0.01
  9
$DIMTM
 40
0.01
  9
$DIMGAP
 40
0.625
  9
$DIMDSEP
 70
46
  9
$AUNITS
 70
0
  9
$PDMODE
 70
3
  9
$PDSIZE
 40
0.3125
  9
$HANDSEED
  5
281
  9
$TILEMODE
 70
1
  9
$MEASUREMENT
 70
1
  9
$INSUNITS
 70
4
  0
ENDSEC
  0
SECTION
  2
CLASSES
  0
CLASS
  1
ACDBDICTIONARYWDFLT
  2
AcDbDictionaryWithDefault
  3
AutoCAD 2000
 90
0
 91
1
280
0
281
0
  0
CLASS
  1
ACDBPLACEHOLDER
  2
AcDbPlaceHolder
  3
AutoCAD 2000
 90
0
 91
1
280
0
281
0
  0
CLASS
  1
LAYOUT
  2
AcDbLayout
  3
AutoCAD 2000
 90
0
 91
0
280
0
281
0
  0
ENDSEC
  0
SECTION
  2
TABLES
  0
TABLE
  2
VPORT
  5
8
100
AcDbSymbolTable
 70
2
  0
VPORT
  5
1F4
100
AcDbSymbolTableRecord
100
AcDbViewportTableRecord
  2
*ACTIVE
 70
0
 10
0.0
 20
0.0
 11
1.0
 21
1.0
 12
30.0669128489
 22
42.5232053148
 13
0.0
 23
0.0
 14
1.0
 24
1.0
 15
0.0
 25
0.0
 16
0.0
 26
0.0
 36
1.0
 17
0.0
 27
0.0
 37
0.0
 40
85.0464106296
 41
0.7070707071
 42
50.0
 43
0.0
 44
0.0
 50
0.0
 51
0.0
 71
0
 72
100
 73
1
 74
1
 75
0
 76
0
 77
0
 78
0
  0
ENDTAB
  0
TABLE
  2
LTYPE
  5
5
100
AcDbSymbolTable
 70
6
  0
LTYPE
  5
14
100
AcDbSymbolTableRecord
100
AcDbLinetypeTableRecord
  2
BYBLOCK
 70
0
  3

 72
65
 73
0
 40
0.0
  0
LTYPE
  5
15
100
AcDbSymbolTableRecord
100
AcDbLinetypeTableRecord
  2
BYLAYER
 70
0
  3

 72
65
 73
0
 40
0.0
  0
LTYPE
  5
16
100
AcDbSymbolTableRecord
100
AcDbLinetypeTableRecord
  2
CONTINUOUS
 70
64
  3
Solid line
 72
65
 73
0
 40
0.0
  0
LTYPE
  5
1F5
100
AcDbSymbolTableRecord
100
AcDbLinetypeTableRecord
  2
CENTER
 70
64
  3
____ _ ____ _ ____ _ ____ _ ____ _ ____ _ ____
 72
65
 73
4
 40
0.6
 49
0.375
 74
0
 49
-0.075
 74
0
 49
0.075
 74
0
 49
-0.075
 74
0
  0
LTYPE
  5
1F6
100
AcDbSymbolTableRecord
100
AcDbLinetypeTableRecord
  2
HIDDEN
 70
64
  3
- - - - - - - - - - - - - - - - - - - -
 72
65
 73
2
 40
0.2
 49
0.1
 74
0
 49
-0.1
 74
0
  0
LTYPE
  5
1F7
100
AcDbSymbolTableRecord
100
AcDbLinetypeTableRecord
  2
PHANTOM
 70
64
  3
_____ _ _ _____ _ _ _____ _ _ _____
 72
65
 73
6
 40
0.8
 49
0.45
 74
0
 49
-0.05
 74
0
 49
0.1
 74
0
 49
-0.05
 74
0
 49
0.1
 74
0
 49
-0.05
 74
0
  0
LTYPE
  5
1F8
100
AcDbSymbolTableRecord
100
AcDbLinetypeTableRecord
  2
DOT
 70
64
  3
. . . . . . . . . . . . . . . . . . . .
 72
65
 73
2
 40
0.2
 49
0.1
 74
0
 49
-0.1
 74
0
  0
LTYPE
  5
1F9
100
AcDbSymbolTableRecord
100
AcDbLinetypeTableRecord
  2
DASHED
 70
64
  3
- - - - - - - - - - - - - - - - - - - -
 72
65
 73
2
 40
0.2
 49
0.1
 74
0
 49
-0.1
 74
0
  0
ENDTAB
  0
TABLE
  2
LAYER
  5
2
100
AcDbSymbolTable
 70
36
  0
LAYER
  5
10
100
AcDbSymbolTableRecord
100
AcDbLayerTableRecord
  2
0
 70
0
 62
7
  6
CONTINUOUS
370
-3
390
F
  0
LAYER
  5
1FA
100
AcDbSymbolTableRecord
100
AcDbLayerTableRecord
  2
DEFAULT_1
 70
0
 62
7
  6
CENTER
370
-3
390
F
  0
LAYER
  5
1FB
100
AcDbSymbolTableRecord
100
AcDbLayerTableRecord
  2
DEFAULT_2
 70
0
 62
8
  6
HIDDEN
370
-3
390
F
  0
LAYER
  5
1FC
100
AcDbSymbolTableRecord
100
AcDbLayerTableRecord
  2
DEFAULT_3
 70
0
 62
7
  6
PHANTOM
370
-3
390
F
  0
LAYER
  5
1FD
100
AcDbSymbolTableRecord
100
AcDbLayerTableRecord
  2
00_COMPONENTS
 70
0
 62
7
  6
CONTINUOUS
370
-3
390
F
  0
LAYER
  5
1FE
100
AcDbSymbolTableRecord
100
AcDbLayerTableRecord
  2
01_1_DEFAULT_DATUMS
 70
0
 62
7
  6
CONTINUOUS
370
-3
390
F
  0
LAYER
  5
1FF
100
AcDbSymbolTableRecord
100
AcDbLayerTableRecord
  2
01_PLANES
 70
0
 62
7
  6
CONTINUOUS
370
-3
390
F
  0
LAYER
  5
200
100
AcDbSymbolTableRecord
100
AcDbLayerTableRecord
  2
02_COORD_SYS
 70
0
 62
7
  6
CONTINUOUS
370
-3
390
F
  0
LAYER
  5
201
100
AcDbSymbolTableRecord
100
AcDbLayerTableRecord
  2
03_AXES
 70
0
 62
7
  6
CONTINUOUS
370
-3
390
F
  0
LAYER
  5
202
100
AcDbSymbolTableRecord
100
AcDbLayerTableRecord
  2
04_POINTS
 70
0
 62
7
  6
CONTINUOUS
370
-3
390
F
  0
LAYER
  5
203
100
AcDbSymbolTableRecord
100
AcDbLayerTableRecord
  2
05_CURVES
 70
0
 62
7
  6
CONTINUOUS
370
-3
390
F
  0
LAYER
  5
204
100
AcDbSymbolTableRecord
100
AcDbLayerTableRecord
  2
06_SURFS
 70
0
 62
7
  6
CONTINUOUS
370
-3
390
F
  0
LAYER
  5
205
100
AcDbSymbolTableRecord
100
AcDbLayerTableRecord
  2
07_COSMETICS
 70
0
 62
7
  6
CONTINUOUS
370
-3
390
F
  0
LAYER
  5
206
100
AcDbSymbolTableRecord
100
AcDbLayerTableRecord
  2
10_NOTES
 70
0
 62
7
  6
CONTINUOUS
370
-3
390
F
  0
LAYER
  5
207
100
AcDbSymbolTableRecord
100
AcDbLayerTableRecord
  2
11_NOTES_PUB
 70
0
 62
7
  6
CONTINUOUS
370
-3
390
F
  0
LAYER
  5
208
100
AcDbSymbolTableRecord
100
AcDbLayerTableRecord
  2
13_REF_GTOL
 70
0
 62
7
  6
CONTINUOUS
370
-3
390
F
  0
LAYER
  5
209
100
AcDbSymbolTableRecord
100
AcDbLayerTableRecord
  2
16_MISC
 70
0
 62
7
  6
CONTINUOUS
370
-3
390
F
  0
LAYER
  5
20A
100
AcDbSymbolTableRecord
100
AcDbLayerTableRecord
  2
17_NO_PRINT
 70
0
 62
7
  6
CONTINUOUS
370
-3
390
F
  0
LAYER
  5
20B
100
AcDbSymbolTableRecord
100
AcDbLayerTableRecord
  2
18_DATUM_CAMS_JOINTS
 70
0
 62
7
  6
CONTINUOUS
370
-3
390
F
  0
LAYER
  5
20C
100
AcDbSymbolTableRecord
100
AcDbLayerTableRecord
  2
19_DATUM_FUNCTIONAL
 70
0
 62
7
  6
CONTINUOUS
370
-3
390
F
  0
LAYER
  5
20D
100
AcDbSymbolTableRecord
100
AcDbLayerTableRecord
  2
20_DATUM_KINEMATIC_SCHEME
 70
0
 62
7
  6
CONTINUOUS
370
-3
390
F
  0
ENDTAB
  0
TABLE
  2
STYLE
  5
3
100
AcDbSymbolTable
 70
1
  0
STYLE
  5
11
100
AcDbSymbolTableRecord
100
AcDbTextStyleTableRecord
  2
STANDARD
 70
0
 40
0.0
 41
0.8
 50
0.0
 71
0
 42
0.2
  3
txt
  4

  0
STYLE
  5
20E
100
AcDbSymbolTableRecord
100
AcDbTextStyleTableRecord
  2
TEXTSTYLE_1
 70
0
 40
0.0
 41
0.8
 50
0.0
 71
0
 42
0.2
  3
gdt
  4

  0
ENDTAB
  0
TABLE
  2
VIEW
  5
6
100
AcDbSymbolTable
 70
0
  0
ENDTAB
  0
TABLE
  2
UCS
  5
7
100
AcDbSymbolTable
 70
0
  0
ENDTAB
  0
TABLE
  2
APPID
  5
9
100
AcDbSymbolTable
 70
1
  0
APPID
  5
20F
100
AcDbSymbolTableRecord
100
AcDbRegAppTableRecord
  2
ACAD
 70
0
  0
ENDTAB
  0
TABLE
  2
BLOCK_RECORD
  5
1
100
AcDbSymbolTable
 70
0
  0
BLOCK_RECORD
  5
210
100
AcDbSymbolTableRecord
100
AcDbBlockTableRecord
  2
*Model_Space
  0
BLOCK_RECORD
  5
211
100
AcDbSymbolTableRecord
100
AcDbBlockTableRecord
  2
*Paper_Space
  0
BLOCK_RECORD
  5
212
100
AcDbSymbolTableRecord
100
AcDbBlockTableRecord
  2
_FILLED
  0
ENDTAB
  0
TABLE
  2
DIMSTYLE
  5
A
100
AcDbSymbolTable
 70
1
100
AcDbDimStyleTable
 71
0
  0
DIMSTYLE
105
213
100
AcDbSymbolTableRecord
100
AcDbDimStyleTableRecord
  2
STANDARD
 70
0
  3

  4

 40
1.0
 41
0.7158788774
 42
1.0
 43
0.38
 44
1.0
 45
0.0
 46
0.0
 47
0.01
 48
0.01
140
1.0022304283
141
0.09
142
0.0
143
25.4
144
1.0
145
0.0
146
1.0
147
0.625
 71
1
 72
0
 73
0
 74
0
 75
0
 76
0
 77
1
 78
8
 79
2
170
0
171
1
172
0
173
0
174
0
175
0
176
0
177
0
178
0
270
2
179
2
271
2
272
2
273
2
274
2
275
0
280
0
281
0
282
0
283
1
284
8
285
0
286
0
287
3
288
0
340
11
278
46
341
212
342
212
343
212
344
212
  0
ENDTAB
  0
ENDSEC
  0
SECTION
  2
BLOCKS
  0
BLOCK
  5
20
100
AcDbEntity
  8
0
100
AcDbBlockBegin
  2
*Model_Space
 70
0
 10
0.0
 20
0.0
 30
0.0
  3
*Model_Space
  1

  0
ENDBLK
  5
21
100
AcDbEntity
  8
0
100
AcDbBlockEnd
  0
BLOCK
  5
1C
100
AcDbEntity
  8
0
100
AcDbBlockBegin
  2
*Paper_Space
 70
0
 10
0.0
 20
0.0
 30
0.0
  3
*Paper_Space
  1

  0
ENDBLK
  5
1D
100
AcDbEntity
  8
0
100
AcDbBlockEnd
  0
BLOCK
  5
214
100
AcDbEntity
  8
0
100
AcDbBlockBegin
  2
_FILLED
 70
64
 10
0.0
 20
0.0
  3
_FILLED
  1

  0
SOLID
  5
215
100
AcDbEntity
  8
0
  6
BYBLOCK
 62
0
100
AcDbTrace
 10
0.0
 20
0.0
 11
-1.0
 21
0.25
 12
-1.0
 22
-0.25
 13
-1.0
 23
-0.25
  0
ENDBLK
  5
216
100
AcDbEntity
  8
0
  6
BYBLOCK
 62
0
100
AcDbBlockEnd
  0
ENDSEC
  0
SECTION
  2
ENTITIES
  0
LINE
  5
217
100
AcDbEntity
  8
0
100
AcDbLine
 62
7
  6
CONTINUOUS
 10
24.3496806396
 20
6.8182862867
 11
32.9496806396
 21
6.8182862867
  0
LINE
  5
218
100
AcDbEntity
  8
0
100
AcDbLine
 62
7
  6
CONTINUOUS
 10
24.3496806396
 20
8.4553641718
 11
32.9496806396
 21
8.4553641718
  0
LINE
  5
219
100
AcDbEntity
  8
0
100
AcDbLine
 62
7
  6
CONTINUOUS
 10
25.3496806396
 20
11.3283829779
 11
31.9496806396
 21
11.3283829779
  0
LINE
  5
21A
100
AcDbEntity
  8
0
100
AcDbLine
 62
7
  6
CONTINUOUS
 10
32.9496806396
 20
12.3174981176
 11
35.5496806396
 21
12.3174981176
  0
LINE
  5
21B
100
AcDbEntity
  8
0
100
AcDbLine
 62
7
  6
CONTINUOUS
 10
32.9496806396
 20
14.7354894587
 11
35.5496806396
 21
14.7354894587
  0
LINE
  5
21C
100
AcDbEntity
  8
0
100
AcDbLine
 62
7
  6
CONTINUOUS
 10
32.9496806396
 20
20.4753339548
 11
31.9496806396
 21
20.4753339548
  0
LINE
  5
21D
100
AcDbEntity
  8
0
100
AcDbLine
 62
7
  6
CONTINUOUS
 10
25.3496806396
 20
20.4753339548
 11
24.3496806396
 21
20.4753339548
  0
LINE
  5
21E
100
AcDbEntity
  8
0
100
AcDbLine
 62
7
  6
CONTINUOUS
 10
24.3496806396
 20
24.33903726
 11
32.9496806396
 21
24.33903726
  0
LINE
  5
21F
100
AcDbEntity
  8
0
100
AcDbLine
 62
7
  6
CONTINUOUS
 10
24.3496806396
 20
24.6164386765
 11
25.3496806396
 21
24.6164386765
  0
LINE
  5
220
100
AcDbEntity
  8
0
100
AcDbLine
 62
7
  6
CONTINUOUS
 10
31.9496806396
 20
24.6164386765
 11
32.9496806396
 21
24.6164386765
  0
LINE
  5
221
100
AcDbEntity
  8
0
100
AcDbLine
 62
7
  6
CONTINUOUS
 10
25.3496806396
 20
26.2728805651
 11
25.597201501
 21
26.2728805651
  0
LINE
  5
222
100
AcDbEntity
  8
0
100
AcDbLine
 62
7
  6
CONTINUOUS
 10
31.7021597782
 20
26.2728805651
 11
31.9496806396
 21
26.2728805651
  0
LINE
  5
223
100
AcDbEntity
  8
0
100
AcDbLine
 62
7
  6
CONTINUOUS
 10
31.1996806396
 20
24.9526544786
 11
31.9496806396
 21
24.6164386765
  0
LINE
  5
224
100
AcDbEntity
  8
0
100
AcDbLine
 62
7
  6
CONTINUOUS
 10
31.7021597782
 20
26.2728805651
 11
31.1996806396
 21
26.4981358006
  0
LINE
  5
225
100
AcDbEntity
  8
0
100
AcDbLine
 62
7
  6
CONTINUOUS
 10
35.5496806396
 20
14.7354894587
 11
35.9496806396
 21
14.2721070865
  0
LINE
  5
226
100
AcDbEntity
  8
0
100
AcDbLine
 62
7
  6
CONTINUOUS
 10
25.3496806396
 20
53.5717400673
 11
26.0996806396
 21
53.9320950779
  0
LINE
  5
227
100
AcDbEntity
  8
0
100
AcDbLine
 62
7
  6
CONTINUOUS
 10
32.9496806396
 20
35.4164386765
 11
31.9496806396
 21
35.4164386765
  0
LINE
  5
228
100
AcDbEntity
  8
0
100
AcDbLine
 62
7
  6
CONTINUOUS
 10
25.3496806396
 20
35.4164386765
 11
24.3496806396
 21
35.4164386765
  0
LINE
  5
229
100
AcDbEntity
  8
0
100
AcDbLine
 62
7
  6
CONTINUOUS
 10
24.3496806396
 20
75.6174981176
 11
24.3496806396
 21
6.8182862867
  0
LINE
  5
22A
100
AcDbEntity
  8
0
100
AcDbLine
 62
7
  6
CONTINUOUS
 10
24.8996806396
 20
78.6445082383
 11
24.8996806396
 21
73.0831539481
  0
LINE
  5
22B
100
AcDbEntity
  8
0
100
AcDbLine
 62
7
  6
CONTINUOUS
 10
25.3496806396
 20
56.1174981176
 11
25.3496806396
 21
41.0103229163
  0
LINE
  5
22C
100
AcDbEntity
  8
0
100
AcDbLine
 62
7
  6
CONTINUOUS
 10
25.3496806396
 20
11.3283829779
 11
25.3496806396
 21
21.2088754656
  0
LINE
  5
22D
100
AcDbEntity
  8
0
100
AcDbLine
 62
7
  6
CONTINUOUS
 10
25.3496806396
 20
26.2728805651
 11
25.3496806396
 21
36.3010711908
  0
LINE
  5
22E
100
AcDbEntity
  8
0
100
AcDbLine
 62
7
  6
CONTINUOUS
 10
26.0996806396
 20
56.1174981176
 11
26.0996806396
 21
53.9320950779
  0
LINE
  5
22F
100
AcDbEntity
  8
0
100
AcDbLine
 62
7
  6
CONTINUOUS
 10
26.0996806396
 20
41.8558200459
 11
26.0996806396
 21
39.8937592002
  0
LINE
  5
230
100
AcDbEntity
  8
0
100
AcDbLine
 62
7
  6
CONTINUOUS
 10
26.0996806396
 20
27.0816342062
 11
26.0996806396
 21
24.9526544786
  0
LINE
  5
231
100
AcDbEntity
  8
0
100
AcDbLine
 62
7
  6
CONTINUOUS
 10
26.3496806396
 20
73.0831539481
 11
26.3496806396
 21
72.3687142923
  0
LINE
  5
232
100
AcDbEntity
  8
0
100
AcDbLine
 62
7
  6
CONTINUOUS
 10
25.3496806396
 20
39.5575433981
 11
25.5667683867
 21
41.0103229163
  0
LINE
  5
233
100
AcDbEntity
  8
0
100
AcDbLine
 62
7
  6
CONTINUOUS
 10
28.3496806396
 20
72.3687142923
 11
28.3496806396
 21
73.0831539481
  0
LINE
  5
234
100
AcDbEntity
  8
0
100
AcDbLine
 62
7
  6
CONTINUOUS
 10
25.3496806396
 20
24.6164386765
 11
25.597201501
 21
26.2728805651
  0
LINE
  5
235
100
AcDbEntity
  8
0
100
AcDbLine
 62
7
  6
CONTINUOUS
 10
24.3496806396
 20
39.2801419816
 11
32.9496806396
 21
39.2801419816
  0
LINE
  5
236
100
AcDbEntity
  8
0
100
AcDbLine
 62
7
  6
CONTINUOUS
 10
24.3496806396
 20
39.5575433981
 11
25.3496806396
 21
39.5575433981
  0
LINE
  5
237
100
AcDbEntity
  8
0
100
AcDbLine
 62
7
  6
CONTINUOUS
 10
31.9496806396
 20
39.5575433981
 11
32.9496806396
 21
39.5575433981
  0
LINE
  5
238
100
AcDbEntity
  8
0
100
AcDbLine
 62
7
  6
CONTINUOUS
 10
31.1996806396
 20
39.8937592002
 11
31.9496806396
 21
39.5575433981
  0
LINE
  5
239
100
AcDbEntity
  8
0
100
AcDbLine
 62
7
  6
CONTINUOUS
 10
31.1996806396
 20
56.1174981176
 11
31.1996806396
 21
53.937007454
  0
LINE
  5
23A
100
AcDbEntity
  8
0
100
AcDbLine
 62
7
  6
CONTINUOUS
 10
31.1996806396
 20
24.9526544786
 11
31.1996806396
 21
27.0816342062
  0
LINE
  5
23B
100
AcDbEntity
  8
0
100
AcDbLine
 62
7
  6
CONTINUOUS
 10
31.1996806396
 20
39.8937592002
 11
31.1996806396
 21
41.8558200459
  0
LINE
  5
23C
100
AcDbEntity
  8
0
100
AcDbLine
 62
7
  6
CONTINUOUS
 10
26.0996806396
 20
41.2492209437
 11
25.5667683867
 21
41.0103229163
  0
LINE
  5
23D
100
AcDbEntity
  8
0
100
AcDbLine
 62
7
  6
CONTINUOUS
 10
25.3496806396
 20
41.0103229163
 11
25.5667683867
 21
41.0103229163
  0
LINE
  5
23E
100
AcDbEntity
  8
0
100
AcDbLine
 62
7
  6
CONTINUOUS
 10
31.7325928925
 20
41.0103229163
 11
31.9496806396
 21
41.0103229163
  0
LINE
  5
23F
100
AcDbEntity
  8
0
100
AcDbLine
 62
7
  6
CONTINUOUS
 10
31.7325928925
 20
41.0103229163
 11
31.1996806396
 21
41.2492209437
  0
LINE
  5
240
100
AcDbEntity
  8
0
100
AcDbLine
 62
7
  6
CONTINUOUS
 10
31.9496806396
 20
24.6164386765
 11
31.7021597782
 21
26.2728805651
  0
LINE
  5
241
100
AcDbEntity
  8
0
100
AcDbLine
 62
7
  6
CONTINUOUS
 10
31.9496806396
 20
56.1174981176
 11
31.9496806396
 21
41.0103229163
  0
LINE
  5
242
100
AcDbEntity
  8
0
100
AcDbLine
 62
7
  6
CONTINUOUS
 10
31.9496806396
 20
36.3010711908
 11
31.9496806396
 21
26.2728805651
  0
LINE
  5
243
100
AcDbEntity
  8
0
100
AcDbLine
 62
7
  6
CONTINUOUS
 10
31.9496806396
 20
21.2088754656
 11
31.9496806396
 21
11.3283829779
  0
LINE
  5
244
100
AcDbEntity
  8
0
100
AcDbLine
 62
7
  6
CONTINUOUS
 10
32.9496806396
 20
6.8182862867
 11
32.9496806396
 21
49.3174981176
  0
LINE
  5
245
100
AcDbEntity
  8
0
100
AcDbLine
 62
7
  6
CONTINUOUS
 10
32.9496806396
 20
53.3174981176
 11
32.9496806396
 21
78.6445082383
  0
LINE
  5
246
100
AcDbEntity
  8
0
100
AcDbLine
 62
7
  6
CONTINUOUS
 10
25.3496806396
 20
39.5575433981
 11
26.0996806396
 21
39.8937592002
  0
LINE
  5
247
100
AcDbEntity
  8
0
100
AcDbLine
 62
7
  6
CONTINUOUS
 10
31.9496806396
 20
39.5575433981
 11
31.7325928925
 21
41.0103229163
  0
LINE
  5
248
100
AcDbEntity
  8
0
100
AcDbLine
 62
7
  6
CONTINUOUS
 10
35.5496806396
 20
14.7354894587
 11
35.5496806396
 21
12.3174981176
  0
LINE
  5
249
100
AcDbEntity
  8
0
100
AcDbLine
 62
7
  6
CONTINUOUS
 10
35.9496806396
 20
12.7174981176
 11
35.9496806396
 21
14.2721070865
  0
LINE
  5
24A
100
AcDbEntity
  8
0
100
AcDbLine
 62
7
  6
CONTINUOUS
 10
36.0114864522
 20
53.3174981176
 11
36.0114864522
 21
49.3174981176
  0
LINE
  5
24B
100
AcDbEntity
  8
0
100
AcDbLine
 62
7
  6
CONTINUOUS
 10
24.3496806396
 20
46.6174981176
 11
25.3496806396
 21
46.6174981176
  0
LINE
  5
24C
100
AcDbEntity
  8
0
100
AcDbLine
 62
7
  6
CONTINUOUS
 10
31.9496806396
 20
46.6174981176
 11
32.9496806396
 21
46.6174981176
  0
LINE
  5
24D
100
AcDbEntity
  8
0
100
AcDbLine
 62
7
  6
CONTINUOUS
 10
36.3996806396
 20
73.9878333768
 11
36.3996806396
 21
76.2546079306
  0
LINE
  5
24E
100
AcDbEntity
  8
0
100
AcDbLine
 62
7
  6
CONTINUOUS
 10
36.3996806396
 20
76.2847203327
 11
36.3996806396
 21
77.5062587179
  0
LINE
  5
24F
100
AcDbEntity
  8
0
100
AcDbLine
 62
7
  6
CONTINUOUS
 10
36.9496806396
 20
53.3174981176
 11
36.9496806396
 21
49.3174981176
  0
LINE
  5
250
100
AcDbEntity
  8
0
100
AcDbLine
 62
7
  6
CONTINUOUS
 10
37.0496806396
 20
54.6710583492
 11
37.0496806396
 21
56.8097615053
  0
LINE
  5
251
100
AcDbEntity
  8
0
100
AcDbLine
 62
7
  6
CONTINUOUS
 10
37.4496806396
 20
53.3174981176
 11
37.4496806396
 21
49.3174981176
  0
LINE
  5
252
100
AcDbEntity
  8
0
100
AcDbLine
 62
7
  6
CONTINUOUS
 10
32.9496806396
 20
49.3174981176
 11
37.4496806396
 21
49.3174981176
  0
LINE
  5
253
100
AcDbEntity
  8
0
100
AcDbLine
 62
7
  6
CONTINUOUS
 10
32.9496806396
 20
53.3174981176
 11
37.4496806396
 21
53.3174981176
  0
LINE
  5
254
100
AcDbEntity
  8
0
100
AcDbLine
 62
7
  6
CONTINUOUS
 10
32.9496806396
 20
54.6708318203
 11
37.0496806396
 21
54.6708318203
  0
LINE
  5
255
100
AcDbEntity
  8
0
100
AcDbLine
 62
7
  6
CONTINUOUS
 10
31.1996806396
 20
53.937007454
 11
31.9496806396
 21
53.5766524435
  0
LINE
  5
256
100
AcDbEntity
  8
0
100
AcDbLine
 62
7
  6
CONTINUOUS
 10
26.0996806396
 20
26.4981358006
 11
25.597201501
 21
26.2728805651
  0
LINE
  5
257
100
AcDbEntity
  8
0
100
AcDbLine
 62
7
  6
CONTINUOUS
 10
25.3496806396
 20
24.6164386765
 11
26.0996806396
 21
24.9526544786
  0
LINE
  5
258
100
AcDbEntity
  8
0
100
AcDbLine
 62
7
  6
CONTINUOUS
 10
32.9496806396
 20
55.5141421726
 11
37.0496806396
 21
55.5141421726
  0
LINE
  5
259
100
AcDbEntity
  8
0
100
AcDbLine
 62
7
  6
CONTINUOUS
 10
24.3496806396
 20
56.1174981176
 11
32.9496806396
 21
56.1174981176
  0
LINE
  5
25A
100
AcDbEntity
  8
0
100
AcDbLine
 62
7
  6
CONTINUOUS
 10
32.9496806396
 20
56.3029161318
 11
37.0496806396
 21
56.3029161318
  0
LINE
  5
25B
100
AcDbEntity
  8
0
100
AcDbLine
 62
7
  6
CONTINUOUS
 10
32.9496806396
 20
56.8099571996
 11
37.0496806396
 21
56.8099571996
  0
LINE
  5
25C
100
AcDbEntity
  8
0
100
AcDbLine
 62
7
  6
CONTINUOUS
 10
35.5496806396
 20
12.3174981176
 11
35.9496806396
 21
12.7174981176
  0
LINE
  5
25D
100
AcDbEntity
  8
0
100
AcDbLine
 62
7
  6
CONTINUOUS
 10
32.9496806396
 20
70.3174981176
 11
24.3496806396
 21
70.3174981176
  0
LINE
  5
25E
100
AcDbEntity
  8
0
100
AcDbLine
 62
7
  6
CONTINUOUS
 10
24.3496806396
 20
72.3174981176
 11
32.9496806396
 21
72.3174981176
  0
LINE
  5
25F
100
AcDbEntity
  8
0
100
AcDbLine
 62
7
  6
CONTINUOUS
 10
26.3496806396
 20
72.3687142923
 11
28.3496806396
 21
72.3687142923
  0
LINE
  5
260
100
AcDbEntity
  8
0
100
AcDbLine
 62
7
  6
CONTINUOUS
 10
32.9496806396
 20
73.0831539481
 11
28.3496806396
 21
73.0831539481
  0
LINE
  5
261
100
AcDbEntity
  8
0
100
AcDbLine
 62
7
  6
CONTINUOUS
 10
24.8996806396
 20
73.0831539481
 11
26.3496806396
 21
73.0831539481
  0
LINE
  5
262
100
AcDbEntity
  8
0
100
AcDbLine
 62
7
  6
CONTINUOUS
 10
32.9496806396
 20
73.9878333768
 11
36.3996806396
 21
73.9878333768
  0
LINE
  5
263
100
AcDbEntity
  8
0
100
AcDbLine
 62
7
  6
CONTINUOUS
 10
36.3996806396
 20
74.4392433901
 11
32.9496806396
 21
74.4392433901
  0
LINE
  5
264
100
AcDbEntity
  8
0
100
AcDbLine
 62
7
  6
CONTINUOUS
 10
32.9496806396
 20
75.3420634167
 11
36.3996806396
 21
75.3420634167
  0
LINE
  5
265
100
AcDbEntity
  8
0
100
AcDbLine
 62
7
  6
CONTINUOUS
 10
24.3496806396
 20
75.6174981176
 11
24.8996806396
 21
75.6174981176
  0
LINE
  5
266
100
AcDbEntity
  8
0
100
AcDbLine
 62
7
  6
CONTINUOUS
 10
32.9496806396
 20
75.79347343
 11
36.3996806396
 21
75.79347343
  0
LINE
  5
267
100
AcDbEntity
  8
0
100
AcDbLine
 62
7
  6
CONTINUOUS
 10
32.9496806396
 20
76.0094539493
 11
24.8996806396
 21
76.0094539493
  0
LINE
  5
268
100
AcDbEntity
  8
0
100
AcDbLine
 62
7
  6
CONTINUOUS
 10
36.3996806396
 20
76.2546079306
 11
32.9496806396
 21
76.2546079306
  0
LINE
  5
269
100
AcDbEntity
  8
0
100
AcDbLine
 62
7
  6
CONTINUOUS
 10
32.9496806396
 20
77.0451242173
 11
36.3996806396
 21
77.0451242173
  0
LINE
  5
26A
100
AcDbEntity
  8
0
100
AcDbLine
 62
7
  6
CONTINUOUS
 10
32.9496806396
 20
77.5062587179
 11
36.3996806396
 21
77.5062587179
  0
LINE
  5
26B
100
AcDbEntity
  8
0
100
AcDbLine
 62
7
  6
CONTINUOUS
 10
32.9496806396
 20
78.6445082383
 11
24.8996806396
 21
78.6445082383
  0
SPLINE
  5
26C
100
AcDbEntity
  8
0
100
AcDbSpline
 62
7
  6
CONTINUOUS
 70
0
 71
3
 72
19
 73
15
 74
0
 42
0.0000001
 43
0.0000001
 44
0.0000000001
 40
0.0
 40
0.0
 40
0.0
 40
0.0
 40
0.0239726005
 40
0.0509012207
 40
0.082782409
 40
0.1207178625
 40
0.1651654214
 40
0.2162433357
 40
0.2737951614
 40
0.33749413
 40
0.4814951813
 40
0.6436808952
 40
0.8186655558
 40
1.0
 40
1.0
 40
1.0
 40
1.0
 10
26.0996806396
 20
25.5361528841
 30
0.0
 10
26.0996806396
 20
25.5142301725
 30
0.0
 10
26.1092536617
 20
25.4673888729
 30
0.0
 10
26.1489511761
 20
25.4017496112
 30
0.0
 10
26.2120110124
 20
25.3388436329
 30
0.0
 10
26.2977197831
 20
25.2784710732
 30
0.0
 10
26.4054199338
 20
25.2206010939
 30
0.0
 10
26.5343648149
 20
25.1657332108
 30
0.0
 10
26.6834306467
 20
25.1142835175
 30
0.0
 10
26.916937045
 20
25.048218553
 30
0.0
 10
27.2486440984
 20
24.9798336471
 30
0.0
 10
27.6849382727
 20
24.9207336782
 30
0.0
 10
28.1579418744
 20
24.8843503278
 30
0.0
 10
28.4838520421
 20
24.8761643191
 30
0.0
 10
28.6496806396
 20
24.8761643191
 30
0.0
  0
SPLINE
  5
26D
100
AcDbEntity
  8
0
100
AcDbSpline
 62
7
  6
CONTINUOUS
 70
0
 71
3
 72
19
 73
15
 74
0
 42
0.0000001
 43
0.0000001
 44
0.0000000001
 40
0.0
 40
0.0
 40
0.0
 40
0.0
 40
0.0239726005
 40
0.0509012207
 40
0.082782409
 40
0.1207178625
 40
0.1651654214
 40
0.2162433357
 40
0.2737951614
 40
0.33749413
 40
0.4814951813
 40
0.6436808952
 40
0.8186655558
 40
1.0
 40
1.0
 40
1.0
 40
1.0
 10
26.0996806396
 20
40.5003583024
 30
0.0
 10
26.0996806396
 20
40.4784355908
 30
0.0
 10
26.1092536617
 20
40.4315942912
 30
0.0
 10
26.1489511761
 20
40.3659550295
 30
0.0
 10
26.2120110124
 20
40.3030490512
 30
0.0
 10
26.2977197831
 20
40.2426764914
 30
0.0
 10
26.4054199338
 20
40.1848065122
 30
0.0
 10
26.5343648149
 20
40.1299386291
 30
0.0
 10
26.6834306467
 20
40.0784889358
 30
0.0
 10
26.916937045
 20
40.0124239713
 30
0.0
 10
27.2486440984
 20
39.9440390654
 30
0.0
 10
27.6849382727
 20
39.8849390965
 30
0.0
 10
28.1579418744
 20
39.8485557461
 30
0.0
 10
28.4838520421
 20
39.8403697374
 30
0.0
 10
28.6496806396
 20
39.8403697374
 30
0.0
  0
SPLINE
  5
26E
100
AcDbEntity
  8
0
100
AcDbSpline
 62
7
  6
CONTINUOUS
 70
0
 71
3
 72
19
 73
15
 74
0
 42
0.0000001
 43
0.0000001
 44
0.0000000001
 40
0.0
 40
0.0
 40
0.0
 40
0.0
 40
0.1813343932
 40
0.3563189674
 40
0.5185046693
 40
0.6625057352
 40
0.7262047145
 40
0.7837565625
 40
0.8348344904
 40
0.879282073
 40
0.9172175519
 40
0.9490987585
 40
0.9760273945
 40
1.0
 40
1.0
 40
1.0
 40
1.0
 10
28.6496806396
 20
24.8761643191
 30
0.0
 10
28.8155091897
 20
24.8761643191
 30
0.0
 10
29.1414192306
 20
24.8843503081
 30
0.0
 10
29.6144226941
 20
24.9207336491
 30
0.0
 10
30.0507167917
 20
24.9798335881
 30
0.0
 10
30.3824238649
 20
25.0482184558
 30
0.0
 10
30.6159303039
 20
25.1142834292
 30
0.0
 10
30.7649961888
 20
25.1657330971
 30
0.0
 10
30.8939411231
 20
25.2206009942
 30
0.0
 10
31.0016413346
 20
25.2784709768
 30
0.0
 10
31.0873501766
 20
25.3388435463
 30
0.0
 10
31.1504100367
 20
25.4017495771
 30
0.0
 10
31.1901075921
 20
25.4673888511
 30
0.0
 10
31.1996806396
 20
25.514230168
 30
0.0
 10
31.1996806396
 20
25.5361528841
 30
0.0
  0
SPLINE
  5
26F
100
AcDbEntity
  8
0
100
AcDbSpline
 62
7
  6
CONTINUOUS
 70
0
 71
3
 72
19
 73
15
 74
0
 42
0.0000001
 43
0.0000001
 44
0.0000000001
 40
0.0
 40
0.0
 40
0.0
 40
0.0
 40
0.1813343932
 40
0.3563189674
 40
0.5185046693
 40
0.6625057352
 40
0.7262047145
 40
0.7837565625
 40
0.8348344904
 40
0.879282073
 40
0.9172175519
 40
0.9490987585
 40
0.9760273945
 40
1.0
 40
1.0
 40
1.0
 40
1.0
 10
28.6496806396
 20
39.8403697374
 30
0.0
 10
28.8155091897
 20
39.8403697374
 30
0.0
 10
29.1414192306
 20
39.8485557264
 30
0.0
 10
29.6144226941
 20
39.8849390673
 30
0.0
 10
30.0507167917
 20
39.9440390064
 30
0.0
 10
30.3824238649
 20
40.0124238741
 30
0.0
 10
30.6159303039
 20
40.0784888475
 30
0.0
 10
30.7649961888
 20
40.1299385153
 30
0.0
 10
30.8939411231
 20
40.1848064125
 30
0.0
 10
31.0016413346
 20
40.2426763951
 30
0.0
 10
31.0873501766
 20
40.3030489646
 30
0.0
 10
31.1504100367
 20
40.3659549954
 30
0.0
 10
31.1901075921
 20
40.4315942694
 30
0.0
 10
31.1996806396
 20
40.4784355863
 30
0.0
 10
31.1996806396
 20
40.5003583024
 30
0.0
  0
SPLINE
  5
270
100
AcDbEntity
  8
0
100
AcDbSpline
 62
7
  6
CONTINUOUS
 70
0
 71
3
 72
9
 73
5
 74
0
 42
0.0000001
 43
0.0000001
 44
0.0000000001
 40
0.0
 40
0.0
 40
0.0
 40
0.0
 40
0.2184709038
 40
1.0
 40
1.0
 40
1.0
 40
1.0
 10
26.1057487979
 20
54.3007719702
 30
0.0
 10
26.1091674467
 20
54.2879954463
 30
0.0
 10
26.131156811
 20
54.2311375147
 30
0.0
 10
26.1740691852
 20
54.1848327643
 30
0.0
 10
26.2100940984
 20
54.1541616585
 30
0.0
  0
SPLINE
  5
271
100
AcDbEntity
  8
0
100
AcDbSpline
 62
7
  6
CONTINUOUS
 70
0
 71
3
 72
14
 73
10
 74
0
 42
0.0000001
 43
0.0000001
 44
0.0000000001
 40
0.0
 40
0.0
 40
0.0
 40
0.0
 40
0.0708033562
 40
0.1605644057
 40
0.2687144206
 40
0.3934561603
 40
0.5321875119
 40
0.681862131
 40
1.0
 40
1.0
 40
1.0
 40
1.0
 10
26.2100940984
 20
54.1541616585
 30
0.0
 10
26.2552917041
 20
54.1156810508
 30
0.0
 10
26.3708594583
 20
54.0441692461
 30
0.0
 10
26.5787710053
 20
53.9565650033
 30
0.0
 10
26.8380402522
 20
53.8779247542
 30
0.0
 10
27.1424322547
 20
53.8105377874
 30
0.0
 10
27.4846879227
 20
53.7560761404
 30
0.0
 10
27.990430546
 20
53.7017543753
 30
0.0
 10
28.3829618349
 20
53.6862713493
 30
0.0
 10
28.6496806396
 20
53.6862713493
 30
0.0
  0
SPLINE
  5
272
100
AcDbEntity
  8
0
100
AcDbSpline
 62
7
  6
CONTINUOUS
 70
0
 71
3
 72
14
 73
10
 74
0
 42
0.0000001
 43
0.0000001
 44
0.0000000001
 40
0.0
 40
0.0
 40
0.0
 40
0.0
 40
0.3185274866
 40
0.468337035
 40
0.6071363192
 40
0.731861777
 40
0.8399032528
 40
0.9294640431
 40
1.0
 40
1.0
 40
1.0
 40
1.0
 10
28.6496806396
 20
53.6862713493
 30
0.0
 10
28.917062692
 20
53.6862713493
 30
0.0
 10
29.3105315799
 20
53.7018273752
 30
0.0
 10
29.8173911
 20
53.7564204535
 30
0.0
 10
30.1602084969
 20
53.8111397326
 30
0.0
 10
30.4648877758
 20
53.8788322331
 30
0.0
 10
30.7241342801
 20
53.9578069069
 30
0.0
 10
30.9316861855
 20
54.0457544441
 30
0.0
 10
31.0468301669
 20
54.1175863812
 30
0.0
 10
31.0916873386
 20
54.1562344315
 30
0.0
  0
SPLINE
  5
273
100
AcDbEntity
  8
0
100
AcDbSpline
 62
7
  6
CONTINUOUS
 70
0
 71
3
 72
9
 73
5
 74
0
 42
0.0000001
 43
0.0000001
 44
0.0000000001
 40
0.0
 40
0.0
 40
0.0
 40
0.0
 40
0.2884382941
 40
1.0
 40
1.0
 40
1.0
 40
1.0
 10
31.0916873386
 20
54.1562344315
 30
0.0
 10
31.1046670389
 20
54.1674174841
 30
0.0
 10
31.1476543227
 20
54.2080387775
 30
0.0
 10
31.1826880477
 20
54.2599433418
 30
0.0
 10
31.1936126989
 20
54.3007727863
 30
0.0
  0
SPLINE
  5
274
100
AcDbEntity
  8
0
100
AcDbSpline
 62
7
  6
CONTINUOUS
 70
0
 71
3
 72
31
 73
27
 74
0
 42
0.0000001
 43
0.0000001
 44
0.0000000001
 40
0.0
 40
0.0
 40
0.0
 40
0.0
 40
0.0119893399
 40
0.0254532955
 40
0.041393309
 40
0.0603578354
 40
0.0825824131
 40
0.1081247728
 40
0.1368980637
 40
0.1687493879
 40
0.2407400454
 40
0.3218502458
 40
0.4092989272
 40
0.499991412
 40
0.5906837653
 40
0.6781327841
 40
0.7592454535
 40
0.831240476
 40
0.8630938038
 40
0.8918695187
 40
0.9174138197
 40
0.9396397552
 40
0.9586056089
 40
0.9745463632
 40
0.9880106125
 40
1.0
 40
1.0
 40
1.0
 40
1.0
 10
25.3496806396
 20
26.9694039982
 30
0.0
 10
25.3496806396
 20
26.9977818706
 30
0.0
 10
25.3620537001
 20
27.0584085542
 30
0.0
 10
25.4134241223
 20
27.1433673071
 30
0.0
 10
25.4950562915
 20
27.2247358913
 30
0.0
 10
25.6059525629
 20
27.3028787342
 30
0.0
 10
25.7453384152
 20
27.377763081
 30
0.0
 10
25.9122129567
 20
27.4487650905
 30
0.0
 10
26.1051187922
 20
27.5153787475
 30
0.0
 10
26.407293546
 20
27.6008227046
 30
0.0
 10
26.8365729642
 20
27.6893766381
 30
0.0
 10
27.4011110022
 20
27.7658026027
 30
0.0
 10
28.0132414018
 20
27.8129331773
 30
0.0
 10
28.6496188929
 20
27.828871642
 30
0.0
 10
29.2859973152
 20
27.812938598
 30
0.0
 10
29.8981344519
 20
27.765813214
 30
0.0
 10
30.4626902852
 20
27.6893930868
 30
0.0
 10
30.8919919484
 20
27.6008424433
 30
0.0
 10
31.1941869362
 20
27.5153935775
 30
0.0
 10
31.387108441
 20
27.4487793941
 30
0.0
 10
31.5539973482
 20
27.3777761873
 30
0.0
 10
31.6933929757
 20
27.302886991
 30
0.0
 10
31.8042978356
 20
27.224742159
 30
0.0
 10
31.8859342834
 20
27.1433698117
 30
0.0
 10
31.9373069809
 20
27.05840947
 30
0.0
 10
31.9496806396
 20
26.9977819834
 30
0.0
 10
31.9496806396
 20
26.9694039982
 30
0.0
  0
SPLINE
  5
275
100
AcDbEntity
  8
0
100
AcDbSpline
 62
7
  6
CONTINUOUS
 70
0
 71
3
 72
19
 73
15
 74
0
 42
0.0000001
 43
0.0000001
 44
0.0000000001
 40
0.0
 40
0.0
 40
0.0
 40
0.0
 40
0.0239726005
 40
0.0509012207
 40
0.082782409
 40
0.1207178625
 40
0.1651654214
 40
0.2162433357
 40
0.2737951614
 40
0.33749413
 40
0.4814951813
 40
0.6436808952
 40
0.8186655558
 40
1.0
 40
1.0
 40
1.0
 40
1.0
 10
31.1996806396
 20
27.0816342062
 30
0.0
 10
31.1996806396
 20
27.1035569177
 30
0.0
 10
31.1901076175
 20
27.1503982173
 30
0.0
 10
31.1504101031
 20
27.216037479
 30
0.0
 10
31.0873502668
 20
27.2789434573
 30
0.0
 10
31.0016414961
 20
27.3393160171
 30
0.0
 10
30.8939413454
 20
27.3971859963
 30
0.0
 10
30.7649964643
 20
27.4520538794
 30
0.0
 10
30.6159306325
 20
27.5035035727
 30
0.0
 10
30.3824242342
 20
27.5695685372
 30
0.0
 10
30.0507171808
 20
27.6379534431
 30
0.0
 10
29.6144230065
 20
27.697053412
 30
0.0
 10
29.1414194048
 20
27.7334367624
 30
0.0
 10
28.8155092371
 20
27.7416227712
 30
0.0
 10
28.6496806396
 20
27.7416227712
 30
0.0
  0
SPLINE
  5
276
100
AcDbEntity
  8
0
100
AcDbSpline
 62
7
  6
CONTINUOUS
 70
0
 71
3
 72
19
 73
15
 74
0
 42
0.0000001
 43
0.0000001
 44
0.0000000001
 40
0.0
 40
0.0
 40
0.0
 40
0.0
 40
0.1813343932
 40
0.3563189674
 40
0.5185046693
 40
0.6625057352
 40
0.7262047145
 40
0.7837565625
 40
0.8348344904
 40
0.879282073
 40
0.9172175519
 40
0.9490987585
 40
0.9760273945
 40
1.0
 40
1.0
 40
1.0
 40
1.0
 10
28.6496806396
 20
27.7416227712
 30
0.0
 10
28.4838520895
 20
27.7416227712
 30
0.0
 10
28.1579420486
 20
27.7334367822
 30
0.0
 10
27.6849385851
 20
27.6970534412
 30
0.0
 10
27.2486444875
 20
27.6379535022
 30
0.0
 10
26.9169374143
 20
27.5695686344
 30
0.0
 10
26.6834309753
 20
27.5035036611
 30
0.0
 10
26.5343650904
 20
27.4520539932
 30
0.0
 10
26.4054201561
 20
27.397186096
 30
0.0
 10
26.2977199446
 20
27.3393161134
 30
0.0
 10
26.2120111026
 20
27.2789435439
 30
0.0
 10
26.1489512425
 20
27.2160375131
 30
0.0
 10
26.1092536871
 20
27.1503982391
 30
0.0
 10
26.0996806396
 20
27.1035569222
 30
0.0
 10
26.0996806396
 20
27.0816342062
 30
0.0
  0
SPLINE
  5
277
100
AcDbEntity
  8
0
100
AcDbSpline
 62
7
  6
CONTINUOUS
 70
0
 71
3
 72
37
 73
33
 74
0
 42
0.0000001
 43
0.0000001
 44
0.0000000001
 40
0.0
 40
0.0
 40
0.0
 40
0.0
 40
0.0344382836
 40
0.0678535761
 40
0.0999838965
 40
0.1306614705
 40
0.1598667629
 40
0.187817966
 40
0.215006148
 40
0.2421246765
 40
0.2698877544
 40
0.2988422243
 40
0.3292774515
 40
0.3612391182
 40
0.3945896164
 40
0.4290685108
 40
0.5000000487
 40
0.5709315881
 40
0.6054104996
 40
0.638760964
 40
0.6707226462
 40
0.7011578644
 40
0.7301123466
 40
0.7578754227
 40
0.7849939456
 40
0.8121821182
 40
0.8401332688
 40
0.8693385158
 40
0.9000160718
 40
0.9321464309
 40
0.9655617261
 40
1.0
 40
1.0
 40
1.0
 40
1.0
 10
31.9496806396
 20
36.3010711908
 30
0.0
 10
31.9496806396
 20
36.4206218818
 30
0.0
 10
31.9468037532
 20
36.6561986472
 30
0.0
 10
31.9284526448
 20
37.0029405816
 30
0.0
 10
31.8906292927
 20
37.3351111738
 30
0.0
 10
31.8276172426
 20
37.6487752042
 30
0.0
 10
31.733763757
 20
37.9397675139
 30
0.0
 10
31.604127343
 20
38.2036755569
 30
0.0
 10
31.4356138004
 20
38.4360948736
 30
0.0
 10
31.2282419668
 20
38.6337037705
 30
0.0
 10
30.985007719
 20
38.795831118
 30
0.0
 10
30.7102700953
 20
38.9246924703
 30
0.0
 10
30.4085264004
 20
39.0241430784
 30
0.0
 10
30.0841807706
 20
39.0984294382
 30
0.0
 10
29.7416337814
 20
39.1515640172
 30
0.0
 10
29.2620972647
 20
39.1990450809
 30
0.0
 10
28.6496801257
 20
39.2196450463
 30
0.0
 10
28.0372629222
 20
39.1990450606
 30
0.0
 10
27.5577264724
 20
39.1515638916
 30
0.0
 10
27.2151794832
 20
39.0984292917
 30
0.0
 10
26.8908340148
 20
39.0241427184
 30
0.0
 10
26.589090166
 20
38.9246922828
 30
0.0
 10
26.3143528402
 20
38.7958303527
 30
0.0
 10
26.0711182728
 20
38.6337034063
 30
0.0
 10
25.863747124
 20
38.4360938811
 30
0.0
 10
25.695233316
 20
38.2036750786
 30
0.0
 10
25.5655975498
 20
37.9397671037
 30
0.0
 10
25.4717439308
 20
37.6487752891
 30
0.0
 10
25.408732099
 20
37.3351112873
 30
0.0
 10
25.3709085814
 20
37.0029406411
 30
0.0
 10
25.3525575509
 20
36.6561985871
 30
0.0
 10
25.3496806396
 20
36.4206218482
 30
0.0
 10
25.3496806396
 20
36.3010711908
 30
0.0
  0
SPLINE
  5
278
100
AcDbEntity
  8
0
100
AcDbSpline
 62
7
  6
CONTINUOUS
 70
0
 71
3
 72
31
 73
27
 74
0
 42
0.0000001
 43
0.0000001
 44
0.0000000001
 40
0.0
 40
0.0
 40
0.0
 40
0.0
 40
0.0119893399
 40
0.0254532955
 40
0.041393309
 40
0.0603578354
 40
0.0825824131
 40
0.1081247728
 40
0.1368980637
 40
0.1687493879
 40
0.2407400454
 40
0.3218502458
 40
0.4092989272
 40
0.499991412
 40
0.5906837653
 40
0.6781327841
 40
0.7592454535
 40
0.831240476
 40
0.8630938038
 40
0.8918695187
 40
0.9174138197
 40
0.9396397552
 40
0.9586056089
 40
0.9745463632
 40
0.9880106125
 40
1.0
 40
1.0
 40
1.0
 40
1.0
 10
25.3496806396
 20
41.7384134571
 30
0.0
 10
25.3496806396
 20
41.7667913295
 30
0.0
 10
25.3620537001
 20
41.827418013
 30
0.0
 10
25.4134241223
 20
41.9123767659
 30
0.0
 10
25.4950562915
 20
41.9937453501
 30
0.0
 10
25.6059525629
 20
42.071888193
 30
0.0
 10
25.7453384152
 20
42.1467725398
 30
0.0
 10
25.9122129567
 20
42.2177745493
 30
0.0
 10
26.1051187922
 20
42.2843882064
 30
0.0
 10
26.407293546
 20
42.3698321634
 30
0.0
 10
26.8365729642
 20
42.4583860969
 30
0.0
 10
27.4011110022
 20
42.5348120616
 30
0.0
 10
28.0132414018
 20
42.5819426361
 30
0.0
 10
28.6496188929
 20
42.5978811009
 30
0.0
 10
29.2859973152
 20
42.5819480568
 30
0.0
 10
29.8981344519
 20
42.5348226728
 30
0.0
 10
30.4626902852
 20
42.4584025456
 30
0.0
 10
30.8919919484
 20
42.3698519021
 30
0.0
 10
31.1941869362
 20
42.2844030363
 30
0.0
 10
31.387108441
 20
42.2177888529
 30
0.0
 10
31.5539973482
 20
42.1467856461
 30
0.0
 10
31.6933929757
 20
42.0718964498
 30
0.0
 10
31.8042978356
 20
41.9937516178
 30
0.0
 10
31.8859342834
 20
41.9123792705
 30
0.0
 10
31.9373069809
 20
41.8274189288
 30
0.0
 10
31.9496806396
 20
41.7667914422
 30
0.0
 10
31.9496806396
 20
41.7384134571
 30
0.0
  0
SPLINE
  5
279
100
AcDbEntity
  8
0
100
AcDbSpline
 62
7
  6
CONTINUOUS
 70
0
 71
3
 72
19
 73
15
 74
0
 42
0.0000001
 43
0.0000001
 44
0.0000000001
 40
0.0
 40
0.0
 40
0.0
 40
0.0
 40
0.0239726005
 40
0.0509012207
 40
0.082782409
 40
0.1207178625
 40
0.1651654214
 40
0.2162433357
 40
0.2737951614
 40
0.33749413
 40
0.4814951813
 40
0.6436808952
 40
0.8186655558
 40
1.0
 40
1.0
 40
1.0
 40
1.0
 10
31.1996806396
 20
41.8558200459
 30
0.0
 10
31.1996806396
 20
41.8777427575
 30
0.0
 10
31.1901076175
 20
41.9245840571
 30
0.0
 10
31.1504101031
 20
41.9902233187
 30
0.0
 10
31.0873502668
 20
42.053129297
 30
0.0
 10
31.0016414961
 20
42.1135018568
 30
0.0
 10
30.8939413454
 20
42.171371836
 30
0.0
 10
30.7649964643
 20
42.2262397191
 30
0.0
 10
30.6159306325
 20
42.2776894124
 30
0.0
 10
30.3824242342
 20
42.343754377
 30
0.0
 10
30.0507171808
 20
42.4121392829
 30
0.0
 10
29.6144230065
 20
42.4712392518
 30
0.0
 10
29.1414194048
 20
42.5076226021
 30
0.0
 10
28.8155092371
 20
42.5158086109
 30
0.0
 10
28.6496806396
 20
42.5158086109
 30
0.0
  0
SPLINE
  5
27A
100
AcDbEntity
  8
0
100
AcDbSpline
 62
7
  6
CONTINUOUS
 70
0
 71
3
 72
19
 73
15
 74
0
 42
0.0000001
 43
0.0000001
 44
0.0000000001
 40
0.0
 40
0.0
 40
0.0
 40
0.0
 40
0.1813343932
 40
0.3563189674
 40
0.5185046693
 40
0.6625057352
 40
0.7262047145
 40
0.7837565625
 40
0.8348344904
 40
0.879282073
 40
0.9172175519
 40
0.9490987585
 40
0.9760273945
 40
1.0
 40
1.0
 40
1.0
 40
1.0
 10
28.6496806396
 20
42.5158086109
 30
0.0
 10
28.4838520895
 20
42.5158086109
 30
0.0
 10
28.1579420486
 20
42.5076226219
 30
0.0
 10
27.6849385851
 20
42.4712392809
 30
0.0
 10
27.2486444875
 20
42.4121393419
 30
0.0
 10
26.9169374143
 20
42.3437544742
 30
0.0
 10
26.6834309753
 20
42.2776895008
 30
0.0
 10
26.5343650904
 20
42.2262398329
 30
0.0
 10
26.4054201561
 20
42.1713719357
 30
0.0
 10
26.2977199446
 20
42.1135019531
 30
0.0
 10
26.2120111026
 20
42.0531293836
 30
0.0
 10
26.1489512425
 20
41.9902233528
 30
0.0
 10
26.1092536871
 20
41.9245840788
 30
0.0
 10
26.0996806396
 20
41.877742762
 30
0.0
 10
26.0996806396
 20
41.8558200459
 30
0.0
  0
SPLINE
  5
27B
100
AcDbEntity
  8
0
100
AcDbSpline
 62
7
  6
CONTINUOUS
 70
0
 71
3
 72
31
 73
27
 74
0
 42
0.0000001
 43
0.0000001
 44
0.0000000001
 40
0.0
 40
0.0
 40
0.0
 40
0.0
 40
0.0119893399
 40
0.0254532955
 40
0.041393309
 40
0.0603578354
 40
0.0825824131
 40
0.1081247728
 40
0.1368980637
 40
0.1687493879
 40
0.2407400454
 40
0.3218502458
 40
0.4092989272
 40
0.499991412
 40
0.5906837653
 40
0.6781327841
 40
0.7592454535
 40
0.831240476
 40
0.8630938038
 40
0.8918695187
 40
0.9174138197
 40
0.9396397552
 40
0.9586056089
 40
0.9745463632
 40
0.9880106125
 40
1.0
 40
1.0
 40
1.0
 40
1.0
 10
31.9496806396
 20
52.2670049636
 30
0.0
 10
31.9496806396
 20
52.295382836
 30
0.0
 10
31.9373075791
 20
52.3560095196
 30
0.0
 10
31.8859371569
 20
52.4409682725
 30
0.0
 10
31.8043049877
 20
52.5223368567
 30
0.0
 10
31.6934087163
 20
52.6004796996
 30
0.0
 10
31.554022864
 20
52.6753640463
 30
0.0
 10
31.3871483225
 20
52.7463660558
 30
0.0
 10
31.194242487
 20
52.8129797129
 30
0.0
 10
30.8920677332
 20
52.8984236699
 30
0.0
 10
30.462788315
 20
52.9869776034
 30
0.0
 10
29.898250277
 20
53.0634035681
 30
0.0
 10
29.2861198774
 20
53.1105341427
 30
0.0
 10
28.6497423863
 20
53.1264726074
 30
0.0
 10
28.013363964
 20
53.1105395634
 30
0.0
 10
27.4012268273
 20
53.0634141794
 30
0.0
 10
26.836670994
 20
52.9869940522
 30
0.0
 10
26.4073693308
 20
52.8984434087
 30
0.0
 10
26.105174343
 20
52.8129945429
 30
0.0
 10
25.9122528382
 20
52.7463803595
 30
0.0
 10
25.745363931
 20
52.6753771527
 30
0.0
 10
25.6059683035
 20
52.6004879564
 30
0.0
 10
25.4950634436
 20
52.5223431244
 30
0.0
 10
25.4134269958
 20
52.4409707771
 30
0.0
 10
25.3620542983
 20
52.3560104353
 30
0.0
 10
25.3496806396
 20
52.2953829487
 30
0.0
 10
25.3496806396
 20
52.2670049636
 30
0.0
  0
SPLINE
  5
27C
100
AcDbEntity
  8
0
100
AcDbSpline
 62
7
  6
CONTINUOUS
 70
0
 71
3
 72
31
 73
27
 74
0
 42
0.0000001
 43
0.0000001
 44
0.0000000001
 40
0.0
 40
0.0
 40
0.0
 40
0.0
 40
0.0119893399
 40
0.0254532955
 40
0.041393309
 40
0.0603578354
 40
0.0825824131
 40
0.1081247728
 40
0.1368980637
 40
0.1687493879
 40
0.2407400454
 40
0.3218502458
 40
0.4092989272
 40
0.499991412
 40
0.5906837653
 40
0.6781327841
 40
0.7592454535
 40
0.831240476
 40
0.8630938038
 40
0.8918695187
 40
0.9174138197
 40
0.9396397552
 40
0.9586056089
 40
0.9745463632
 40
0.9880106125
 40
1.0
 40
1.0
 40
1.0
 40
1.0
 10
25.3496806396
 20
12.0072093742
 30
0.0
 10
25.3496806396
 20
12.0355872466
 30
0.0
 10
25.3620537001
 20
12.0962139301
 30
0.0
 10
25.4134241223
 20
12.181172683
 30
0.0
 10
25.4950562915
 20
12.2625412672
 30
0.0
 10
25.6059525629
 20
12.3406841102
 30
0.0
 10
25.7453384152
 20
12.4155684569
 30
0.0
 10
25.9122129567
 20
12.4865704664
 30
0.0
 10
26.1051187922
 20
12.5531841235
 30
0.0
 10
26.407293546
 20
12.6386280805
 30
0.0
 10
26.8365729642
 20
12.727182014
 30
0.0
 10
27.4011110022
 20
12.8036079787
 30
0.0
 10
28.0132414018
 20
12.8507385532
 30
0.0
 10
28.6496188929
 20
12.866677018
 30
0.0
 10
29.2859973152
 20
12.850743974
 30
0.0
 10
29.8981344519
 20
12.8036185899
 30
0.0
 10
30.4626902852
 20
12.7271984627
 30
0.0
 10
30.8919919484
 20
12.6386478192
 30
0.0
 10
31.1941869362
 20
12.5531989535
 30
0.0
 10
31.387108441
 20
12.4865847701
 30
0.0
 10
31.5539973482
 20
12.4155815632
 30
0.0
 10
31.6933929757
 20
12.340692367
 30
0.0
 10
31.8042978356
 20
12.262547535
 30
0.0
 10
31.8859342834
 20
12.1811751876
 30
0.0
 10
31.9373069809
 20
12.0962148459
 30
0.0
 10
31.9496806396
 20
12.0355873593
 30
0.0
 10
31.9496806396
 20
12.0072093742
 30
0.0
  0
SPLINE
  5
27D
100
AcDbEntity
  8
0
100
AcDbSpline
 62
7
  6
CONTINUOUS
 70
0
 71
3
 72
35
 73
31
 74
0
 42
0.0000001
 43
0.0000001
 44
0.0000000001
 40
0.0
 40
0.0
 40
0.0
 40
0.0
 40
0.0681357489
 40
0.1005596148
 40
0.1315905473
 40
0.1611594096
 40
0.1894200791
 40
0.216801578
 40
0.2439642737
 40
0.2716327629
 40
0.3003944342
 40
0.3305834861
 40
0.3622787096
 40
0.3953609766
 40
0.4295775282
 40
0.5000000473
 40
0.5704225672
 40
0.6046391086
 40
0.6377213775
 40
0.6694165837
 40
0.6996056419
 40
0.728367329
 40
0.7560358137
 40
0.7831984904
 40
0.8105799768
 40
0.8388406158
 40
0.8684094212
 40
0.8994403448
 40
0.9318642487
 40
1.0
 40
1.0
 40
1.0
 40
1.0
 10
31.9496806396
 20
21.2088754656
 30
0.0
 10
31.9496806396
 20
21.4503292036
 30
0.0
 10
31.9428355624
 20
21.8071069407
 30
0.0
 10
31.8952519757
 20
22.2713205408
 30
0.0
 10
31.8357608135
 20
22.5960288376
 30
0.0
 10
31.7460428728
 20
22.8986854514
 30
0.0
 10
31.6206830234
 20
23.1746932389
 30
0.0
 10
31.4559194766
 20
23.4193462281
 30
0.0
 10
31.2510463828
 20
23.6287461406
 30
0.0
 10
31.0086892435
 20
23.8014893702
 30
0.0
 10
30.733289519
 20
23.9393206015
 30
0.0
 10
30.4295946384
 20
24.0459976874
 30
0.0
 10
30.102255023
 20
24.1258765352
 30
0.0
 10
29.7558939508
 20
24.1831370795
 30
0.0
 10
29.2703421161
 20
24.2344114636
 30
0.0
 10
28.6496801334
 20
24.256713126
 30
0.0
 10
28.029018187
 20
24.2344114334
 30
0.0
 10
27.5434663857
 20
24.1831369717
 30
0.0
 10
27.1971054206
 20
24.1258763483
 30
0.0
 10
26.869765838
 20
24.0459974854
 30
0.0
 10
26.5660710047
 20
23.9393202221
 30
0.0
 10
26.2906712337
 20
23.8014889297
 30
0.0
 10
26.0483142713
 20
23.6287455057
 30
0.0
 10
25.8434412749
 20
23.4193456756
 30
0.0
 10
25.6786780734
 20
23.174692721
 30
0.0
 10
25.553318292
 20
22.8986853049
 30
0.0
 10
25.4636005092
 20
22.5960289937
 30
0.0
 10
25.4041093679
 20
22.2713207989
 30
0.0
 10
25.3565256754
 20
21.8071070955
 30
0.0
 10
25.3496806396
 20
21.4503292123
 30
0.0
 10
25.3496806396
 20
21.2088754656
 30
0.0
  0
ELLIPSE
  5
27E
100
AcDbEntity
  8
0
100
AcDbEllipse
 62
7
  6
CONTINUOUS
 10
28.6496806396
 20
54.2791136793
 30
0.0
 11
2.55
 21
-0.0
 31
0.0
 40
0.2679491924
 41
6.3331937046
 42
9.3747695634
  0
ENDSEC
  0
SECTION
  2
OBJECTS
  0
DICTIONARY
  5
C
100
AcDbDictionary
280
0
281
1
  3
ACAD_GROUP
350
D
  3
ACAD_MLINESTYLE
350
17
  3
ACAD_LAYOUT
350
1A
  3
ACAD_PLOTSETTINGS
350
19
  3
ACAD_PLOTSTYLENAME
350
E
  0
DICTIONARY
  5
D
102
{ACAD_REACTORS
330
C
102
}
100
AcDbDictionary
280
0
281
1
  0
ACDBDICTIONARYWDFLT
  5
E
102
{ACAD_REACTORS
330
C
102
}
100
AcDbDictionary
281
1
  3
Normal
350
F
100
AcDbDictionaryWithDefault
340
F
  0
DICTIONARY
  5
17
102
{ACAD_REACTORS
330
C
102
}
100
AcDbDictionary
280
0
281
1
  3
Standard
350
18
  0
DICTIONARY
  5
19
102
{ACAD_REACTORS
330
C
102
}
100
AcDbDictionary
281
1
  0
DICTIONARY
  5
1A
102
{ACAD_REACTORS
330
C
102
}
100
AcDbDictionary
281
1
  3
Model
350
27F
  3
Layout1
350
280
  0
ACDBPLACEHOLDER
  5
F
102
{ACAD_REACTORS
330
E
102
}
  0
MLINESTYLE
  5
18
102
{ACAD_REACTORS
330
17
102
}
100
AcDbMlineStyle
  2
STANDARD
 70
0
  3

 62
256
 51
90.0
 52
90.0
 71
2
 49
0.5
 62
256
  6
BYLAYER
 49
-0.5
 62
256
  6
BYLAYER
  0
LAYOUT
  5
27F
102
{ACAD_REACTORS
330
1A
102
}
100
AcDbPlotSettings
  1

  2
none_device
  4

  6

 40
0.0
 41
0.0
 42
0.0
 43
0.0
 44
210.0
 45
297.0
 46
0.0
 47
0.0
 48
0.0
 49
0.0
140
0.0
141
0.0
142
1.0
143
1.0
 70
1024
 72
1
 73
0
 74
0
  7

 75
0
147
1.0
148
0.0
149
0.0
100
AcDbLayout
  1
Model
 70
0
 71
0
 10
0.0
 20
0.0
 11
210.0
 21
297.0
 12
0.0
 22
0.0
 32
0.0
 14
0.0
 24
0.0
 34
0.0
 15
0.0
 25
0.0
 35
0.0
146
0.0
 13
0.0
 23
0.0
 33
0.0
 16
1.0
 26
0.0
 36
0.0
 17
0.0
 27
1.0
 37
0.0
 76
0
330
210
345
0
346
0
  0
LAYOUT
  5
280
102
{ACAD_REACTORS
330
1A
102
}
100
AcDbPlotSettings
  1

  2
none_device
  4

  6

 40
0.0
 41
0.0
 42
0.0
 43
0.0
 44
210.0
 45
297.0
 46
0.0
 47
0.0
 48
0.0
 49
0.0
140
0.0
141
0.0
142
1.0
143
1.0
 70
0
 72
1
 73
0
 74
0
  7

 75
0
147
1.0
148
0.0
149
0.0
100
AcDbLayout
  1
Layout1
 70
0
 71
1
 10
0.0
 20
0.0
 11
210.0
 21
297.0
 12
0.0
 22
0.0
 32
0.0
 14
0.0
 24
0.0
 34
0.0
 15
0.0
 25
0.0
 35
0.0
146
0.0
 13
0.0
 23
0.0
 33
0.0
 16
1.0
 26
0.0
 36
0.0
 17
0.0
 27
1.0
 37
0.0
 76
0
330
211
345
0
346
0
  0
ENDSEC
  0
EOF
