999
DXF file: C:\Users\sesa63760\Dev\_Creo\CAD\MCADID0002083_3D-CAD\drw0001_3.dxf
999
Pro/ENGINEER 2019471 by Parametric Technology Corporation
  0
SECTION
  2
HEADER
  9
$ACADVER
  1
AC1024
  9
$DWGCODEPAGE
  3
ANSI_1252
  9
$EXTMAX
 10
254.7122828489
 20
360.2359428863
 30
0.0
  9
$EXTMIN
 10
0.0
 20
0.0
 30
0.0
  9
$LIMMIN
 10
0.0
 20
0.0
  9
$LIMMAX
 10
254.7122828489
 20
360.2359428863
  9
$VIEWCTR
 10
127.3561414245
 20
180.1179714432
  9
$VIEWSIZE
 40
360.2359428863
  9
$CLAYER
  8
0
  9
$LTSCALE
 40
23.4820466474
  9
$CELTYPE
  6
BYLAYER
  9
$DIMSCALE
 40
1.0
  9
$DIMASZ
 40
3.0322890815
  9
$DIMEXO
 40
1.0
  9
$DIMDLI
 40
16.2239595018
  9
$DIMEXE
 40
1.0
  9
$DIMCEN
 40
3.8425167241
  9
$DIMLFAC
 40
1.0
  9
$DIMBLK
  1
_FILLED
  9
$DIMALT
 70
0
  9
$DIMALTF
 40
0.0393700787
  9
$DIMTXT
 40
4.2452047141
  9
$DIMTOL
 70
1
  9
$DIMLIM
 70
0
  9
$DIMTFAC
 40
1.0
  9
$DIMTP
 40
0.01
  9
$DIMTM
 40
0.01
  9
$DIMGAP
 40
0.625
  9
$DIMDSEP
 70
46
  9
$AUNITS
 70
0
  9
$PDMODE
 70
3
  9
$PDSIZE
 40
0.3125
  9
$HANDSEED
  5
3A8
  9
$TILEMODE
 70
1
  9
$MEASUREMENT
 70
1
  9
$INSUNITS
 70
4
  0
ENDSEC
  0
SECTION
  2
CLASSES
  0
CLASS
  1
ACDBDICTIONARYWDFLT
  2
AcDbDictionaryWithDefault
  3
AutoCAD 2000
 90
0
 91
1
280
0
281
0
  0
CLASS
  1
ACDBPLACEHOLDER
  2
AcDbPlaceHolder
  3
AutoCAD 2000
 90
0
 91
1
280
0
281
0
  0
CLASS
  1
LAYOUT
  2
AcDbLayout
  3
AutoCAD 2000
 90
0
 91
0
280
0
281
0
  0
ENDSEC
  0
SECTION
  2
TABLES
  0
TABLE
  2
VPORT
  5
8
100
AcDbSymbolTable
 70
2
  0
VPORT
  5
1F4
100
AcDbSymbolTableRecord
100
AcDbViewportTableRecord
  2
*ACTIVE
 70
0
 10
0.0
 20
0.0
 11
1.0
 21
1.0
 12
127.3561414245
 22
180.1179714432
 13
0.0
 23
0.0
 14
1.0
 24
1.0
 15
0.0
 25
0.0
 16
0.0
 26
0.0
 36
1.0
 17
0.0
 27
0.0
 37
0.0
 40
360.2359428863
 41
0.7070707071
 42
50.0
 43
0.0
 44
0.0
 50
0.0
 51
0.0
 71
0
 72
100
 73
1
 74
1
 75
0
 76
0
 77
0
 78
0
  0
ENDTAB
  0
TABLE
  2
LTYPE
  5
5
100
AcDbSymbolTable
 70
6
  0
LTYPE
  5
14
100
AcDbSymbolTableRecord
100
AcDbLinetypeTableRecord
  2
BYBLOCK
 70
0
  3

 72
65
 73
0
 40
0.0
  0
LTYPE
  5
15
100
AcDbSymbolTableRecord
100
AcDbLinetypeTableRecord
  2
BYLAYER
 70
0
  3

 72
65
 73
0
 40
0.0
  0
LTYPE
  5
16
100
AcDbSymbolTableRecord
100
AcDbLinetypeTableRecord
  2
CONTINUOUS
 70
64
  3
Solid line
 72
65
 73
0
 40
0.0
  0
LTYPE
  5
1F5
100
AcDbSymbolTableRecord
100
AcDbLinetypeTableRecord
  2
CENTER
 70
64
  3
____ _ ____ _ ____ _ ____ _ ____ _ ____ _ ____
 72
65
 73
4
 40
0.6
 49
0.375
 74
0
 49
-0.075
 74
0
 49
0.075
 74
0
 49
-0.075
 74
0
  0
LTYPE
  5
1F6
100
AcDbSymbolTableRecord
100
AcDbLinetypeTableRecord
  2
HIDDEN
 70
64
  3
- - - - - - - - - - - - - - - - - - - -
 72
65
 73
2
 40
0.2
 49
0.1
 74
0
 49
-0.1
 74
0
  0
LTYPE
  5
1F7
100
AcDbSymbolTableRecord
100
AcDbLinetypeTableRecord
  2
PHANTOM
 70
64
  3
_____ _ _ _____ _ _ _____ _ _ _____
 72
65
 73
6
 40
0.8
 49
0.45
 74
0
 49
-0.05
 74
0
 49
0.1
 74
0
 49
-0.05
 74
0
 49
0.1
 74
0
 49
-0.05
 74
0
  0
LTYPE
  5
1F8
100
AcDbSymbolTableRecord
100
AcDbLinetypeTableRecord
  2
DOT
 70
64
  3
. . . . . . . . . . . . . . . . . . . .
 72
65
 73
2
 40
0.2
 49
0.1
 74
0
 49
-0.1
 74
0
  0
LTYPE
  5
1F9
100
AcDbSymbolTableRecord
100
AcDbLinetypeTableRecord
  2
DASHED
 70
64
  3
- - - - - - - - - - - - - - - - - - - -
 72
65
 73
2
 40
0.2
 49
0.1
 74
0
 49
-0.1
 74
0
  0
ENDTAB
  0
TABLE
  2
LAYER
  5
2
100
AcDbSymbolTable
 70
36
  0
LAYER
  5
10
100
AcDbSymbolTableRecord
100
AcDbLayerTableRecord
  2
0
 70
0
 62
7
  6
CONTINUOUS
370
-3
390
F
  0
LAYER
  5
1FA
100
AcDbSymbolTableRecord
100
AcDbLayerTableRecord
  2
DEFAULT_1
 70
0
 62
7
  6
CENTER
370
-3
390
F
  0
LAYER
  5
1FB
100
AcDbSymbolTableRecord
100
AcDbLayerTableRecord
  2
DEFAULT_2
 70
0
 62
8
  6
HIDDEN
370
-3
390
F
  0
LAYER
  5
1FC
100
AcDbSymbolTableRecord
100
AcDbLayerTableRecord
  2
DEFAULT_3
 70
0
 62
7
  6
PHANTOM
370
-3
390
F
  0
LAYER
  5
1FD
100
AcDbSymbolTableRecord
100
AcDbLayerTableRecord
  2
00_COMPONENTS
 70
0
 62
7
  6
CONTINUOUS
370
-3
390
F
  0
LAYER
  5
1FE
100
AcDbSymbolTableRecord
100
AcDbLayerTableRecord
  2
01_1_DEFAULT_DATUMS
 70
0
 62
7
  6
CONTINUOUS
370
-3
390
F
  0
LAYER
  5
1FF
100
AcDbSymbolTableRecord
100
AcDbLayerTableRecord
  2
01_PLANES
 70
0
 62
7
  6
CONTINUOUS
370
-3
390
F
  0
LAYER
  5
200
100
AcDbSymbolTableRecord
100
AcDbLayerTableRecord
  2
02_COORD_SYS
 70
0
 62
7
  6
CONTINUOUS
370
-3
390
F
  0
LAYER
  5
201
100
AcDbSymbolTableRecord
100
AcDbLayerTableRecord
  2
03_AXES
 70
0
 62
7
  6
CONTINUOUS
370
-3
390
F
  0
LAYER
  5
202
100
AcDbSymbolTableRecord
100
AcDbLayerTableRecord
  2
04_POINTS
 70
0
 62
7
  6
CONTINUOUS
370
-3
390
F
  0
LAYER
  5
203
100
AcDbSymbolTableRecord
100
AcDbLayerTableRecord
  2
05_CURVES
 70
0
 62
7
  6
CONTINUOUS
370
-3
390
F
  0
LAYER
  5
204
100
AcDbSymbolTableRecord
100
AcDbLayerTableRecord
  2
06_SURFS
 70
0
 62
7
  6
CONTINUOUS
370
-3
390
F
  0
LAYER
  5
205
100
AcDbSymbolTableRecord
100
AcDbLayerTableRecord
  2
07_COSMETICS
 70
0
 62
7
  6
CONTINUOUS
370
-3
390
F
  0
LAYER
  5
206
100
AcDbSymbolTableRecord
100
AcDbLayerTableRecord
  2
10_NOTES
 70
0
 62
7
  6
CONTINUOUS
370
-3
390
F
  0
LAYER
  5
207
100
AcDbSymbolTableRecord
100
AcDbLayerTableRecord
  2
11_NOTES_PUB
 70
0
 62
7
  6
CONTINUOUS
370
-3
390
F
  0
LAYER
  5
208
100
AcDbSymbolTableRecord
100
AcDbLayerTableRecord
  2
13_REF_GTOL
 70
0
 62
7
  6
CONTINUOUS
370
-3
390
F
  0
LAYER
  5
209
100
AcDbSymbolTableRecord
100
AcDbLayerTableRecord
  2
16_MISC
 70
0
 62
7
  6
CONTINUOUS
370
-3
390
F
  0
LAYER
  5
20A
100
AcDbSymbolTableRecord
100
AcDbLayerTableRecord
  2
17_NO_PRINT
 70
0
 62
7
  6
CONTINUOUS
370
-3
390
F
  0
LAYER
  5
20B
100
AcDbSymbolTableRecord
100
AcDbLayerTableRecord
  2
18_DATUM_CAMS_JOINTS
 70
0
 62
7
  6
CONTINUOUS
370
-3
390
F
  0
LAYER
  5
20C
100
AcDbSymbolTableRecord
100
AcDbLayerTableRecord
  2
19_DATUM_FUNCTIONAL
 70
0
 62
7
  6
CONTINUOUS
370
-3
390
F
  0
LAYER
  5
20D
100
AcDbSymbolTableRecord
100
AcDbLayerTableRecord
  2
20_DATUM_KINEMATIC_SCHEME
 70
0
 62
7
  6
CONTINUOUS
370
-3
390
F
  0
ENDTAB
  0
TABLE
  2
STYLE
  5
3
100
AcDbSymbolTable
 70
1
  0
STYLE
  5
11
100
AcDbSymbolTableRecord
100
AcDbTextStyleTableRecord
  2
STANDARD
 70
0
 40
0.0
 41
0.8
 50
0.0
 71
0
 42
0.2
  3
txt
  4

  0
STYLE
  5
20E
100
AcDbSymbolTableRecord
100
AcDbTextStyleTableRecord
  2
TEXTSTYLE_1
 70
0
 40
0.0
 41
0.8
 50
0.0
 71
0
 42
0.2
  3
gdt
  4

  0
ENDTAB
  0
TABLE
  2
VIEW
  5
6
100
AcDbSymbolTable
 70
0
  0
ENDTAB
  0
TABLE
  2
UCS
  5
7
100
AcDbSymbolTable
 70
0
  0
ENDTAB
  0
TABLE
  2
APPID
  5
9
100
AcDbSymbolTable
 70
1
  0
APPID
  5
20F
100
AcDbSymbolTableRecord
100
AcDbRegAppTableRecord
  2
ACAD
 70
0
  0
ENDTAB
  0
TABLE
  2
BLOCK_RECORD
  5
1
100
AcDbSymbolTable
 70
0
  0
BLOCK_RECORD
  5
210
100
AcDbSymbolTableRecord
100
AcDbBlockTableRecord
  2
*Model_Space
  0
BLOCK_RECORD
  5
211
100
AcDbSymbolTableRecord
100
AcDbBlockTableRecord
  2
*Paper_Space
  0
BLOCK_RECORD
  5
212
100
AcDbSymbolTableRecord
100
AcDbBlockTableRecord
  2
_FILLED
  0
ENDTAB
  0
TABLE
  2
DIMSTYLE
  5
A
100
AcDbSymbolTable
 70
1
100
AcDbDimStyleTable
 71
0
  0
DIMSTYLE
105
213
100
AcDbSymbolTableRecord
100
AcDbDimStyleTableRecord
  2
STANDARD
 70
0
  3

  4

 40
1.0
 41
3.0322890815
 42
1.0
 43
0.38
 44
1.0
 45
0.0
 46
0.0
 47
0.01
 48
0.01
140
4.2452047141
141
0.09
142
0.0
143
25.4
144
1.0
145
0.0
146
1.0
147
0.625
 71
1
 72
0
 73
0
 74
0
 75
0
 76
0
 77
1
 78
8
 79
2
170
0
171
1
172
0
173
0
174
0
175
0
176
0
177
0
178
0
270
2
179
2
271
2
272
2
273
2
274
2
275
0
280
0
281
0
282
0
283
1
284
8
285
0
286
0
287
3
288
0
340
11
278
46
341
212
342
212
343
212
344
212
  0
ENDTAB
  0
ENDSEC
  0
SECTION
  2
BLOCKS
  0
BLOCK
  5
20
100
AcDbEntity
  8
0
100
AcDbBlockBegin
  2
*Model_Space
 70
0
 10
0.0
 20
0.0
 30
0.0
  3
*Model_Space
  1

  0
ENDBLK
  5
21
100
AcDbEntity
  8
0
100
AcDbBlockEnd
  0
BLOCK
  5
1C
100
AcDbEntity
  8
0
100
AcDbBlockBegin
  2
*Paper_Space
 70
0
 10
0.0
 20
0.0
 30
0.0
  3
*Paper_Space
  1

  0
ENDBLK
  5
1D
100
AcDbEntity
  8
0
100
AcDbBlockEnd
  0
BLOCK
  5
214
100
AcDbEntity
  8
0
100
AcDbBlockBegin
  2
_FILLED
 70
64
 10
0.0
 20
0.0
  3
_FILLED
  1

  0
SOLID
  5
215
100
AcDbEntity
  8
0
  6
BYBLOCK
 62
0
100
AcDbTrace
 10
0.0
 20
0.0
 11
-1.0
 21
0.25
 12
-1.0
 22
-0.25
 13
-1.0
 23
-0.25
  0
ENDBLK
  5
216
100
AcDbEntity
  8
0
  6
BYBLOCK
 62
0
100
AcDbBlockEnd
  0
ENDSEC
  0
SECTION
  2
ENTITIES
  0
LINE
  5
217
100
AcDbEntity
  8
0
100
AcDbLine
 62
7
  6
CONTINUOUS
 10
136.5333707459
 20
28.8806049682
 11
125.2333707459
 21
28.8806049682
  0
LINE
  5
218
100
AcDbEntity
  8
0
100
AcDbLine
 62
7
  6
CONTINUOUS
 10
125.0569001576
 20
31.8701881755
 11
136.7098413341
 21
31.8701881755
  0
LINE
  5
219
100
AcDbEntity
  8
0
100
AcDbLine
 62
7
  6
CONTINUOUS
 10
136.5333707459
 20
32.0687992699
 11
125.2348565201
 21
32.0687992699
  0
LINE
  5
21A
100
AcDbEntity
  8
0
100
AcDbLine
 62
7
  6
CONTINUOUS
 10
125.2333707459
 20
37.1806049682
 11
136.5333707459
 21
37.1806049682
  0
LINE
  5
21B
100
AcDbEntity
  8
0
100
AcDbLine
 62
7
  6
CONTINUOUS
 10
137.5333707459
 20
37.3806049682
 11
124.2333707459
 21
37.3806049682
  0
LINE
  5
21C
100
AcDbEntity
  8
0
100
AcDbLine
 62
7
  6
CONTINUOUS
 10
124.0581960219
 20
40.3701881755
 11
137.7098413341
 21
40.3701881755
  0
LINE
  5
21D
100
AcDbEntity
  8
0
100
AcDbLine
 62
7
  6
CONTINUOUS
 10
137.5333707459
 20
40.5687992699
 11
124.2346331108
 21
40.5687992699
  0
LINE
  5
21E
100
AcDbEntity
  8
0
100
AcDbLine
 62
7
  6
CONTINUOUS
 10
124.2333707459
 20
45.6806049682
 11
137.5333707459
 21
45.6806049682
  0
LINE
  5
21F
100
AcDbEntity
  8
0
100
AcDbLine
 62
7
  6
CONTINUOUS
 10
138.5333707459
 20
45.8806049682
 11
123.2333707459
 21
45.8806049682
  0
LINE
  5
220
100
AcDbEntity
  8
0
100
AcDbLine
 62
7
  6
CONTINUOUS
 10
123.05802283
 20
48.8701881755
 11
138.7098413341
 21
48.8701881755
  0
LINE
  5
221
100
AcDbEntity
  8
0
100
AcDbLine
 62
7
  6
CONTINUOUS
 10
138.5333707459
 20
49.0687992699
 11
123.2344681043
 21
49.0687992699
  0
LINE
  5
222
100
AcDbEntity
  8
0
100
AcDbLine
 62
7
  6
CONTINUOUS
 10
123.2333707459
 20
54.1806049682
 11
138.5333707459
 21
54.1806049682
  0
LINE
  5
223
100
AcDbEntity
  8
0
100
AcDbLine
 62
7
  6
CONTINUOUS
 10
139.5333707459
 20
54.3806049682
 11
122.2333707459
 21
54.3806049682
  0
LINE
  5
224
100
AcDbEntity
  8
0
100
AcDbLine
 62
7
  6
CONTINUOUS
 10
122.0569001576
 20
57.3701881755
 11
139.7098413341
 21
57.3701881755
  0
LINE
  5
225
100
AcDbEntity
  8
0
100
AcDbLine
 62
7
  6
CONTINUOUS
 10
139.5333707459
 20
57.5687992699
 11
122.2343412471
 21
57.5687992699
  0
LINE
  5
226
100
AcDbEntity
  8
0
100
AcDbLine
 62
7
  6
CONTINUOUS
 10
122.2333707459
 20
62.6806049682
 11
139.5333707459
 21
62.6806049682
  0
LINE
  5
227
100
AcDbEntity
  8
0
100
AcDbLine
 62
7
  6
CONTINUOUS
 10
139.8835042037
 20
62.8806049682
 11
121.883237288
 21
62.8806049682
  0
LINE
  5
228
100
AcDbEntity
  8
0
100
AcDbLine
 62
7
  6
CONTINUOUS
 10
141.3720174434
 20
64.1953258941
 11
120.3947240484
 21
64.1953258941
  0
LINE
  5
229
100
AcDbEntity
  8
0
100
AcDbLine
 62
7
  6
CONTINUOUS
 10
119.0849023139
 20
74.7183005063
 11
142.6809937701
 21
74.7183005063
  0
LINE
  5
22A
100
AcDbEntity
  8
0
100
AcDbLine
 62
7
  6
CONTINUOUS
 10
142.6833707459
 20
74.7430043829
 11
119.0833707459
 21
74.7430043829
  0
LINE
  5
22B
100
AcDbEntity
  8
0
100
AcDbLine
 62
7
  6
CONTINUOUS
 10
147.9963574675
 20
97.6761087071
 11
147.6258188849
 21
97.6227664717
  0
LINE
  5
22C
100
AcDbEntity
  8
0
100
AcDbLine
 62
7
  6
CONTINUOUS
 10
119.0833707459
 20
93.3306049682
 11
142.6833707459
 21
93.3306049682
  0
LINE
  5
22D
100
AcDbEntity
  8
0
100
AcDbLine
 62
7
  6
CONTINUOUS
 10
145.6833707459
 20
93.5306049682
 11
116.0833707459
 21
93.5306049682
  0
LINE
  5
22E
100
AcDbEntity
  8
0
100
AcDbLine
 62
7
  6
CONTINUOUS
 10
145.8833707459
 20
93.7306049682
 11
115.8833707459
 21
93.7306049682
  0
LINE
  5
22F
100
AcDbEntity
  8
0
100
AcDbLine
 62
7
  6
CONTINUOUS
 10
115.8833707459
 20
96.8306049682
 11
121.3827285634
 21
96.8306049682
  0
LINE
  5
230
100
AcDbEntity
  8
0
100
AcDbLine
 62
7
  6
CONTINUOUS
 10
140.3840293797
 20
96.8306049682
 11
145.8827653999
 21
96.8306049682
  0
LINE
  5
231
100
AcDbEntity
  8
0
100
AcDbLine
 62
7
  6
CONTINUOUS
 10
116.0833707459
 20
97.0306049682
 11
119.083351666
 21
97.0306049682
  0
LINE
  5
232
100
AcDbEntity
  8
0
100
AcDbLine
 62
7
  6
CONTINUOUS
 10
142.6833923502
 20
97.0306049682
 11
145.6827734712
 21
97.0306049682
  0
LINE
  5
233
100
AcDbEntity
  8
0
100
AcDbLine
 62
7
  6
CONTINUOUS
 10
114.1409225479
 20
97.6227650215
 11
113.7703028871
 21
97.6761191259
  0
LINE
  5
234
100
AcDbEntity
  8
0
100
AcDbLine
 62
7
  6
CONTINUOUS
 10
155.6821374904
 20
107.0299231591
 11
156.3481654941
 21
107.1258344839
  0
LINE
  5
235
100
AcDbEntity
  8
0
100
AcDbLine
 62
7
  6
CONTINUOUS
 10
156.348169644
 20
107.1258218936
 11
156.8833707459
 21
107.1878918786
  0
LINE
  5
236
100
AcDbEntity
  8
0
100
AcDbLine
 62
7
  6
CONTINUOUS
 10
107.8783494172
 20
109.4490290074
 11
112.8833460815
 21
109.4490290074
  0
LINE
  5
237
100
AcDbEntity
  8
0
100
AcDbLine
 62
7
  6
CONTINUOUS
 10
148.8833978177
 20
109.4490290074
 11
153.8883920744
 21
109.4490290074
  0
LINE
  5
238
100
AcDbEntity
  8
0
100
AcDbLine
 62
7
  6
CONTINUOUS
 10
104.8833707459
 20
107.1878874823
 11
105.4185708082
 21
107.1258175904
  0
LINE
  5
239
100
AcDbEntity
  8
0
100
AcDbLine
 62
7
  6
CONTINUOUS
 10
105.4185758548
 20
107.1258173837
 11
106.084604085
 21
107.0299228141
  0
LINE
  5
23A
100
AcDbEntity
  8
0
100
AcDbLine
 62
7
  6
CONTINUOUS
 10
125.8833680987
 20
113.0868536451
 11
135.8833706884
 21
113.0868536452
  0
LINE
  5
23B
100
AcDbEntity
  8
0
100
AcDbLine
 62
7
  6
CONTINUOUS
 10
154.2968263778
 20
117.4490290074
 11
148.8833714812
 21
117.4490290074
  0
LINE
  5
23C
100
AcDbEntity
  8
0
100
AcDbLine
 62
7
  6
CONTINUOUS
 10
112.8833681535
 20
117.4490290074
 11
107.4699151139
 21
117.4490290074
  0
LINE
  5
23D
100
AcDbEntity
  8
0
100
AcDbLine
 62
7
  6
CONTINUOUS
 10
154.7018677457
 20
117.8490290074
 11
152.6226144274
 21
117.8490290074
  0
LINE
  5
23E
100
AcDbEntity
  8
0
100
AcDbLine
 62
7
  6
CONTINUOUS
 10
109.1441351071
 20
117.8490290074
 11
107.064873746
 21
117.8490290074
  0
LINE
  5
23F
100
AcDbEntity
  8
0
100
AcDbLine
 62
7
  6
CONTINUOUS
 10
135.883364957
 20
121.5721347769
 11
125.8833730422
 21
121.5721348854
  0
LWPOLYLINE
  5
240
100
AcDbEntity
  8
0
100
AcDbPolyline
 62
7
  6
CONTINUOUS
 90
4
 70
0
 10
108.0289345084
 20
238.3982281023
 10
107.7010831844
 20
237.4426833082
 10
107.2251448585
 20
235.9429404842
 10
107.1221310357
 20
235.59749476
  0
LINE
  5
241
100
AcDbEntity
  8
0
100
AcDbLine
 62
7
  6
CONTINUOUS
 10
108.0113140237
 20
238.4040838043
 11
108.1362799147
 21
238.7397770674
  0
LWPOLYLINE
  5
242
100
AcDbEntity
  8
0
100
AcDbPolyline
 62
7
  6
CONTINUOUS
 90
4
 70
0
 10
107.1221310357
 20
235.59749476
 10
106.2943865266
 20
232.4467072913
 10
105.4379896268
 20
227.8638153108
 10
105.0745457622
 20
224.6562115921
  0
LINE
  5
243
100
AcDbEntity
  8
0
100
AcDbLine
 62
7
  6
CONTINUOUS
 10
108.1362799147
 20
238.7397770674
 11
108.9348883955
 21
241.2348782117
  0
LINE
  5
244
100
AcDbEntity
  8
0
100
AcDbLine
 62
7
  6
CONTINUOUS
 10
108.0299739678
 20
238.3982800629
 11
107.1410796098
 21
235.661660486
  0
LINE
  5
245
100
AcDbEntity
  8
0
100
AcDbLine
 62
7
  6
CONTINUOUS
 10
108.9348883955
 20
241.2348782117
 11
108.1333707459
 21
238.7898734816
  0
LINE
  5
246
100
AcDbEntity
  8
0
100
AcDbLine
 62
7
  6
CONTINUOUS
 10
117.2833707459
 20
145.6790290074
 11
144.4833707459
 21
145.6790290074
  0
LINE
  5
247
100
AcDbEntity
  8
0
100
AcDbLine
 62
7
  6
CONTINUOUS
 10
108.1333707459
 20
238.7898734816
 11
108.1362799147
 21
238.7397770674
  0
LINE
  5
248
100
AcDbEntity
  8
0
100
AcDbLine
 62
7
  6
CONTINUOUS
 10
104.8833697738
 20
219.8492808328
 11
104.8833707459
 21
107.1878744962
  0
LINE
  5
249
100
AcDbEntity
  8
0
100
AcDbLine
 62
7
  6
CONTINUOUS
 10
105.4185758548
 20
107.1258173837
 11
105.4185657615
 21
219.8511996786
  0
LINE
  5
24A
100
AcDbEntity
  8
0
100
AcDbLine
 62
7
  6
CONTINUOUS
 10
107.064873746
 20
113.1847297618
 11
107.064873746
 21
117.8490290074
  0
LINE
  5
24B
100
AcDbEntity
  8
0
100
AcDbLine
 62
7
  6
CONTINUOUS
 10
107.5148483769
 20
207.3537850026
 11
107.5148504881
 21
117.8490290074
  0
LINE
  5
24C
100
AcDbEntity
  8
0
100
AcDbLine
 62
7
  6
CONTINUOUS
 10
107.5148772024
 20
219.7349140941
 11
107.5148769252
 21
214.3546985045
  0
LINE
  5
24D
100
AcDbEntity
  8
0
100
AcDbLine
 62
7
  6
CONTINUOUS
 10
111.2833707459
 20
112.1674284456
 11
111.2833707459
 21
114.7306295692
  0
LINE
  5
24E
100
AcDbEntity
  8
0
100
AcDbLine
 62
7
  6
CONTINUOUS
 10
111.3833707459
 20
328.1173227941
 11
111.3833707459
 21
258.1796702209
  0
LINE
  5
24F
100
AcDbEntity
  8
0
100
AcDbLine
 62
7
  6
CONTINUOUS
 10
105.0742208542
 20
224.6523249554
 11
104.8853387519
 21
219.8511995643
  0
LWPOLYLINE
  5
250
100
AcDbEntity
  8
0
100
AcDbPolyline
 62
7
  6
CONTINUOUS
 90
3
 70
0
 10
105.0401817248
 20
224.2248909414
 10
104.9115941049
 20
221.8408521281
 10
104.8833697738
 20
219.8492808328
  0
LINE
  5
251
100
AcDbEntity
  8
0
100
AcDbLine
 62
7
  6
CONTINUOUS
 10
105.0745457622
 20
224.6562115921
 11
105.0401817248
 21
224.2248909414
  0
LINE
  5
252
100
AcDbEntity
  8
0
100
AcDbLine
 62
7
  6
CONTINUOUS
 10
119.0849023139
 20
74.7183005063
 11
120.3947240484
 21
64.1953258941
  0
LINE
  5
253
100
AcDbEntity
  8
0
100
AcDbLine
 62
7
  6
CONTINUOUS
 10
114.4833707459
 20
112.1674284456
 11
114.4833707459
 21
114.7306295692
  0
LINE
  5
254
100
AcDbEntity
  8
0
100
AcDbLine
 62
7
  6
CONTINUOUS
 10
115.8833707459
 20
96.8306049682
 11
115.8833707459
 21
93.7306049682
  0
LINE
  5
255
100
AcDbEntity
  8
0
100
AcDbLine
 62
7
  6
CONTINUOUS
 10
116.2833707459
 20
146.6790290074
 11
116.2833707459
 21
170.6790290074
  0
LINE
  5
256
100
AcDbEntity
  8
0
100
AcDbLine
 62
7
  6
CONTINUOUS
 10
116.8054498
 20
258.1783088337
 11
116.8054498
 21
327.4061864431
  0
LINE
  5
257
100
AcDbEntity
  8
0
100
AcDbLine
 62
7
  6
CONTINUOUS
 10
119.0833707459
 20
93.3306049682
 11
119.0833707459
 21
74.7430043829
  0
LINE
  5
258
100
AcDbEntity
  8
0
100
AcDbLine
 62
7
  6
CONTINUOUS
 10
106.084604085
 20
107.0299228141
 11
107.064873746
 21
113.1847297618
  0
LINE
  5
259
100
AcDbEntity
  8
0
100
AcDbLine
 62
7
  6
CONTINUOUS
 10
117.2833707459
 20
171.6790290074
 11
144.4833707459
 21
171.6790290074
  0
LINE
  5
25A
100
AcDbEntity
  8
0
100
AcDbLine
 62
7
  6
CONTINUOUS
 10
122.2333707459
 20
62.6806049682
 11
122.2333707459
 21
57.5687992699
  0
LINE
  5
25B
100
AcDbEntity
  8
0
100
AcDbLine
 62
7
  6
CONTINUOUS
 10
123.2333707459
 20
54.1806049682
 11
123.2333707459
 21
49.0687992699
  0
LINE
  5
25C
100
AcDbEntity
  8
0
100
AcDbLine
 62
7
  6
CONTINUOUS
 10
124.2333707459
 20
45.6806049682
 11
124.2333707459
 21
40.5687992699
  0
LINE
  5
25D
100
AcDbEntity
  8
0
100
AcDbLine
 62
7
  6
CONTINUOUS
 10
125.2333707459
 20
37.1806049682
 11
125.2333707459
 21
32.0687992699
  0
LINE
  5
25E
100
AcDbEntity
  8
0
100
AcDbLine
 62
7
  6
CONTINUOUS
 10
125.8833707478
 20
113.0868536451
 11
125.8833707459
 21
161.3624042171
  0
LINE
  5
25F
100
AcDbEntity
  8
0
100
AcDbLine
 62
7
  6
CONTINUOUS
 10
125.8833707459
 20
167.9956537978
 11
125.8833361582
 21
183.2172499933
  0
LINE
  5
260
100
AcDbEntity
  8
0
100
AcDbLine
 62
7
  6
CONTINUOUS
 10
130.8833713602
 20
317.679102994
 11
130.8833674485
 21
317.1789690597
  0
LINE
  5
261
100
AcDbEntity
  8
0
100
AcDbLine
 62
7
  6
CONTINUOUS
 10
130.8833701311
 20
308.4789550208
 11
130.8833740455
 21
308.9790887581
  0
LINE
  5
262
100
AcDbEntity
  8
0
100
AcDbLine
 62
7
  6
CONTINUOUS
 10
130.8833713602
 20
269.679102994
 11
130.8833674485
 21
269.1789690597
  0
LINE
  5
263
100
AcDbEntity
  8
0
100
AcDbLine
 62
7
  6
CONTINUOUS
 10
130.8833701311
 20
260.4789550208
 11
130.8833740455
 21
260.9790887581
  0
LINE
  5
264
100
AcDbEntity
  8
0
100
AcDbLine
 62
7
  6
CONTINUOUS
 10
119.3655179837
 20
107.5249265364
 11
118.1616330268
 21
99.96597826
  0
LINE
  5
265
100
AcDbEntity
  8
0
100
AcDbLine
 62
7
  6
CONTINUOUS
 10
125.8833361635
 20
183.2172499981
 11
125.5135852156
 21
184.2274195596
  0
LINE
  5
266
100
AcDbEntity
  8
0
100
AcDbLine
 62
7
  6
CONTINUOUS
 10
143.605105684
 20
99.9659784011
 11
142.4012235048
 21
107.5249265356
  0
LINE
  5
267
100
AcDbEntity
  8
0
100
AcDbLine
 62
7
  6
CONTINUOUS
 10
135.8833707459
 20
161.3624042171
 11
135.8833645674
 21
113.0868536451
  0
LINE
  5
268
100
AcDbEntity
  8
0
100
AcDbLine
 62
7
  6
CONTINUOUS
 10
135.8833881745
 20
183.2172557523
 11
135.8833707459
 21
167.9956537978
  0
LINE
  5
269
100
AcDbEntity
  8
0
100
AcDbLine
 62
7
  6
CONTINUOUS
 10
136.5333707459
 20
37.1806049682
 11
136.5333707459
 21
32.0687992699
  0
LINE
  5
26A
100
AcDbEntity
  8
0
100
AcDbLine
 62
7
  6
CONTINUOUS
 10
137.5333707459
 20
45.6806049682
 11
137.5333707459
 21
40.5687992699
  0
LINE
  5
26B
100
AcDbEntity
  8
0
100
AcDbLine
 62
7
  6
CONTINUOUS
 10
138.5333707459
 20
54.1806049682
 11
138.5333707459
 21
49.0687992699
  0
LINE
  5
26C
100
AcDbEntity
  8
0
100
AcDbLine
 62
7
  6
CONTINUOUS
 10
139.5333707459
 20
62.6806049682
 11
139.5333707459
 21
57.5687992699
  0
LINE
  5
26D
100
AcDbEntity
  8
0
100
AcDbLine
 62
7
  6
CONTINUOUS
 10
135.8833812629
 20
183.2172582815
 11
136.2531352315
 21
184.2274248976
  0
LINE
  5
26E
100
AcDbEntity
  8
0
100
AcDbLine
 62
7
  6
CONTINUOUS
 10
142.6833707459
 20
93.3306049682
 11
142.6833707459
 21
74.7430043829
  0
LINE
  5
26F
100
AcDbEntity
  8
0
100
AcDbLine
 62
7
  6
CONTINUOUS
 10
144.9613133573
 20
258.1786179592
 11
144.9613133573
 21
327.4062140085
  0
LINE
  5
270
100
AcDbEntity
  8
0
100
AcDbLine
 62
7
  6
CONTINUOUS
 10
145.4833707459
 20
170.6790290074
 11
145.4833707459
 21
146.6790290074
  0
LINE
  5
271
100
AcDbEntity
  8
0
100
AcDbLine
 62
7
  6
CONTINUOUS
 10
145.8833707459
 20
96.8306049682
 11
145.8833707459
 21
93.7306049682
  0
LINE
  5
272
100
AcDbEntity
  8
0
100
AcDbLine
 62
7
  6
CONTINUOUS
 10
147.2833707459
 20
112.1674284456
 11
147.2833707459
 21
114.7306295692
  0
LINE
  5
273
100
AcDbEntity
  8
0
100
AcDbLine
 62
7
  6
CONTINUOUS
 10
150.3833707459
 20
258.1794809201
 11
150.3833707459
 21
328.1174925404
  0
LINE
  5
274
100
AcDbEntity
  8
0
100
AcDbLine
 62
7
  6
CONTINUOUS
 10
150.4833707459
 20
112.1674284456
 11
150.4833707459
 21
114.7306295692
  0
LINE
  5
275
100
AcDbEntity
  8
0
100
AcDbLine
 62
7
  6
CONTINUOUS
 10
153.6304584642
 20
238.7397864624
 11
153.6333707459
 21
238.7898734816
  0
LINE
  5
276
100
AcDbEntity
  8
0
100
AcDbLine
 62
7
  6
CONTINUOUS
 10
154.7018677457
 20
113.1847297618
 11
155.6821374904
 21
107.0299231591
  0
LWPOLYLINE
  5
277
100
AcDbEntity
  8
0
100
AcDbPolyline
 62
7
  6
CONTINUOUS
 90
4
 70
0
 10
156.8058795406
 20
223.0784593386
 10
156.4037964048
 20
227.3865062744
 10
155.4605640731
 20
232.5323377487
 10
154.3420320678
 20
236.5989853351
  0
LINE
  5
278
100
AcDbEntity
  8
0
100
AcDbLine
 62
7
  6
CONTINUOUS
 10
156.8059081509
 20
223.0779235581
 11
156.8066926711
 21
223.0631928135
  0
LINE
  5
279
100
AcDbEntity
  8
0
100
AcDbLine
 62
7
  6
CONTINUOUS
 10
156.8066926711
 20
223.0631928135
 11
156.8814020456
 21
219.8505185768
  0
LWPOLYLINE
  5
27A
100
AcDbEntity
  8
0
100
AcDbPolyline
 62
7
  6
CONTINUOUS
 90
3
 70
0
 10
156.8833707576
 20
219.8490312555
 10
156.8708917101
 20
221.3501421405
 10
156.8066926711
 20
223.0631928135
  0
LINE
  5
27B
100
AcDbEntity
  8
0
100
AcDbLine
 62
7
  6
CONTINUOUS
 10
154.2518640479
 20
214.3547048594
 11
154.251864903
 21
219.8041116479
  0
LINE
  5
27C
100
AcDbEntity
  8
0
100
AcDbLine
 62
7
  6
CONTINUOUS
 10
154.2518897922
 20
117.8490290074
 11
154.2518914554
 21
207.3537398258
  0
LINE
  5
27D
100
AcDbEntity
  8
0
100
AcDbLine
 62
7
  6
CONTINUOUS
 10
154.7018677457
 20
117.8490290074
 11
154.7018677457
 21
113.1847297618
  0
LINE
  5
27E
100
AcDbEntity
  8
0
100
AcDbLine
 62
7
  6
CONTINUOUS
 10
156.3481737939
 20
219.8505184167
 11
156.3481654941
 21
107.1258344839
  0
LINE
  5
27F
100
AcDbEntity
  8
0
100
AcDbLine
 62
7
  6
CONTINUOUS
 10
156.8833707459
 20
107.1878915866
 11
156.8833707459
 21
219.8490290879
  0
LINE
  5
280
100
AcDbEntity
  8
0
100
AcDbLine
 62
7
  6
CONTINUOUS
 10
142.6818391778
 20
74.7183005063
 11
141.3720174434
 21
64.1953258941
  0
LINE
  5
281
100
AcDbEntity
  8
0
100
AcDbLine
 62
7
  6
CONTINUOUS
 10
104.8853492503
 20
219.8506570889
 11
106.7226291321
 21
219.8501098751
  0
LINE
  5
282
100
AcDbEntity
  8
0
100
AcDbLine
 62
7
  6
CONTINUOUS
 10
154.2528810952
 20
219.8490286039
 11
156.881392134
 21
219.8508910177
  0
LINE
  5
283
100
AcDbEntity
  8
0
100
AcDbLine
 62
7
  6
CONTINUOUS
 10
106.2876289928
 20
219.8501094233
 11
106.7226291205
 21
219.8490191681
  0
LINE
  5
284
100
AcDbEntity
  8
0
100
AcDbLine
 62
7
  6
CONTINUOUS
 10
153.6304584642
 20
238.7397864624
 11
153.7554090751
 21
238.4041378438
  0
LINE
  5
285
100
AcDbEntity
  8
0
100
AcDbLine
 62
7
  6
CONTINUOUS
 10
153.7367689249
 20
238.3982761303
 11
154.325382939
 21
236.6514138118
  0
LWPOLYLINE
  5
286
100
AcDbEntity
  8
0
100
AcDbPolyline
 62
7
  6
CONTINUOUS
 90
3
 70
0
 10
154.325382939
 20
236.6514138118
 10
153.9615759036
 20
237.7550473019
 10
153.737790019
 20
238.3982761303
  0
LINE
  5
287
100
AcDbEntity
  8
0
100
AcDbLine
 62
7
  6
CONTINUOUS
 10
153.6333707459
 20
238.7898734816
 11
152.8318289404
 21
241.2349600501
  0
LINE
  5
288
100
AcDbEntity
  8
0
100
AcDbLine
 62
7
  6
CONTINUOUS
 10
152.8318289404
 20
241.2349600501
 11
153.6304584642
 21
238.7397864624
  0
LINE
  5
289
100
AcDbEntity
  8
0
100
AcDbLine
 62
7
  6
CONTINUOUS
 10
154.325382939
 20
236.6514138118
 11
154.3420328543
 21
236.598982854
  0
LINE
  5
28A
100
AcDbEntity
  8
0
100
AcDbLine
 62
7
  6
CONTINUOUS
 10
104.8833707459
 20
219.8501144484
 11
104.8853492503
 21
219.8506570889
  0
LINE
  5
28B
100
AcDbEntity
  8
0
100
AcDbLine
 62
7
  6
CONTINUOUS
 10
156.881392134
 20
219.8508910177
 11
156.8833707459
 21
219.849773855
  0
LINE
  5
28C
100
AcDbEntity
  8
0
100
AcDbLine
 62
7
  6
CONTINUOUS
 10
114.7899973575
 20
238.3982879086
 11
108.0299739678
 21
238.3982800629
  0
LINE
  5
28D
100
AcDbEntity
  8
0
100
AcDbLine
 62
7
  6
CONTINUOUS
 10
153.737790019
 20
238.3982761303
 11
147.0079494169
 21
238.3982950431
  0
LINE
  5
28E
100
AcDbEntity
  8
0
100
AcDbLine
 62
7
  6
CONTINUOUS
 10
126.9751755491
 20
252.9209322689
 11
127.4212621533
 21
252.5648239922
  0
LINE
  5
28F
100
AcDbEntity
  8
0
100
AcDbLine
 62
7
  6
CONTINUOUS
 10
148.810070342
 20
258.1896882757
 11
147.8027528537
 21
258.1786056246
  0
LINE
  5
290
100
AcDbEntity
  8
0
100
AcDbLine
 62
7
  6
CONTINUOUS
 10
150.3833707459
 20
258.1799328621
 11
150.1070044964
 21
258.1798525957
  0
LINE
  5
291
100
AcDbEntity
  8
0
100
AcDbLine
 62
7
  6
CONTINUOUS
 10
116.8054498
 20
258.1783088337
 11
113.9583574091
 21
258.1783088337
  0
LINE
  5
292
100
AcDbEntity
  8
0
100
AcDbLine
 62
7
  6
CONTINUOUS
 10
147.8027528537
 20
258.1786056246
 11
144.9613133574
 21
258.1786056246
  0
LINE
  5
293
100
AcDbEntity
  8
0
100
AcDbLine
 62
7
  6
CONTINUOUS
 10
129.6017701841
 20
263.4790290074
 11
132.1649713077
 21
263.4790290074
  0
LINE
  5
294
100
AcDbEntity
  8
0
100
AcDbLine
 62
7
  6
CONTINUOUS
 10
111.6558551718
 20
258.1799896506
 11
111.3833707462
 21
258.180311453
  0
LINE
  5
295
100
AcDbEntity
  8
0
100
AcDbLine
 62
7
  6
CONTINUOUS
 10
129.6017701841
 20
266.6790290074
 11
132.1649713077
 21
266.6790290074
  0
LINE
  5
296
100
AcDbEntity
  8
0
100
AcDbLine
 62
7
  6
CONTINUOUS
 10
129.6017701841
 20
311.4790290074
 11
132.1649713077
 21
311.4790290074
  0
LINE
  5
297
100
AcDbEntity
  8
0
100
AcDbLine
 62
7
  6
CONTINUOUS
 10
129.6017701841
 20
314.6790290074
 11
132.1649713077
 21
314.6790290074
  0
LINE
  5
298
100
AcDbEntity
  8
0
100
AcDbLine
 62
7
  6
CONTINUOUS
 10
116.3835686261
 20
333.1190290074
 11
145.3831729896
 21
333.1190290074
  0
ARC
  5
299
100
AcDbEntity
  8
0
100
AcDbCircle
 62
7
  6
CONTINUOUS
 10
-382.6280342453
 20
263.6359412784
 40
509.715833871
100
AcDbArc
 50
358.7954620239
 51
359.3865977984
  0
ARC
  5
29A
100
AcDbEntity
  8
0
100
AcDbCircle
 62
7
  6
CONTINUOUS
 10
125.2333707459
 20
30.3806049682
 40
1.5
100
AcDbArc
 50
96.7563270306
 51
270.0
  0
ARC
  5
29B
100
AcDbEntity
  8
0
100
AcDbCircle
 62
7
  6
CONTINUOUS
 10
124.2333707459
 20
38.8806049682
 40
1.5
100
AcDbArc
 50
96.7563270306
 51
270.0
  0
ARC
  5
29C
100
AcDbEntity
  8
0
100
AcDbCircle
 62
7
  6
CONTINUOUS
 10
123.2333707459
 20
47.3806049682
 40
1.5
100
AcDbArc
 50
96.7563270306
 51
270.0
  0
ARC
  5
29D
100
AcDbEntity
  8
0
100
AcDbCircle
 62
7
  6
CONTINUOUS
 10
122.2333707459
 20
55.8806049682
 40
1.5
100
AcDbArc
 50
96.7563270306
 51
270.0
  0
ARC
  5
29E
100
AcDbEntity
  8
0
100
AcDbCircle
 62
7
  6
CONTINUOUS
 10
121.883237288
 20
64.3806049682
 40
1.5
100
AcDbArc
 50
187.0952600393
 51
270.0
  0
ARC
  5
29F
100
AcDbEntity
  8
0
100
AcDbCircle
 62
7
  6
CONTINUOUS
 10
125.0333707459
 20
32.0687992699
 40
0.2
100
AcDbArc
 50
276.7563270309
 51
360.0
  0
ARC
  5
2A0
100
AcDbEntity
  8
0
100
AcDbCircle
 62
7
  6
CONTINUOUS
 10
124.0333707459
 20
40.5687992699
 40
0.2
100
AcDbArc
 50
276.7563270309
 51
360.0
  0
ARC
  5
2A1
100
AcDbEntity
  8
0
100
AcDbCircle
 62
7
  6
CONTINUOUS
 10
125.0333707459
 20
37.1806049682
 40
0.2
100
AcDbArc
 50
0.0
 51
90.0
  0
ARC
  5
2A2
100
AcDbEntity
  8
0
100
AcDbCircle
 62
7
  6
CONTINUOUS
 10
124.0333707459
 20
45.6806049682
 40
0.2
100
AcDbArc
 50
0.0
 51
90.0
  0
ARC
  5
2A3
100
AcDbEntity
  8
0
100
AcDbCircle
 62
7
  6
CONTINUOUS
 10
123.0333707459
 20
49.0687992699
 40
0.2
100
AcDbArc
 50
276.7563270309
 51
360.0
  0
ARC
  5
2A4
100
AcDbEntity
  8
0
100
AcDbCircle
 62
7
  6
CONTINUOUS
 10
122.0333707459
 20
57.5687992699
 40
0.2
100
AcDbArc
 50
276.7563270309
 51
360.0
  0
ARC
  5
2A5
100
AcDbEntity
  8
0
100
AcDbCircle
 62
7
  6
CONTINUOUS
 10
123.0333707459
 20
54.1806049682
 40
0.2
100
AcDbArc
 50
0.0
 51
90.0
  0
ARC
  5
2A6
100
AcDbEntity
  8
0
100
AcDbCircle
 62
7
  6
CONTINUOUS
 10
118.8833707459
 20
93.3306049682
 40
0.2
100
AcDbArc
 50
0.0
 51
90.0
  0
ARC
  5
2A7
100
AcDbEntity
  8
0
100
AcDbCircle
 62
7
  6
CONTINUOUS
 10
122.0333707459
 20
62.6806049682
 40
0.2
100
AcDbArc
 50
0.0
 51
90.0
  0
ARC
  5
2A8
100
AcDbEntity
  8
0
100
AcDbCircle
 62
7
  6
CONTINUOUS
 10
116.0833707459
 20
93.7306049682
 40
0.2
100
AcDbArc
 50
180.0
 51
270.0
  0
ARC
  5
2A9
100
AcDbEntity
  8
0
100
AcDbCircle
 62
7
  6
CONTINUOUS
 10
116.0833707459
 20
96.8306049682
 40
0.2
100
AcDbArc
 50
90.0
 51
180.0
  0
ARC
  5
2AA
100
AcDbEntity
  8
0
100
AcDbCircle
 62
7
  6
CONTINUOUS
 10
114.3833707459
 20
107.1878739705
 40
9.5
100
AcDbArc
 50
179.999999988
 51
261.4123997712
  0
ARC
  5
2AB
100
AcDbEntity
  8
0
100
AcDbCircle
 62
7
  6
CONTINUOUS
 10
115.416355625
 20
106.6700379405
 40
9.136773472
100
AcDbArc
 50
259.7334492468
 51
261.7944778542
  0
ARC
  5
2AC
100
AcDbEntity
  8
0
100
AcDbCircle
 62
7
  6
CONTINUOUS
 10
125.8841323404
 20
106.4849637687
 40
6.6016862895
100
AcDbArc
 50
90.0066326008
 51
151.2923391571
  0
ARC
  5
2AD
100
AcDbEntity
  8
0
100
AcDbCircle
 62
7
  6
CONTINUOUS
 10
125.8840584691
 20
106.486641685
 40
6.6007060664
100
AcDbArc
 50
151.3048056174
 51
170.9498459567
  0
CIRCLE
  5
2AE
100
AcDbEntity
  8
0
100
AcDbCircle
 62
7
  6
CONTINUOUS
 10
130.8833707459
 20
164.6790290074
 40
6.0
  0
ARC
  5
2AF
100
AcDbEntity
  8
0
100
AcDbCircle
 62
7
  6
CONTINUOUS
 10
112.7431674049
 20
113.4092685532
 40
4.5789222409
100
AcDbArc
 50
269.0009444674
 51
283.2519787009
  0
ARC
  5
2B0
100
AcDbEntity
  8
0
100
AcDbCircle
 62
7
  6
CONTINUOUS
 10
112.8833707459
 20
113.4490290074
 40
4.0
100
AcDbArc
 50
270.0
 51
89.9998517645
  0
CIRCLE
  5
2B1
100
AcDbEntity
  8
0
100
AcDbCircle
 62
7
  6
CONTINUOUS
 10
130.8833707459
 20
164.6790290074
 40
2.683281573
  0
ARC
  5
2B2
100
AcDbEntity
  8
0
100
AcDbCircle
 62
7
  6
CONTINUOUS
 10
112.8833707459
 20
113.4490290074
 40
2.05
100
AcDbArc
 50
218.6947399219
 51
321.3052600781
  0
ARC
  5
2B3
100
AcDbEntity
  8
0
100
AcDbCircle
 62
7
  6
CONTINUOUS
 10
112.8833707459
 20
113.4490290074
 40
2.05
100
AcDbArc
 50
38.6947399219
 51
141.3052600781
  0
ARC
  5
2B4
100
AcDbEntity
  8
0
100
AcDbCircle
 62
7
  6
CONTINUOUS
 10
112.8833707459
 20
113.4490290074
 40
1.75
100
AcDbArc
 50
193.1893182057
 51
346.8106817943
  0
ARC
  5
2B5
100
AcDbEntity
  8
0
100
AcDbCircle
 62
7
  6
CONTINUOUS
 10
112.8833707459
 20
113.4490290074
 40
1.75
100
AcDbArc
 50
13.1893182058
 51
166.8106817942
  0
CIRCLE
  5
2B6
100
AcDbEntity
  8
0
100
AcDbCircle
 62
7
  6
CONTINUOUS
 10
112.8833707459
 20
113.4490290074
 40
1.4654812634
  0
CIRCLE
  5
2B7
100
AcDbEntity
  8
0
100
AcDbCircle
 62
7
  6
CONTINUOUS
 10
112.8833707459
 20
113.4490290074
 40
1.1654926865
  0
ARC
  5
2B8
100
AcDbEntity
  8
0
100
AcDbCircle
 62
7
  6
CONTINUOUS
 10
117.2833707459
 20
170.6790290074
 40
1.0
100
AcDbArc
 50
90.0
 51
180.0
  0
ARC
  5
2B9
100
AcDbEntity
  8
0
100
AcDbCircle
 62
7
  6
CONTINUOUS
 10
117.2833707459
 20
146.6790290074
 40
1.0
100
AcDbArc
 50
180.0
 51
270.0
  0
ARC
  5
2BA
100
AcDbEntity
  8
0
100
AcDbCircle
 62
7
  6
CONTINUOUS
 10
136.5333707459
 20
30.3806049682
 40
1.5
100
AcDbArc
 50
270.0
 51
83.2436729694
  0
ARC
  5
2BB
100
AcDbEntity
  8
0
100
AcDbCircle
 62
7
  6
CONTINUOUS
 10
137.5333707459
 20
38.8806049682
 40
1.5
100
AcDbArc
 50
270.0
 51
83.2436729694
  0
ARC
  5
2BC
100
AcDbEntity
  8
0
100
AcDbCircle
 62
7
  6
CONTINUOUS
 10
138.5333707459
 20
47.3806049682
 40
1.5
100
AcDbArc
 50
270.0
 51
83.2436729694
  0
ARC
  5
2BD
100
AcDbEntity
  8
0
100
AcDbCircle
 62
7
  6
CONTINUOUS
 10
139.5333707459
 20
55.8806049682
 40
1.5
100
AcDbArc
 50
270.0
 51
83.2436729694
  0
ARC
  5
2BE
100
AcDbEntity
  8
0
100
AcDbCircle
 62
7
  6
CONTINUOUS
 10
139.8835042037
 20
64.3806049682
 40
1.5
100
AcDbArc
 50
270.0
 51
352.9047399607
  0
ARC
  5
2BF
100
AcDbEntity
  8
0
100
AcDbCircle
 62
7
  6
CONTINUOUS
 10
136.7333707459
 20
37.1806049682
 40
0.2
100
AcDbArc
 50
90.0
 51
180.0
  0
ARC
  5
2C0
100
AcDbEntity
  8
0
100
AcDbCircle
 62
7
  6
CONTINUOUS
 10
136.7333707459
 20
32.0687992699
 40
0.2
100
AcDbArc
 50
180.0
 51
263.2436729691
  0
ARC
  5
2C1
100
AcDbEntity
  8
0
100
AcDbCircle
 62
7
  6
CONTINUOUS
 10
137.7333707459
 20
40.5687992699
 40
0.2
100
AcDbArc
 50
180.0
 51
263.2436729691
  0
ARC
  5
2C2
100
AcDbEntity
  8
0
100
AcDbCircle
 62
7
  6
CONTINUOUS
 10
137.7333707459
 20
45.6806049682
 40
0.2
100
AcDbArc
 50
90.0
 51
180.0
  0
ARC
  5
2C3
100
AcDbEntity
  8
0
100
AcDbCircle
 62
7
  6
CONTINUOUS
 10
138.7333707459
 20
54.1806049682
 40
0.2
100
AcDbArc
 50
90.0
 51
180.0
  0
ARC
  5
2C4
100
AcDbEntity
  8
0
100
AcDbCircle
 62
7
  6
CONTINUOUS
 10
138.7333707459
 20
49.0687992699
 40
0.2
100
AcDbArc
 50
180.0
 51
263.2436729691
  0
ARC
  5
2C5
100
AcDbEntity
  8
0
100
AcDbCircle
 62
7
  6
CONTINUOUS
 10
139.7333707459
 20
62.6806049682
 40
0.2
100
AcDbArc
 50
90.0
 51
180.0
  0
ARC
  5
2C6
100
AcDbEntity
  8
0
100
AcDbCircle
 62
7
  6
CONTINUOUS
 10
139.7333707459
 20
57.5687992699
 40
0.2
100
AcDbArc
 50
180.0
 51
263.2436729691
  0
ARC
  5
2C7
100
AcDbEntity
  8
0
100
AcDbCircle
 62
7
  6
CONTINUOUS
 10
145.6833707459
 20
96.8306049682
 40
0.2
100
AcDbArc
 50
0.0
 51
90.0
  0
ARC
  5
2C8
100
AcDbEntity
  8
0
100
AcDbCircle
 62
7
  6
CONTINUOUS
 10
142.8833707459
 20
93.3306049682
 40
0.2
100
AcDbArc
 50
90.0
 51
180.0
  0
ARC
  5
2C9
100
AcDbEntity
  8
0
100
AcDbCircle
 62
7
  6
CONTINUOUS
 10
145.6833707459
 20
93.7306049682
 40
0.2
100
AcDbArc
 50
270.0
 51
360.0
  0
ARC
  5
2CA
100
AcDbEntity
  8
0
100
AcDbCircle
 62
7
  6
CONTINUOUS
 10
147.3833707459
 20
107.1878739705
 40
9.5
100
AcDbArc
 50
278.5876116561
 51
360.0
  0
ARC
  5
2CB
100
AcDbEntity
  8
0
100
AcDbCircle
 62
7
  6
CONTINUOUS
 10
146.3503885438
 20
106.6700219116
 40
9.1367572256
100
AcDbArc
 50
278.2054920506
 51
280.2660594535
  0
ARC
  5
2CC
100
AcDbEntity
  8
0
100
AcDbCircle
 62
7
  6
CONTINUOUS
 10
149.8918733368
 20
115.8062087351
 40
7.1172303386
100
AcDbArc
 50
251.3084044078
 51
254.3666736769
  0
ARC
  5
2CD
100
AcDbEntity
  8
0
100
AcDbCircle
 62
7
  6
CONTINUOUS
 10
135.8797541764
 20
106.4856399171
 40
6.6037567009
100
AcDbArc
 50
9.054739789
 51
28.6895498004
  0
ARC
  5
2CE
100
AcDbEntity
  8
0
100
AcDbCircle
 62
7
  6
CONTINUOUS
 10
135.8826058091
 20
106.484953471
 40
6.6016954944
100
AcDbArc
 50
28.7066574976
 51
89.9933618792
  0
ARC
  5
2CF
100
AcDbEntity
  8
0
100
AcDbCircle
 62
7
  6
CONTINUOUS
 10
149.3963515908
 20
111.2861193345
 40
6.5181418291
100
AcDbArc
 50
92.0872115136
 51
94.8749258622
  0
ARC
  5
2D0
100
AcDbEntity
  8
0
100
AcDbCircle
 62
7
  6
CONTINUOUS
 10
149.0237262089
 20
113.4106851427
 40
4.5803359666
100
AcDbArc
 50
256.7502313132
 51
270.9968502023
  0
ARC
  5
2D1
100
AcDbEntity
  8
0
100
AcDbCircle
 62
7
  6
CONTINUOUS
 10
148.8833707459
 20
113.4490290074
 40
4.0
100
AcDbArc
 50
89.9999947345
 51
270.0
  0
ARC
  5
2D2
100
AcDbEntity
  8
0
100
AcDbCircle
 62
7
  6
CONTINUOUS
 10
148.8833707459
 20
113.4490290074
 40
2.05
100
AcDbArc
 50
218.6947399219
 51
321.3052600781
  0
ARC
  5
2D3
100
AcDbEntity
  8
0
100
AcDbCircle
 62
7
  6
CONTINUOUS
 10
148.8833707459
 20
113.4490290074
 40
2.05
100
AcDbArc
 50
38.6947399219
 51
141.3052600781
  0
ARC
  5
2D4
100
AcDbEntity
  8
0
100
AcDbCircle
 62
7
  6
CONTINUOUS
 10
148.8833707459
 20
113.4490290074
 40
1.75
100
AcDbArc
 50
193.1893182057
 51
346.8106817943
  0
ARC
  5
2D5
100
AcDbEntity
  8
0
100
AcDbCircle
 62
7
  6
CONTINUOUS
 10
148.8833707459
 20
113.4490290074
 40
1.75
100
AcDbArc
 50
13.1893182058
 51
166.8106817942
  0
CIRCLE
  5
2D6
100
AcDbEntity
  8
0
100
AcDbCircle
 62
7
  6
CONTINUOUS
 10
148.8833707459
 20
113.4490290074
 40
1.4654812634
  0
CIRCLE
  5
2D7
100
AcDbEntity
  8
0
100
AcDbCircle
 62
7
  6
CONTINUOUS
 10
148.8833707459
 20
113.4490290074
 40
1.1654926865
  0
ARC
  5
2D8
100
AcDbEntity
  8
0
100
AcDbCircle
 62
7
  6
CONTINUOUS
 10
144.4833707459
 20
146.6790290074
 40
1.0
100
AcDbArc
 50
270.0
 51
360.0
  0
ARC
  5
2D9
100
AcDbEntity
  8
0
100
AcDbCircle
 62
7
  6
CONTINUOUS
 10
144.4833707459
 20
170.6790290074
 40
1.0
100
AcDbArc
 50
0.0
 51
90.0
  0
ARC
  5
2DA
100
AcDbEntity
  8
0
100
AcDbCircle
 62
7
  6
CONTINUOUS
 10
96.8833707459
 20
219.3107179558
 40
60.0
100
AcDbArc
 50
18.5582390071
 51
18.9001787294
  0
ARC
  5
2DB
100
AcDbEntity
  8
0
100
AcDbCircle
 62
7
  6
CONTINUOUS
 10
100.4828118231
 20
219.8259613635
 40
56.4005636388
100
AcDbArc
 50
17.4805303329
 51
19.2254414086
  0
ARC
  5
2DC
100
AcDbEntity
  8
0
100
AcDbCircle
 62
7
  6
CONTINUOUS
 10
105.5839154259
 20
209.1070420351
 40
10.8020137919
100
AcDbArc
 50
79.7024881607
 51
83.948821547
  0
ARC
  5
2DD
100
AcDbEntity
  8
0
100
AcDbCircle
 62
7
  6
CONTINUOUS
 10
105.5636238625
 20
229.9087654718
 40
10.1262995182
100
AcDbArc
 50
276.5684902288
 51
281.1158634732
  0
ARC
  5
2DE
100
AcDbEntity
  8
0
100
AcDbCircle
 62
7
  6
CONTINUOUS
 10
51.3833707459
 20
258.2690290074
 40
60.0
100
AcDbArc
 50
343.5122517531
 51
359.9140573299
  0
ARC
  5
2DF
100
AcDbEntity
  8
0
100
AcDbCircle
 62
7
  6
CONTINUOUS
 10
130.8833707459
 20
216.4490290074
 40
120.0
100
AcDbArc
 50
261.4124045441
 51
270.0
  0
ARC
  5
2E0
100
AcDbEntity
  8
0
100
AcDbCircle
 62
7
  6
CONTINUOUS
 10
130.8833707459
 20
216.4490290074
 40
120.0
100
AcDbArc
 50
276.6107785623
 51
278.5875970181
  0
ARC
  5
2E1
100
AcDbEntity
  8
0
100
AcDbCircle
 62
7
  6
CONTINUOUS
 10
130.8833687467
 20
209.710346501
 40
110.4792691882
100
AcDbArc
 50
263.3876981148
 51
276.6123025208
  0
ARC
  5
2E2
100
AcDbEntity
  8
0
100
AcDbCircle
 62
7
  6
CONTINUOUS
 10
164.8833707459
 20
219.3107179558
 40
60.0
100
AcDbArc
 50
161.0998307243
 51
161.4418155112
  0
ARC
  5
2E3
100
AcDbEntity
  8
0
100
AcDbCircle
 62
7
  6
CONTINUOUS
 10
161.2826448327
 20
219.8261792455
 40
56.3992787144
100
AcDbArc
 50
160.7735632983
 51
162.9150890955
  0
ARC
  5
2E4
100
AcDbEntity
  8
0
100
AcDbCircle
 62
7
  6
CONTINUOUS
 10
122.7664279153
 20
218.8631341704
 40
10.7492665491
100
AcDbArc
 50
171.6051097277
 51
177.8149716047
  0
ARC
  5
2E5
100
AcDbEntity
  8
0
100
AcDbCircle
 62
7
  6
CONTINUOUS
 10
139.0581001752
 20
218.8921993464
 40
10.7274598463
100
AcDbArc
 50
2.3818075187
 51
7.9130839198
  0
ARC
  5
2E6
100
AcDbEntity
  8
0
100
AcDbCircle
 62
7
  6
CONTINUOUS
 10
140.8732362974
 20
219.0621906331
 40
9.9663718318
100
AcDbArc
 50
1.9252335212
 51
7.2827063187
  0
ARC
  5
2E7
100
AcDbEntity
  8
0
100
AcDbCircle
 62
7
  6
CONTINUOUS
 10
120.8875726191
 20
219.0153257797
 40
9.9633236005
100
AcDbArc
 50
172.0666255171
 51
178.1920700891
  0
ARC
  5
2E8
100
AcDbEntity
  8
0
100
AcDbCircle
 62
7
  6
CONTINUOUS
 10
115.6882959205
 20
219.8181402948
 40
8.1738423666
100
AcDbArc
 50
178.918333372
 51
180.5823315278
  0
ARC
  5
2E9
100
AcDbEntity
  8
0
100
AcDbCircle
 62
7
  6
CONTINUOUS
 10
139.7552682523
 20
235.34876696
 40
7.8677192124
100
AcDbArc
 50
21.1875117877
 51
22.8052475039
  0
ARC
  5
2EA
100
AcDbEntity
  8
0
100
AcDbCircle
 62
7
  6
CONTINUOUS
 10
122.0280243482
 20
235.6008676654
 40
7.7598063594
100
AcDbArc
 50
158.8690145349
 51
161.5605788156
  0
ARC
  5
2EB
100
AcDbEntity
  8
0
100
AcDbCircle
 62
7
  6
CONTINUOUS
 10
119.9291227642
 20
236.5609465328
 40
3.2007332662
100
AcDbArc
 50
159.8147884926
 51
163.82451458
  0
ARC
  5
2EC
100
AcDbEntity
  8
0
100
AcDbCircle
 62
7
  6
CONTINUOUS
 10
142.0362705092
 20
236.3687243447
 40
3.0870683289
100
AcDbArc
 50
20.6535164636
 51
23.1477068556
  0
ARC
  5
2ED
100
AcDbEntity
  8
0
100
AcDbCircle
 62
7
  6
CONTINUOUS
 10
148.690916258
 20
240.9138359958
 40
25.0259284389
100
AcDbArc
 50
175.7165442899
 51
181.3816432881
  0
ARC
  5
2EE
100
AcDbEntity
  8
0
100
AcDbCircle
 62
7
  6
CONTINUOUS
 10
113.6380344122
 20
241.7677296449
 40
24.5483464302
100
AcDbArc
 50
356.4658888529
 51
2.2789447039
  0
ARC
  5
2EF
100
AcDbEntity
  8
0
100
AcDbCircle
 62
7
  6
CONTINUOUS
 10
130.8598500474
 20
265.6236118246
 40
5.1447104658
100
AcDbArc
 50
270.2619402267
 51
271.6544294845
  0
ARC
  5
2F0
100
AcDbEntity
  8
0
100
AcDbCircle
 62
7
  6
CONTINUOUS
 10
130.9066488499
 20
264.5374892206
 40
5.1416663632
100
AcDbArc
 50
90.2593919523
 51
91.6527054737
  0
ARC
  5
2F1
100
AcDbEntity
  8
0
100
AcDbCircle
 62
7
  6
CONTINUOUS
 10
130.8810712653
 20
264.8003455033
 40
4.8787579312
100
AcDbArc
 50
88.5044897774
 51
89.9729879336
  0
ARC
  5
2F2
100
AcDbEntity
  8
0
100
AcDbCircle
 62
7
  6
CONTINUOUS
 10
130.8854937964
 20
265.3554754163
 40
4.8765207563
100
AcDbArc
 50
268.5058666237
 51
269.9750484679
  0
CIRCLE
  5
2F3
100
AcDbEntity
  8
0
100
AcDbCircle
 62
7
  6
CONTINUOUS
 10
130.8833707459
 20
265.0790290074
 40
4.1
  0
ARC
  5
2F4
100
AcDbEntity
  8
0
100
AcDbCircle
 62
7
  6
CONTINUOUS
 10
130.8833707459
 20
265.0790290074
 40
2.05
100
AcDbArc
 50
128.6947399219
 51
231.3052600781
  0
ARC
  5
2F5
100
AcDbEntity
  8
0
100
AcDbCircle
 62
7
  6
CONTINUOUS
 10
130.8833707459
 20
265.0790290074
 40
2.05
100
AcDbArc
 50
308.6947399219
 51
51.3052600781
  0
ARC
  5
2F6
100
AcDbEntity
  8
0
100
AcDbCircle
 62
7
  6
CONTINUOUS
 10
130.8833707459
 20
265.0790290074
 40
1.75
100
AcDbArc
 50
115.4229352969
 51
244.577064703
  0
ARC
  5
2F7
100
AcDbEntity
  8
0
100
AcDbCircle
 62
7
  6
CONTINUOUS
 10
130.8833707459
 20
265.0790290074
 40
1.75
100
AcDbArc
 50
295.422935297
 51
64.5770647031
  0
ARC
  5
2F8
100
AcDbEntity
  8
0
100
AcDbCircle
 62
7
  6
CONTINUOUS
 10
130.8833707459
 20
265.0790290074
 40
1.6016432476
100
AcDbArc
 50
316.2401503712
 51
43.8285524268
  0
ARC
  5
2F9
100
AcDbEntity
  8
0
100
AcDbCircle
 62
7
  6
CONTINUOUS
 10
130.8833707459
 20
265.0790290074
 40
1.6016432476
100
AcDbArc
 50
136.2401503711
 51
223.8285524267
  0
ARC
  5
2FA
100
AcDbEntity
  8
0
100
AcDbCircle
 62
7
  6
CONTINUOUS
 10
130.8598500475
 20
313.6236118241
 40
5.1447104653
100
AcDbArc
 50
270.2619402258
 51
271.6544294838
  0
ARC
  5
2FB
100
AcDbEntity
  8
0
100
AcDbCircle
 62
7
  6
CONTINUOUS
 10
130.9066488499
 20
312.5374892216
 40
5.1416663623
100
AcDbArc
 50
90.2593919521
 51
91.6527054738
  0
ARC
  5
2FC
100
AcDbEntity
  8
0
100
AcDbCircle
 62
7
  6
CONTINUOUS
 10
145.3833707459
 20
328.1190290074
 40
5.0
100
AcDbArc
 50
359.98239335
 51
90.0
  0
ARC
  5
2FD
100
AcDbEntity
  8
0
100
AcDbCircle
 62
7
  6
CONTINUOUS
 10
116.3833707459
 20
328.1190290074
 40
5.0
100
AcDbArc
 50
90.0
 51
180.0195517768
  0
ARC
  5
2FE
100
AcDbEntity
  8
0
100
AcDbCircle
 62
7
  6
CONTINUOUS
 10
130.8810712653
 20
312.800345504
 40
4.8787579305
100
AcDbArc
 50
88.504489777
 51
89.9729879334
  0
ARC
  5
2FF
100
AcDbEntity
  8
0
100
AcDbCircle
 62
7
  6
CONTINUOUS
 10
130.8854937964
 20
313.3554754163
 40
4.8765207563
100
AcDbArc
 50
268.5058666237
 51
269.9750484679
  0
CIRCLE
  5
300
100
AcDbEntity
  8
0
100
AcDbCircle
 62
7
  6
CONTINUOUS
 10
130.8833707459
 20
313.0790290074
 40
4.1
  0
ARC
  5
301
100
AcDbEntity
  8
0
100
AcDbCircle
 62
7
  6
CONTINUOUS
 10
130.8833707459
 20
313.0790290074
 40
2.05
100
AcDbArc
 50
308.6947399219
 51
51.3052600781
  0
ARC
  5
302
100
AcDbEntity
  8
0
100
AcDbCircle
 62
7
  6
CONTINUOUS
 10
130.8833707459
 20
313.0790290074
 40
2.05
100
AcDbArc
 50
128.6947399219
 51
231.3052600781
  0
ARC
  5
303
100
AcDbEntity
  8
0
100
AcDbCircle
 62
7
  6
CONTINUOUS
 10
130.8833707459
 20
313.0790290074
 40
1.75
100
AcDbArc
 50
115.4229352969
 51
244.577064703
  0
ARC
  5
304
100
AcDbEntity
  8
0
100
AcDbCircle
 62
7
  6
CONTINUOUS
 10
130.8833707459
 20
313.0790290074
 40
1.75
100
AcDbArc
 50
295.422935297
 51
64.5770647031
  0
ARC
  5
305
100
AcDbEntity
  8
0
100
AcDbCircle
 62
7
  6
CONTINUOUS
 10
130.8833707459
 20
313.0790290074
 40
1.6016432476
100
AcDbArc
 50
316.2401503712
 51
43.8285524268
  0
ARC
  5
306
100
AcDbEntity
  8
0
100
AcDbCircle
 62
7
  6
CONTINUOUS
 10
130.8833707459
 20
313.0790290074
 40
1.6016432476
100
AcDbArc
 50
136.2401503711
 51
223.8285524267
  0
ARC
  5
307
100
AcDbEntity
  8
0
100
AcDbCircle
 62
7
  6
CONTINUOUS
 10
354.8141522875
 20
254.8688743777
 40
220.1263251928
100
AcDbArc
 50
179.1382217474
 51
180.376228846
  0
ARC
  5
308
100
AcDbEntity
  8
0
100
AcDbCircle
 62
7
  6
CONTINUOUS
 10
210.3833707459
 20
258.2690290074
 40
60.0
100
AcDbArc
 50
180.0859437823
 51
196.4876667904
  0
SPLINE
  5
309
100
AcDbEntity
  8
0
100
AcDbSpline
 62
7
  6
CONTINUOUS
 70
0
 71
3
 72
14
 73
10
 74
0
 42
0.0000001
 43
0.0000001
 44
0.0000000001
 40
0.0
 40
0.0
 40
0.0
 40
0.0
 40
0.3015846318
 40
0.444905492
 40
0.579716271
 40
0.7039137624
 40
0.815895143
 40
0.9147245831
 40
1.0
 40
1.0
 40
1.0
 40
1.0
 10
135.8833678505
 20
121.5721346824
 30
0.0
 10
137.6294743915
 20
121.571245491
 30
0.0
 10
140.2084143759
 20
121.4455174866
 30
0.0
 10
143.537820215
 20
121.0105935604
 30
0.0
 10
145.8277827625
 20
120.5753124952
 30
0.0
 10
147.9084949056
 20
120.0351979025
 30
0.0
 10
149.7452649091
 20
119.4043836893
 30
0.0
 10
151.3091794876
 20
118.6956503553
 30
0.0
 10
152.223996095
 20
118.1403504132
 30
0.0
 10
152.6226144274
 20
117.8490290074
 30
0.0
  0
SPLINE
  5
30A
100
AcDbEntity
  8
0
100
AcDbSpline
 62
7
  6
CONTINUOUS
 70
0
 71
3
 72
14
 73
10
 74
0
 42
0.0000001
 43
0.0000001
 44
0.0000000001
 40
0.0
 40
0.0
 40
0.0
 40
0.0
 40
0.2969931671
 40
0.4397284298
 40
0.5742883113
 40
0.698288086
 40
0.8103242192
 40
0.9103949358
 40
1.0
 40
1.0
 40
1.0
 40
1.0
 10
143.6050665507
 20
99.9662300637
 30
0.0
 10
145.059447763
 20
100.0933525655
 30
0.0
 10
147.2033985225
 20
100.5006895697
 30
0.0
 10
149.8611843124
 20
101.4646027609
 30
0.0
 10
151.6295799138
 20
102.3506971879
 30
0.0
 10
153.1415633835
 20
103.3776096669
 30
0.0
 10
154.353490229
 20
104.5129018844
 30
0.0
 10
155.227909221
 20
105.7238755243
 30
0.0
 10
155.5812857439
 20
106.6010949296
 30
0.0
 10
155.6821287049
 20
107.0298665978
 30
0.0
  0
SPLINE
  5
30B
100
AcDbEntity
  8
0
100
AcDbSpline
 62
7
  6
CONTINUOUS
 70
0
 71
3
 72
11
 73
7
 74
0
 42
0.0000001
 43
0.0000001
 44
0.0000000001
 40
0.0
 40
0.0
 40
0.0
 40
0.0
 40
0.1776016709
 40
0.4025018525
 40
0.6762540629
 40
1.0
 40
1.0
 40
1.0
 40
1.0
 10
154.3061018829
 20
108.9769376632
 30
0.0
 10
153.9981720195
 20
108.9657463933
 30
0.0
 10
153.3005793855
 20
108.9333481238
 30
0.0
 10
152.1278823945
 20
108.895358956
 30
0.0
 10
150.7014767477
 20
108.8607481729
 30
0.0
 10
149.6650620075
 20
108.8376669046
 30
0.0
 10
149.1034123311
 20
108.8310423958
 30
0.0
  0
SPLINE
  5
30C
100
AcDbEntity
  8
0
100
AcDbSpline
 62
7
  6
CONTINUOUS
 70
0
 71
3
 72
8
 73
4
 74
0
 42
0.0000001
 43
0.0000001
 44
0.0000000001
 40
0.0
 40
0.0
 40
0.0
 40
0.0
 40
1.0
 40
1.0
 40
1.0
 40
1.0
 10
154.7018677457
 20
113.1847297618
 30
0.0
 10
154.7018677457
 20
111.7759437737
 30
0.0
 10
154.5746338429
 20
110.3598941157
 30
0.0
 10
154.3060504826
 20
108.9769476457
 30
0.0
  0
SPLINE
  5
30D
100
AcDbEntity
  8
0
100
AcDbSpline
 62
7
  6
CONTINUOUS
 70
0
 71
3
 72
9
 73
5
 74
0
 42
0.0000001
 43
0.0000001
 44
0.0000000001
 40
0.0
 40
0.0
 40
0.0
 40
0.0
 40
0.4986763591
 40
1.0
 40
1.0
 40
1.0
 40
1.0
 10
154.2518640479
 20
214.3547048594
 30
0.0
 10
154.3267461704
 20
213.1930189595
 30
0.0
 10
154.3639104599
 20
210.8566098969
 30
0.0
 10
154.3002652754
 20
208.5230162119
 30
0.0
 10
154.2518914554
 20
207.3537398258
 30
0.0
  0
SPLINE
  5
30E
100
AcDbEntity
  8
0
100
AcDbSpline
 62
7
  6
CONTINUOUS
 70
0
 71
3
 72
9
 73
5
 74
0
 42
0.0000001
 43
0.0000001
 44
0.0000000001
 40
0.0
 40
0.0
 40
0.0
 40
0.0
 40
0.287247088
 40
1.0
 40
1.0
 40
1.0
 40
1.0
 10
154.2528810952
 20
219.8490286039
 30
0.0
 10
154.252348362
 20
219.8447573082
 30
0.0
 10
154.2507908976
 20
219.8298520351
 30
0.0
 10
154.2545442227
 20
219.8144507048
 30
0.0
 10
154.251864903
 20
219.8041116479
 30
0.0
  0
SPLINE
  5
30F
100
AcDbEntity
  8
0
100
AcDbSpline
 62
7
  6
CONTINUOUS
 70
0
 71
3
 72
9
 73
5
 74
0
 42
0.0000001
 43
0.0000001
 44
0.0000000001
 40
0.0
 40
0.0
 40
0.0
 40
0.0
 40
0.2487707191
 40
1.0
 40
1.0
 40
1.0
 40
1.0
 10
149.7762919381
 20
219.338015461
 30
0.0
 10
149.6737714071
 20
219.1446416673
 30
0.0
 10
149.2545394088
 20
218.371147722
 30
0.0
 10
148.8063163142
 20
217.613159003
 30
0.0
 10
148.4503151407
 20
217.0562946133
 30
0.0
  0
SPLINE
  5
310
100
AcDbEntity
  8
0
100
AcDbSpline
 62
7
  6
CONTINUOUS
 70
0
 71
3
 72
9
 73
5
 74
0
 42
0.0000001
 43
0.0000001
 44
0.0000000001
 40
0.0
 40
0.0
 40
0.0
 40
0.0
 40
0.2388598409
 40
1.0
 40
1.0
 40
1.0
 40
1.0
 10
150.8339756736
 20
219.3970582457
 30
0.0
 10
150.7497547971
 20
219.3925071321
 30
0.0
 10
150.3971893639
 20
219.3729045717
 30
0.0
 10
150.0446717139
 20
219.3524373355
 30
0.0
 10
149.7762904339
 20
219.3380608971
 30
0.0
  0
SPLINE
  5
311
100
AcDbEntity
  8
0
100
AcDbSpline
 62
7
  6
CONTINUOUS
 70
0
 71
3
 72
12
 73
8
 74
0
 42
0.0000001
 43
0.0000001
 44
0.0000000001
 40
0.0
 40
0.0
 40
0.0
 40
0.0
 40
0.0647121908
 40
0.1463812803
 40
0.3620769344
 40
0.6477146025
 40
1.0
 40
1.0
 40
1.0
 40
1.0
 10
154.2518644754
 20
219.8041114672
 30
0.0
 10
154.1853179261
 20
219.7704986736
 30
0.0
 10
154.0268805308
 20
219.710413718
 30
0.0
 10
153.6221890256
 20
219.6075365724
 30
0.0
 10
152.9540702984
 20
219.5232877253
 30
0.0
 10
151.9737266534
 20
219.4505644154
 30
0.0
 10
151.2395329121
 20
219.4127609709
 30
0.0
 10
150.8339768004
 20
219.3970137476
 30
0.0
  0
SPLINE
  5
312
100
AcDbEntity
  8
0
100
AcDbSpline
 62
7
  6
CONTINUOUS
 70
0
 71
3
 72
9
 73
5
 74
0
 42
0.0000001
 43
0.0000001
 44
0.0000000001
 40
0.0
 40
0.0
 40
0.0
 40
0.0
 40
0.5301071974
 40
1.0
 40
1.0
 40
1.0
 40
1.0
 10
144.8975053684
 20
217.0012268041
 30
0.0
 10
145.5234245315
 20
217.0590503196
 30
0.0
 10
146.7070025434
 20
217.1405518668
 30
0.0
 10
147.8961120474
 20
217.1135396627
 30
0.0
 10
148.4503476462
 20
217.056294613
 30
0.0
  0
SPLINE
  5
313
100
AcDbEntity
  8
0
100
AcDbSpline
 62
7
  6
CONTINUOUS
 70
0
 71
3
 72
9
 73
5
 74
0
 42
0.0000001
 43
0.0000001
 44
0.0000000001
 40
0.0
 40
0.0
 40
0.0
 40
0.0
 40
0.5332244155
 40
1.0
 40
1.0
 40
1.0
 40
1.0
 10
146.7428891478
 20
220.9162551582
 30
0.0
 10
147.3061244753
 20
220.6857635796
 30
0.0
 10
148.3459609262
 20
220.2119791015
 30
0.0
 10
149.3364465339
 20
219.6385611146
 30
0.0
 10
149.7763143474
 20
219.338025305
 30
0.0
  0
SPLINE
  5
314
100
AcDbEntity
  8
0
100
AcDbSpline
 62
7
  6
CONTINUOUS
 70
0
 71
3
 72
11
 73
7
 74
0
 42
0.0000001
 43
0.0000001
 44
0.0000000001
 40
0.0
 40
0.0
 40
0.0
 40
0.0
 40
0.2473301758
 40
0.496033307
 40
0.7469295532
 40
1.0
 40
1.0
 40
1.0
 40
1.0
 10
149.6834230517
 20
220.3692566393
 30
0.0
 10
149.7558137223
 20
221.8627931838
 30
0.0
 10
149.7851368312
 20
224.865556957
 30
0.0
 10
149.4203447906
 20
229.3735120501
 30
0.0
 10
148.5736024022
 20
233.8546031964
 30
0.0
 10
147.6411328171
 20
236.7646076093
 30
0.0
 10
147.0911451103
 20
238.1923313466
 30
0.0
  0
SPLINE
  5
315
100
AcDbEntity
  8
0
100
AcDbSpline
 62
7
  6
CONTINUOUS
 70
0
 71
3
 72
9
 73
5
 74
0
 42
0.0000001
 43
0.0000001
 44
0.0000000001
 40
0.0
 40
0.0
 40
0.0
 40
0.0
 40
0.5349324752
 40
1.0
 40
1.0
 40
1.0
 40
1.0
 10
146.7429005479
 20
220.9164899706
 30
0.0
 10
147.2727263134
 20
220.8525545589
 30
0.0
 10
148.2599457504
 20
220.7050335183
 30
0.0
 10
149.2361636512
 20
220.4926671969
 30
0.0
 10
149.6834194341
 20
220.3692576375
 30
0.0
  0
SPLINE
  5
316
100
AcDbEntity
  8
0
100
AcDbSpline
 62
7
  6
CONTINUOUS
 70
0
 71
3
 72
9
 73
5
 74
0
 42
0.0000001
 43
0.0000001
 44
0.0000000001
 40
0.0
 40
0.0
 40
0.0
 40
0.0
 40
0.2157119987
 40
1.0
 40
1.0
 40
1.0
 40
1.0
 10
147.0911451103
 20
238.1923313466
 30
0.0
 10
146.9342498567
 20
238.142957532
 30
0.0
 10
146.2086505607
 20
237.9085569978
 30
0.0
 10
145.4882416209
 20
237.6583625335
 30
0.0
 10
144.9249368408
 20
237.4575731145
 30
0.0
  0
SPLINE
  5
317
100
AcDbEntity
  8
0
100
AcDbSpline
 62
7
  6
CONTINUOUS
 70
0
 71
3
 72
9
 73
5
 74
0
 42
0.0000001
 43
0.0000001
 44
0.0000000001
 40
0.0
 40
0.0
 40
0.0
 40
0.0
 40
0.2488416457
 40
1.0
 40
1.0
 40
1.0
 40
1.0
 10
147.95592352
 20
238.3983912409
 30
0.0
 10
148.3988649975
 20
236.9445349878
 30
0.0
 10
149.9665526261
 20
231.039201769
 30
0.0
 10
150.6945420325
 20
224.912925747
 30
0.0
 10
150.759210742
 20
220.3255805544
 30
0.0
  0
SPLINE
  5
318
100
AcDbEntity
  8
0
100
AcDbSpline
 62
7
  6
CONTINUOUS
 70
0
 71
3
 72
8
 73
4
 74
0
 42
0.0000001
 43
0.0000001
 44
0.0000000001
 40
0.0
 40
0.0
 40
0.0
 40
0.0
 40
1.0
 40
1.0
 40
1.0
 40
1.0
 10
154.2523105483
 20
219.8979210149
 30
0.0
 10
154.2521369935
 20
219.8818715285
 30
0.0
 10
154.2529333235
 20
219.8658233886
 30
0.0
 10
154.2528763468
 20
219.8497730649
 30
0.0
  0
SPLINE
  5
319
100
AcDbEntity
  8
0
100
AcDbSpline
 62
7
  6
CONTINUOUS
 70
0
 71
3
 72
9
 73
5
 74
0
 42
0.0000001
 43
0.0000001
 44
0.0000000001
 40
0.0
 40
0.0
 40
0.0
 40
0.0
 40
0.5002808363
 40
1.0
 40
1.0
 40
1.0
 40
1.0
 10
151.1320948961
 20
238.3983075035
 30
0.0
 10
152.1861941942
 20
235.4397408581
 30
0.0
 10
153.7766668348
 20
229.3293284871
 30
0.0
 10
154.2794621528
 20
223.0350159413
 30
0.0
 10
154.2523111738
 20
219.8979205126
 30
0.0
  0
SPLINE
  5
31A
100
AcDbEntity
  8
0
100
AcDbSpline
 62
7
  6
CONTINUOUS
 70
0
 71
3
 72
14
 73
10
 74
0
 42
0.0000001
 43
0.0000001
 44
0.0000000001
 40
0.0
 40
0.0
 40
0.0
 40
0.0
 40
0.0626282834
 40
0.1424913095
 40
0.2411941865
 40
0.3587031793
 40
0.4941531118
 40
0.6466681678
 40
1.0
 40
1.0
 40
1.0
 40
1.0
 10
154.2523247665
 20
219.8979211793
 30
0.0
 10
154.1866320019
 20
219.9310209646
 30
0.0
 10
154.0211823608
 20
219.9711779305
 30
0.0
 10
153.740100542
 20
219.9991297254
 30
0.0
 10
153.3943856548
 20
220.0398828164
 30
0.0
 10
152.9859664069
 20
220.1009876691
 30
0.0
 10
152.5143252982
 20
220.1674709928
 30
0.0
 10
151.7660619502
 20
220.2544380774
 30
0.0
 10
151.1734509037
 20
220.3007198475
 30
0.0
 10
150.7591880027
 20
220.3255768691
 30
0.0
  0
SPLINE
  5
31B
100
AcDbEntity
  8
0
100
AcDbSpline
 62
7
  6
CONTINUOUS
 70
0
 71
3
 72
9
 73
5
 74
0
 42
0.0000001
 43
0.0000001
 44
0.0000000001
 40
0.0
 40
0.0
 40
0.0
 40
0.0
 40
0.2397604841
 40
1.0
 40
1.0
 40
1.0
 40
1.0
 10
150.7592126741
 20
220.3255804742
 30
0.0
 10
150.6732907095
 20
220.3302629399
 30
0.0
 10
150.3148234068
 20
220.3479411285
 30
0.0
 10
149.9561236342
 20
220.3603894033
 30
0.0
 10
149.683413292
 20
220.369059503
 30
0.0
  0
SPLINE
  5
31C
100
AcDbEntity
  8
0
100
AcDbSpline
 62
7
  6
CONTINUOUS
 70
0
 71
3
 72
9
 73
5
 74
0
 42
0.0000001
 43
0.0000001
 44
0.0000000001
 40
0.0
 40
0.0
 40
0.0
 40
0.0
 40
0.5000074158
 40
1.0
 40
1.0
 40
1.0
 40
1.0
 10
153.3297139408
 20
238.3983076546
 30
0.0
 10
152.183776874
 20
241.5516374422
 30
0.0
 10
150.4760397586
 20
248.0861821054
 30
0.0
 10
150.0189774101
 20
254.8258687925
 30
0.0
 10
150.1098514627
 20
258.1796330384
 30
0.0
  0
SPLINE
  5
31D
100
AcDbEntity
  8
0
100
AcDbSpline
 62
7
  6
CONTINUOUS
 70
0
 71
3
 72
16
 73
12
 74
0
 42
0.0000001
 43
0.0000001
 44
0.0000000001
 40
0.0
 40
0.0
 40
0.0
 40
0.0
 40
0.1679584066
 40
0.3251858515
 40
0.4702795498
 40
0.6015102667
 40
0.7171177089
 40
0.8158687154
 40
0.8602912057
 40
0.9036028916
 40
1.0
 40
1.0
 40
1.0
 40
1.0
 10
113.5761310281
 20
214.6087639835
 30
0.0
 10
113.2725591746
 20
214.7015001063
 30
0.0
 10
112.6851272204
 20
214.8820716409
 30
0.0
 10
111.8343471138
 20
215.1392033664
 30
0.0
 10
111.0467374882
 20
215.3651706767
 30
0.0
 10
110.3268962726
 20
215.5417694638
 30
0.0
 10
109.6829382422
 20
215.6528122201
 30
0.0
 10
109.1874175246
 20
215.652926731
 30
0.0
 10
108.8451099207
 20
215.5586817386
 30
0.0
 10
108.5385654715
 20
215.3851112688
 30
0.0
 10
108.3821438838
 20
215.1527876973
 30
0.0
 10
108.3100966079
 20
214.985460949
 30
0.0
  0
SPLINE
  5
31E
100
AcDbEntity
  8
0
100
AcDbSpline
 62
7
  6
CONTINUOUS
 70
0
 71
3
 72
9
 73
5
 74
0
 42
0.0000001
 43
0.0000001
 44
0.0000000001
 40
0.0
 40
0.0
 40
0.0
 40
0.0
 40
0.6013166901
 40
1.0
 40
1.0
 40
1.0
 40
1.0
 10
148.810070342
 20
258.1896882757
 30
0.0
 10
149.0700363213
 20
258.1941544495
 30
0.0
 10
149.5023360601
 20
258.1981306764
 30
0.0
 10
149.9349972099
 20
258.1912934022
 30
0.0
 10
150.1070044964
 20
258.1798525957
 30
0.0
  0
SPLINE
  5
31F
100
AcDbEntity
  8
0
100
AcDbSpline
 62
7
  6
CONTINUOUS
 70
0
 71
3
 72
18
 73
14
 74
0
 42
0.0000001
 43
0.0000001
 44
0.0000000001
 40
0.0
 40
0.0
 40
0.0
 40
0.0
 40
0.0092711506
 40
0.0237396714
 40
0.0450591095
 40
0.073708342
 40
0.1098623215
 40
0.1535778105
 40
0.2636987956
 40
0.4039135485
 40
0.5738020251
 40
0.7727937193
 40
1.0
 40
1.0
 40
1.0
 40
1.0
 10
150.3833707459
 20
328.1174211674
 30
0.0
 10
150.3833755719
 20
328.1003784415
 30
0.0
 10
150.3580783708
 20
328.0592083955
 30
0.0
 10
150.2867553386
 20
328.0167875226
 30
0.0
 10
150.1769782977
 20
327.971208872
 30
0.0
 10
150.0249300531
 20
327.9266214228
 30
0.0
 10
149.8305800881
 20
327.8813503129
 30
0.0
 10
149.4873821289
 20
327.8162345984
 30
0.0
 10
148.952207175
 20
327.7388658735
 30
0.0
 10
148.1845901581
 20
327.6519078647
 30
0.0
 10
147.2526023141
 20
327.5663574942
 30
0.0
 10
146.1600104606
 20
327.4827845209
 30
0.0
 10
145.3781967375
 20
327.4317861503
 30
0.0
 10
144.9613133574
 20
327.4062823362
 30
0.0
  0
SPLINE
  5
320
100
AcDbEntity
  8
0
100
AcDbSpline
 62
7
  6
CONTINUOUS
 70
0
 71
3
 72
9
 73
5
 74
0
 42
0.0000001
 43
0.0000001
 44
0.0000000001
 40
0.0
 40
0.0
 40
0.0
 40
0.0
 40
0.5199319101
 40
1.0
 40
1.0
 40
1.0
 40
1.0
 10
116.0112960788
 20
213.69511576
 30
0.0
 10
115.5945597983
 20
213.8672327358
 30
0.0
 10
114.7904863677
 20
214.1917973653
 30
0.0
 10
113.9742469056
 20
214.4871371606
 30
0.0
 10
113.5761036597
 20
214.6087796046
 30
0.0
  0
SPLINE
  5
321
100
AcDbEntity
  8
0
100
AcDbSpline
 62
7
  6
CONTINUOUS
 70
0
 71
3
 72
11
 73
7
 74
0
 42
0.0000001
 43
0.0000001
 44
0.0000000001
 40
0.0
 40
0.0
 40
0.0
 40
0.0
 40
0.2445353689
 40
0.4999475993
 40
0.7553887009
 40
1.0
 40
1.0
 40
1.0
 40
1.0
 10
145.7889497928
 20
213.7088554246
 30
0.0
 10
143.4937045511
 20
212.7611556352
 30
0.0
 10
138.5832834911
 20
211.3229760893
 30
0.0
 10
130.9028962564
 20
210.6015913684
 30
0.0
 10
123.2210424624
 20
211.3157731765
 30
0.0
 10
118.3082524528
 20
212.7495434568
 30
0.0
 10
116.0112960788
 20
213.69511576
 30
0.0
  0
SPLINE
  5
322
100
AcDbEntity
  8
0
100
AcDbSpline
 62
7
  6
CONTINUOUS
 70
0
 71
3
 72
9
 73
5
 74
0
 42
0.0000001
 43
0.0000001
 44
0.0000000001
 40
0.0
 40
0.0
 40
0.0
 40
0.0
 40
0.4802043798
 40
1.0
 40
1.0
 40
1.0
 40
1.0
 10
148.1904097598
 20
214.6087143022
 30
0.0
 10
147.797749906
 20
214.488685499
 30
0.0
 10
146.9927861709
 20
214.1979702926
 30
0.0
 10
146.1998354588
 20
213.8782861134
 30
0.0
 10
145.7889497928
 20
213.7088554246
 30
0.0
  0
SPLINE
  5
323
100
AcDbEntity
  8
0
100
AcDbSpline
 62
7
  6
CONTINUOUS
 70
0
 71
3
 72
16
 73
12
 74
0
 42
0.0000001
 43
0.0000001
 44
0.0000000001
 40
0.0
 40
0.0
 40
0.0
 40
0.0
 40
0.0963947049
 40
0.1397053911
 40
0.1841271587
 40
0.2828769762
 40
0.3984853818
 40
0.5297173279
 40
0.6748121399
 40
0.8320407833
 40
1.0
 40
1.0
 40
1.0
 40
1.0
 10
153.4566223838
 20
214.9854044975
 30
0.0
 10
153.3845849294
 20
215.1527394542
 30
0.0
 10
153.2281567003
 20
215.3850658697
 30
0.0
 10
152.9216190118
 20
215.5586584493
 30
0.0
 10
152.5793109207
 20
215.6529442324
 30
0.0
 10
152.0837644184
 20
215.6528285677
 30
0.0
 10
151.4397803995
 20
215.5417604368
 30
0.0
 10
150.719903179
 20
215.3651413973
 30
0.0
 10
149.9322538777
 20
215.1391547909
 30
0.0
 10
149.0814317025
 20
214.8820035642
 30
0.0
 10
148.493969328
 20
214.7014239816
 30
0.0
 10
148.1903814621
 20
214.6086861434
 30
0.0
  0
SPLINE
  5
324
100
AcDbEntity
  8
0
100
AcDbSpline
 62
7
  6
CONTINUOUS
 70
0
 71
3
 72
16
 73
12
 74
0
 42
0.0000001
 43
0.0000001
 44
0.0000000001
 40
0.0
 40
0.0
 40
0.0
 40
0.0
 40
0.4281260324
 40
0.5984850211
 40
0.738691302
 40
0.8484125906
 40
0.8917923015
 40
0.9275402183
 40
0.9557616279
 40
0.9767036833
 40
1.0
 40
1.0
 40
1.0
 40
1.0
 10
140.5714183806
 20
332.4026704831
 30
0.0
 10
141.2711656553
 20
332.4508979412
 30
0.0
 10
142.2489650176
 20
332.5261365061
 30
0.0
 10
143.4527748998
 20
332.6508956524
 30
0.0
 10
144.1358823004
 20
332.7386544149
 30
0.0
 10
144.610078819
 20
332.8163595629
 30
0.0
 10
144.9128371717
 20
332.8823589395
 30
0.0
 10
145.0821514313
 20
332.9269595224
 30
0.0
 10
145.2158116399
 20
332.9739337961
 30
0.0
 10
145.3182380707
 20
333.019821851
 30
0.0
 10
145.3877548812
 20
333.0811660777
 30
0.0
 10
145.3829481487
 20
333.1190289991
 30
0.0
  0
SPLINE
  5
325
100
AcDbEntity
  8
0
100
AcDbSpline
 62
7
  6
CONTINUOUS
 70
0
 71
3
 72
13
 73
9
 74
0
 42
0.0000001
 43
0.0000001
 44
0.0000000001
 40
0.0
 40
0.0
 40
0.0
 40
0.0
 40
0.0900167316
 40
0.2092547333
 40
0.5000031796
 40
0.7907517803
 40
0.9099914416
 40
1.0
 40
1.0
 40
1.0
 40
1.0
 10
121.1951434459
 20
332.4026686877
 30
0.0
 10
121.7753778967
 20
332.3626520707
 30
0.0
 10
123.1262103071
 20
332.3002128506
 30
0.0
 10
126.3555472797
 20
332.2089421036
 30
0.0
 10
130.8833438407
 20
332.1707246842
 30
0.0
 10
135.4111505242
 20
332.208948652
 30
0.0
 10
138.6404472256
 20
332.3002011637
 30
0.0
 10
139.9912366297
 20
332.3626572541
 30
0.0
 10
140.5714183806
 20
332.4026704831
 30
0.0
  0
SPLINE
  5
326
100
AcDbEntity
  8
0
100
AcDbSpline
 62
7
  6
CONTINUOUS
 70
0
 71
3
 72
16
 73
12
 74
0
 42
0.0000001
 43
0.0000001
 44
0.0000000001
 40
0.0
 40
0.0
 40
0.0
 40
0.0
 40
0.0232989352
 40
0.0442426707
 40
0.0724659649
 40
0.1082161275
 40
0.1515985901
 40
0.2613254598
 40
0.401533595
 40
0.5718867296
 40
1.0
 40
1.0
 40
1.0
 40
1.0
 10
116.3837580464
 20
333.1190289991
 30
0.0
 10
116.378959644
 20
333.0811618875
 30
0.0
 10
116.4484840267
 20
333.0198253299
 30
0.0
 10
116.5509168023
 20
332.9739335819
 30
0.0
 10
116.6845825742
 20
332.9269603056
 30
0.0
 10
116.8539028108
 20
332.8823592138
 30
0.0
 10
117.1566692943
 20
332.8163608677
 30
0.0
 10
117.6308678558
 20
332.7386571694
 30
0.0
 10
118.3139564022
 20
332.6508989563
 30
0.0
 10
119.5177004974
 20
332.5261350296
 30
0.0
 10
120.4954387364
 20
332.4508939947
 30
0.0
 10
121.1951434459
 20
332.4026686877
 30
0.0
  0
SPLINE
  5
327
100
AcDbEntity
  8
0
100
AcDbSpline
 62
7
  6
CONTINUOUS
 70
0
 71
3
 72
12
 73
8
 74
0
 42
0.0000001
 43
0.0000001
 44
0.0000000001
 40
0.0
 40
0.0
 40
0.0
 40
0.0
 40
0.2635433563
 40
0.5199411797
 40
0.7643536185
 40
0.8830773935
 40
1.0
 40
1.0
 40
1.0
 40
1.0
 10
144.9611407591
 20
327.4062131692
 30
0.0
 10
144.9510110204
 20
328.0478267327
 30
0.0
 10
144.7141476062
 20
329.3210261246
 30
0.0
 10
143.7571309528
 20
330.9606722432
 30
0.0
 10
142.5351341689
 20
331.9193979036
 30
0.0
 10
141.4292090406
 20
332.3205924418
 30
0.0
 10
140.8548991888
 20
332.3967870392
 30
0.0
 10
140.5702672479
 20
332.4025963518
 30
0.0
  0
SPLINE
  5
328
100
AcDbEntity
  8
0
100
AcDbSpline
 62
7
  6
CONTINUOUS
 70
0
 71
3
 72
13
 73
9
 74
0
 42
0.0000001
 43
0.0000001
 44
0.0000000001
 40
0.0
 40
0.0
 40
0.0
 40
0.0
 40
0.0900068778
 40
0.2092460397
 40
0.4999995885
 40
0.7907533661
 40
0.9099927808
 40
1.0
 40
1.0
 40
1.0
 40
1.0
 10
144.9613133573
 20
327.4062140085
 30
0.0
 10
144.1173728299
 20
327.3661836869
 30
0.0
 10
142.154015796
 20
327.3037410851
 30
0.0
 10
137.4614193116
 20
327.2124528524
 30
0.0
 10
130.8833918739
 20
327.1742302973
 30
0.0
 10
124.3053615308
 20
327.2124043298
 30
0.0
 10
119.6127570492
 20
327.3036684691
 30
0.0
 10
117.6493935296
 20
327.3660872895
 30
0.0
 10
116.8054498
 20
327.4061177493
 30
0.0
  0
SPLINE
  5
329
100
AcDbEntity
  8
0
100
AcDbSpline
 62
7
  6
CONTINUOUS
 70
0
 71
3
 72
16
 73
12
 74
0
 42
0.0000001
 43
0.0000001
 44
0.0000000001
 40
0.0
 40
0.0
 40
0.0
 40
0.0
 40
0.1254809098
 40
0.250000268
 40
0.3744457804
 40
0.4997628287
 40
0.625057472
 40
0.7494708412
 40
0.8739864115
 40
0.936896118
 40
1.0
 40
1.0
 40
1.0
 40
1.0
 10
130.7583405105
 20
260.4806126769
 30
0.0
 10
130.1582207261
 20
260.4962590014
 30
0.0
 10
128.9564635525
 20
260.751092279
 30
0.0
 10
127.4266452018
 20
261.7605355551
 30
0.0
 10
126.3840767207
 20
263.2732797572
 30
0.0
 10
126.0101057478
 20
265.0793805819
 30
0.0
 10
126.3846148876
 20
266.8853938662
 30
0.0
 10
127.4258244756
 20
268.3973439109
 30
0.0
 10
128.7043142811
 20
269.239153638
 30
0.0
 10
129.8536846254
 20
269.5980085969
 30
0.0
 10
130.4565823237
 20
269.6683085911
 30
0.0
 10
130.7583572679
 20
269.6770166889
 30
0.0
  0
SPLINE
  5
32A
100
AcDbEntity
  8
0
100
AcDbSpline
 62
7
  6
CONTINUOUS
 70
0
 71
3
 72
16
 73
12
 74
0
 42
0.0000001
 43
0.0000001
 44
0.0000000001
 40
0.0
 40
0.0
 40
0.0
 40
0.0
 40
0.1254808472
 40
0.250000284
 40
0.374445795
 40
0.4997628358
 40
0.6250574736
 40
0.7494708439
 40
0.8739865062
 40
0.936896086
 40
1.0
 40
1.0
 40
1.0
 40
1.0
 10
131.0084000838
 20
269.6774415987
 30
0.0
 10
131.6085191972
 20
269.6617807823
 30
0.0
 10
132.8102792437
 20
269.4069776841
 30
0.0
 10
134.3400946981
 20
268.3975196368
 30
0.0
 10
135.3826650509
 20
266.8847796306
 30
0.0
 10
135.7566356019
 20
265.078677874
 30
0.0
 10
135.3821274357
 20
263.2726642416
 30
0.0
 10
134.3409154994
 20
261.7607160641
 30
0.0
 10
133.0624300951
 20
260.9189006227
 30
0.0
 10
131.9130562449
 20
260.5600497845
 30
0.0
 10
131.3101589997
 20
260.4897632174
 30
0.0
 10
131.008384163
 20
260.481045987
 30
0.0
  0
SPLINE
  5
32B
100
AcDbEntity
  8
0
100
AcDbSpline
 62
7
  6
CONTINUOUS
 70
0
 71
3
 72
16
 73
12
 74
0
 42
0.0000001
 43
0.0000001
 44
0.0000000001
 40
0.0
 40
0.0
 40
0.0
 40
0.0
 40
0.1254809098
 40
0.250000268
 40
0.3744457804
 40
0.4997628287
 40
0.625057472
 40
0.7494708412
 40
0.8739864115
 40
0.936896118
 40
1.0
 40
1.0
 40
1.0
 40
1.0
 10
130.7583405105
 20
308.4806126769
 30
0.0
 10
130.1582207261
 20
308.4962590014
 30
0.0
 10
128.9564635525
 20
308.751092279
 30
0.0
 10
127.4266452018
 20
309.7605355551
 30
0.0
 10
126.3840767207
 20
311.2732797572
 30
0.0
 10
126.0101057478
 20
313.0793805819
 30
0.0
 10
126.3846148875
 20
314.8853938662
 30
0.0
 10
127.4258244756
 20
316.3973439109
 30
0.0
 10
128.7043142811
 20
317.239153638
 30
0.0
 10
129.8536846254
 20
317.5980085969
 30
0.0
 10
130.4565823237
 20
317.6683085911
 30
0.0
 10
130.7583572679
 20
317.6770166889
 30
0.0
  0
SPLINE
  5
32C
100
AcDbEntity
  8
0
100
AcDbSpline
 62
7
  6
CONTINUOUS
 70
0
 71
3
 72
16
 73
12
 74
0
 42
0.0000001
 43
0.0000001
 44
0.0000000001
 40
0.0
 40
0.0
 40
0.0
 40
0.0
 40
0.1254808472
 40
0.250000284
 40
0.374445795
 40
0.4997628358
 40
0.6250574736
 40
0.7494708439
 40
0.8739865062
 40
0.936896086
 40
1.0
 40
1.0
 40
1.0
 40
1.0
 10
131.0084000838
 20
317.6774415987
 30
0.0
 10
131.6085191972
 20
317.6617807823
 30
0.0
 10
132.8102792437
 20
317.4069776841
 30
0.0
 10
134.3400946981
 20
316.3975196368
 30
0.0
 10
135.3826650509
 20
314.8847796306
 30
0.0
 10
135.7566356019
 20
313.078677874
 30
0.0
 10
135.3821274357
 20
311.2726642415
 30
0.0
 10
134.3409154994
 20
309.7607160641
 30
0.0
 10
133.0624300951
 20
308.9189006227
 30
0.0
 10
131.9130562449
 20
308.5600497845
 30
0.0
 10
131.3101589997
 20
308.4897632174
 30
0.0
 10
131.008384163
 20
308.481045987
 30
0.0
  0
SPLINE
  5
32D
100
AcDbEntity
  8
0
100
AcDbSpline
 62
7
  6
CONTINUOUS
 70
0
 71
3
 72
9
 73
5
 74
0
 42
0.0000001
 43
0.0000001
 44
0.0000000001
 40
0.0
 40
0.0
 40
0.0
 40
0.0
 40
0.4446914606
 40
1.0
 40
1.0
 40
1.0
 40
1.0
 10
107.5148724004
 20
214.3546940842
 30
0.0
 10
107.5604009584
 20
214.2365327249
 30
0.0
 10
107.7337248888
 20
213.9998726753
 30
0.0
 10
107.9608141913
 20
213.825326599
 30
0.0
 10
108.0936688665
 20
213.7395700976
 30
0.0
  0
SPLINE
  5
32E
100
AcDbEntity
  8
0
100
AcDbSpline
 62
7
  6
CONTINUOUS
 70
0
 71
3
 72
18
 73
14
 74
0
 42
0.0000001
 43
0.0000001
 44
0.0000000001
 40
0.0
 40
0.0
 40
0.0
 40
0.0
 40
0.2272039902
 40
0.4261941848
 40
0.5960808835
 40
0.7362939567
 40
0.8464137364
 40
0.8901289239
 40
0.9262830424
 40
0.954933255
 40
0.9762548098
 40
0.9907264981
 40
1.0
 40
1.0
 40
1.0
 40
1.0
 10
116.8054498
 20
327.4061864431
 30
0.0
 10
116.3885642092
 20
327.4316904178
 30
0.0
 10
115.6067429554
 20
327.4826470298
 30
0.0
 10
114.5141358668
 20
327.5661081144
 30
0.0
 10
113.5821383172
 20
327.6516154837
 30
0.0
 10
112.8145179771
 20
327.7385731127
 30
0.0
 10
112.2793400578
 20
327.8159412581
 30
0.0
 10
111.9361426824
 20
327.8810758783
 30
0.0
 10
111.7417933358
 20
327.9263720873
 30
0.0
 10
111.589748881
 20
327.9710026121
 30
0.0
 10
111.4799748707
 20
328.0166275693
 30
0.0
 10
111.4086618291
 20
328.0590924622
 30
0.0
 10
111.3833666156
 20
328.1002728738
 30
0.0
 10
111.3833707462
 20
328.1173201846
 30
0.0
  0
SPLINE
  5
32F
100
AcDbEntity
  8
0
100
AcDbSpline
 62
7
  6
CONTINUOUS
 70
0
 71
3
 72
9
 73
5
 74
0
 42
0.0000001
 43
0.0000001
 44
0.0000000001
 40
0.0
 40
0.0
 40
0.0
 40
0.0
 40
0.5520871301
 40
1.0
 40
1.0
 40
1.0
 40
1.0
 10
108.0936667247
 20
213.7395654845
 30
0.0
 10
108.1021152865
 20
213.9730168664
 30
0.0
 10
108.133872143
 20
214.3953058682
 30
0.0
 10
108.2350240229
 20
214.8113311773
 30
0.0
 10
108.3102199338
 20
214.9853004644
 30
0.0
  0
SPLINE
  5
330
100
AcDbEntity
  8
0
100
AcDbSpline
 62
7
  6
CONTINUOUS
 70
0
 71
3
 72
9
 73
5
 74
0
 42
0.0000001
 43
0.0000001
 44
0.0000000001
 40
0.0
 40
0.0
 40
0.0
 40
0.0
 40
0.5001595009
 40
1.0
 40
1.0
 40
1.0
 40
1.0
 10
108.0289277831
 20
238.3982090639
 30
0.0
 10
109.1470665958
 20
241.5637910052
 30
0.0
 10
110.8398611784
 20
248.0973975325
 30
0.0
 10
111.3963295415
 20
254.8239434567
 30
0.0
 10
111.3833707438
 20
258.1790295386
 30
0.0
  0
SPLINE
  5
331
100
AcDbEntity
  8
0
100
AcDbSpline
 62
7
  6
CONTINUOUS
 70
0
 71
3
 72
10
 73
6
 74
0
 42
0.0000001
 43
0.0000001
 44
0.0000000001
 40
0.0
 40
0.0
 40
0.0
 40
0.0
 40
0.1638623772
 40
0.3845021504
 40
1.0
 40
1.0
 40
1.0
 40
1.0
 10
107.5148392346
 20
207.3537850028
 30
0.0
 10
107.5546066648
 20
207.4200925631
 30
0.0
 10
107.6880742636
 20
207.5498389765
 30
0.0
 10
108.0956715604
 20
207.7893095448
 30
0.0
 10
108.4756711643
 20
207.9118917386
 30
0.0
 10
108.7559560049
 20
207.9879553871
 30
0.0
  0
SPLINE
  5
332
100
AcDbEntity
  8
0
100
AcDbSpline
 62
7
  6
CONTINUOUS
 70
0
 71
3
 72
11
 73
7
 74
0
 42
0.0000001
 43
0.0000001
 44
0.0000000001
 40
0.0
 40
0.0
 40
0.0
 40
0.0
 40
0.1986860337
 40
0.4351137769
 40
0.7059344477
 40
1.0
 40
1.0
 40
1.0
 40
1.0
 10
108.1042006088
 20
202.3699694263
 30
0.0
 10
108.1760770176
 20
202.5084381368
 30
0.0
 10
108.3826953347
 20
202.7860723993
 30
0.0
 10
108.8001791536
 20
203.1546087529
 30
0.0
 10
109.3353933728
 20
203.4896391796
 30
0.0
 10
109.7379687856
 20
203.6782518122
 30
0.0
 10
109.9519381425
 20
203.7650545962
 30
0.0
  0
SPLINE
  5
333
100
AcDbEntity
  8
0
100
AcDbSpline
 62
7
  6
CONTINUOUS
 70
0
 71
3
 72
11
 73
7
 74
0
 42
0.0000001
 43
0.0000001
 44
0.0000000001
 40
0.0
 40
0.0
 40
0.0
 40
0.0
 40
0.2500133345
 40
0.4999996688
 40
0.7499865944
 40
1.0
 40
1.0
 40
1.0
 40
1.0
 10
136.2531297248
 20
184.2274315631
 30
0.0
 10
135.3898647648
 20
184.5186480992
 30
0.0
 10
133.6192279135
 20
184.9819326726
 30
0.0
 10
130.8833576528
 20
185.2278356514
 30
0.0
 10
128.1475027507
 20
184.9818702591
 30
0.0
 10
126.3768444418
 20
184.5186536771
 30
0.0
 10
125.5135842427
 20
184.2274222172
 30
0.0
  0
SPLINE
  5
334
100
AcDbEntity
  8
0
100
AcDbSpline
 62
7
  6
CONTINUOUS
 70
0
 71
3
 72
11
 73
7
 74
0
 42
0.0000001
 43
0.0000001
 44
0.0000000001
 40
0.0
 40
0.0
 40
0.0
 40
0.0
 40
0.1986859742
 40
0.4351137421
 40
0.7059344559
 40
1.0
 40
1.0
 40
1.0
 40
1.0
 10
153.6625527968
 20
202.3699720182
 30
0.0
 10
153.5906756243
 20
202.5084408506
 30
0.0
 10
153.3840556044
 20
202.786075193
 30
0.0
 10
152.9665692317
 20
203.1546113725
 30
0.0
 10
152.4313522843
 20
203.4896413759
 30
0.0
 10
152.0287750599
 20
203.6782535999
 30
0.0
 10
151.8148047991
 20
203.7650561339
 30
0.0
  0
SPLINE
  5
335
100
AcDbEntity
  8
0
100
AcDbSpline
 62
7
  6
CONTINUOUS
 70
0
 71
3
 72
18
 73
14
 74
0
 42
0.0000001
 43
0.0000001
 44
0.0000000001
 40
0.0
 40
0.0
 40
0.0
 40
0.0
 40
0.069190067
 40
0.1375899726
 40
0.204660294
 40
0.2703206599
 40
0.3347641582
 40
0.3982305657
 40
0.5228217937
 40
0.6451258196
 40
0.765433245
 40
0.8837648545
 40
1.0
 40
1.0
 40
1.0
 40
1.0
 10
135.8833794599
 20
183.2172577859
 30
0.0
 10
136.5259318817
 20
183.032892576
 30
0.0
 10
137.8488371813
 20
182.8027114963
 30
0.0
 10
139.8400847894
 20
182.928606671
 30
0.0
 10
141.7158953793
 20
183.4907347409
 30
0.0
 10
143.4094041452
 20
184.3834278777
 30
0.0
 10
144.9154173402
 20
185.5021107331
 30
0.0
 10
146.6835441691
 20
187.1895688916
 30
0.0
 10
148.5376734486
 20
189.5656261316
 30
0.0
 10
150.3234080806
 20
192.639474914
 30
0.0
 10
151.7505203971
 20
195.8274245006
 30
0.0
 10
152.8686482272
 20
199.0726100622
 30
0.0
 10
153.4298202344
 20
201.2713451987
 30
0.0
 10
153.6625424269
 20
202.3699713042
 30
0.0
  0
SPLINE
  5
336
100
AcDbEntity
  8
0
100
AcDbSpline
 62
7
  6
CONTINUOUS
 70
0
 71
3
 72
9
 73
5
 74
0
 42
0.0000001
 43
0.0000001
 44
0.0000000001
 40
0.0
 40
0.0
 40
0.0
 40
0.0
 40
0.5002367026
 40
1.0
 40
1.0
 40
1.0
 40
1.0
 10
108.4370285144
 20
238.3983066515
 30
0.0
 10
107.3830348208
 20
235.433981197
 30
0.0
 10
105.8075918106
 20
229.3057023046
 30
0.0
 10
105.3567624513
 20
222.993741083
 30
0.0
 10
105.418530107
 20
219.8511963665
 30
0.0
  0
SPLINE
  5
337
100
AcDbEntity
  8
0
100
AcDbSpline
 62
7
  6
CONTINUOUS
 70
0
 71
3
 72
9
 73
5
 74
0
 42
0.0000001
 43
0.0000001
 44
0.0000000001
 40
0.0
 40
0.0
 40
0.0
 40
0.0
 40
0.4995861174
 40
1.0
 40
1.0
 40
1.0
 40
1.0
 10
110.6346766473
 20
238.3983871628
 30
0.0
 10
109.6330624625
 20
235.441582443
 30
0.0
 10
108.1023352514
 20
229.3526132677
 30
0.0
 10
107.5453035714
 20
223.0993166197
 30
0.0
 10
107.5159093523
 20
219.9724357542
 30
0.0
  0
SPLINE
  5
338
100
AcDbEntity
  8
0
100
AcDbSpline
 62
7
  6
CONTINUOUS
 70
0
 71
3
 72
9
 73
5
 74
0
 42
0.0000001
 43
0.0000001
 44
0.0000000001
 40
0.0
 40
0.0
 40
0.0
 40
0.0
 40
0.2479858287
 40
1.0
 40
1.0
 40
1.0
 40
1.0
 10
113.8107611269
 20
238.3982879086
 30
0.0
 10
113.4007771543
 20
236.9467070316
 30
0.0
 10
111.9321003478
 20
231.0423972845
 30
0.0
 10
111.1807240924
 20
224.9617480277
 30
0.0
 10
111.0196888639
 20
220.3904751183
 30
0.0
  0
SPLINE
  5
339
100
AcDbEntity
  8
0
100
AcDbSpline
 62
7
  6
CONTINUOUS
 70
0
 71
3
 72
17
 73
13
 74
0
 42
0.0000001
 43
0.0000001
 44
0.0000000001
 40
0.0
 40
0.0
 40
0.0
 40
0.0
 40
0.0691261018
 40
0.1370982211
 40
0.2672906736
 40
0.3292702927
 40
0.3894275935
 40
0.507355899
 40
0.6253065022
 40
0.746107248
 40
0.8709131146
 40
1.0
 40
1.0
 40
1.0
 40
1.0
 10
114.7900000944
 20
238.3982879086
 30
0.0
 10
114.8750281176
 20
238.6311547902
 30
0.0
 10
115.0921492761
 20
239.0749705636
 30
0.0
 10
115.5928541174
 20
239.8921355114
 30
0.0
 10
116.1713746255
 20
240.6326734605
 30
0.0
 10
116.8417932959
 20
241.2437044962
 30
0.0
 10
117.5453920794
 20
241.7423481605
 30
0.0
 10
118.4944586087
 20
242.2330943371
 30
0.0
 10
119.7250463642
 20
242.6024779077
 30
0.0
 10
121.0173154129
 20
242.7998074695
 30
0.0
 10
122.3625459457
 20
242.8455563962
 30
0.0
 10
123.2725717796
 20
242.8068395645
 30
0.0
 10
123.7348981967
 20
242.7830096174
 30
0.0
  0
SPLINE
  5
33A
100
AcDbEntity
  8
0
100
AcDbSpline
 62
7
  6
CONTINUOUS
 70
0
 71
3
 72
11
 73
7
 74
0
 42
0.0000001
 43
0.0000001
 44
0.0000000001
 40
0.0
 40
0.0
 40
0.0
 40
0.0
 40
0.3051898981
 40
0.5811959527
 40
0.8161630872
 40
1.0
 40
1.0
 40
1.0
 40
1.0
 10
127.0480213708
 20
258.1790754426
 30
0.0
 10
126.0060541906
 20
258.1835701312
 30
0.0
 10
124.0217282332
 20
258.1727702695
 30
0.0
 10
121.2351957803
 20
258.1754131341
 30
0.0
 10
118.8629782686
 20
258.1735851668
 30
0.0
 10
117.4331042959
 20
258.1779845273
 30
0.0
 10
116.8054498
 20
258.1779578518
 30
0.0
  0
SPLINE
  5
33B
100
AcDbEntity
  8
0
100
AcDbSpline
 62
7
  6
CONTINUOUS
 70
0
 71
3
 72
10
 73
6
 74
0
 42
0.0000001
 43
0.0000001
 44
0.0000000001
 40
0.0
 40
0.0
 40
0.0
 40
0.0
 40
0.246244966
 40
0.621242388
 40
1.0
 40
1.0
 40
1.0
 40
1.0
 10
123.7348461876
 20
242.7830426362
 30
0.0
 10
123.8265041846
 20
242.7957789494
 30
0.0
 10
124.0540138095
 20
242.86607469
 30
0.0
 10
124.3567247798
 20
243.0981657988
 30
0.0
 10
124.5535769691
 20
243.3017281207
 30
0.0
 10
124.6466156945
 20
243.4094479344
 30
0.0
  0
SPLINE
  5
33C
100
AcDbEntity
  8
0
100
AcDbSpline
 62
7
  6
CONTINUOUS
 70
0
 71
3
 72
10
 73
6
 74
0
 42
0.0000001
 43
0.0000001
 44
0.0000000001
 40
0.0
 40
0.0
 40
0.0
 40
0.0
 40
0.2508441338
 40
0.5013356527
 40
1.0
 40
1.0
 40
1.0
 40
1.0
 10
126.9751653775
 20
252.9209255854
 30
0.0
 10
126.5439011237
 20
252.1388964764
 30
0.0
 10
125.8033437306
 20
250.508504398
 30
0.0
 10
124.6523673605
 20
247.1368745081
 30
0.0
 10
124.053695782
 20
244.5295323107
 30
0.0
 10
123.7348461876
 20
242.7830426362
 30
0.0
  0
SPLINE
  5
33D
100
AcDbEntity
  8
0
100
AcDbSpline
 62
7
  6
CONTINUOUS
 70
0
 71
3
 72
10
 73
6
 74
0
 42
0.0000001
 43
0.0000001
 44
0.0000000001
 40
0.0
 40
0.0
 40
0.0
 40
0.0
 40
0.5047481644
 40
0.754972885
 40
1.0
 40
1.0
 40
1.0
 40
1.0
 10
137.306143184
 20
243.3534619318
 30
0.0
 10
137.0829693608
 20
245.0565388862
 30
0.0
 10
136.5899860084
 20
247.5934478476
 30
0.0
 10
135.4623407639
 20
250.8087908331
 30
0.0
 10
134.7191620112
 20
252.3296690034
 30
0.0
 10
134.2873130082
 20
253.0429414231
 30
0.0
  0
SPLINE
  5
33E
100
AcDbEntity
  8
0
100
AcDbSpline
 62
7
  6
CONTINUOUS
 70
0
 71
3
 72
11
 73
7
 74
0
 42
0.0000001
 43
0.0000001
 44
0.0000000001
 40
0.0
 40
0.0
 40
0.0
 40
0.0
 40
0.2459891575
 40
0.5005292739
 40
0.7547668609
 40
1.0
 40
1.0
 40
1.0
 40
1.0
 10
124.6466866577
 20
243.4094115532
 30
0.0
 10
125.6540387775
 20
243.7030103406
 30
0.0
 10
127.7649424839
 20
244.0933381742
 30
0.0
 10
130.9861839214
 20
244.2565068491
 30
0.0
 10
134.2030397588
 20
244.0705119534
 30
0.0
 10
136.306056537
 20
243.6594371006
 30
0.0
 10
137.3063471867
 20
243.3534628762
 30
0.0
  0
SPLINE
  5
33F
100
AcDbEntity
  8
0
100
AcDbSpline
 62
7
  6
CONTINUOUS
 70
0
 71
3
 72
10
 73
6
 74
0
 42
0.0000001
 43
0.0000001
 44
0.0000000001
 40
0.0
 40
0.0
 40
0.0
 40
0.0
 40
0.2461333548
 40
0.4963782874
 40
1.0
 40
1.0
 40
1.0
 40
1.0
 10
127.4210969504
 20
252.5649197562
 30
0.0
 10
127.0566477707
 20
251.866749299
 30
0.0
 10
126.4213585106
 20
250.4062636699
 30
0.0
 10
125.4186284085
 20
247.3653655193
 30
0.0
 10
124.9083126465
 20
244.999535207
 30
0.0
 10
124.6467064621
 20
243.4094398637
 30
0.0
  0
SPLINE
  5
340
100
AcDbEntity
  8
0
100
AcDbSpline
 62
7
  6
CONTINUOUS
 70
0
 71
3
 72
17
 73
13
 74
0
 42
0.0000001
 43
0.0000001
 44
0.0000000001
 40
0.0
 40
0.0
 40
0.0
 40
0.0
 40
0.1250838289
 40
0.2501320679
 40
0.3749212999
 40
0.4374748475
 40
0.5000085163
 40
0.5625551109
 40
0.6251230363
 40
0.7500089616
 40
0.8750258657
 40
1.0
 40
1.0
 40
1.0
 40
1.0
 10
134.2873794131
 20
253.0429787707
 30
0.0
 10
134.089984843
 20
253.3692636335
 30
0.0
 10
133.6542056094
 20
253.9988358375
 30
0.0
 10
132.8522050661
 20
254.8219609166
 30
0.0
 10
132.02204492
 20
255.3263265784
 30
0.0
 10
131.278028832
 20
255.5156799811
 30
0.0
 10
130.7005017777
 20
255.5256485364
 30
0.0
 10
130.1374214058
 20
255.3988391432
 30
0.0
 10
129.4419553588
 20
255.0759072146
 30
0.0
 10
128.6965772643
 20
254.460970479
 30
0.0
 10
127.9843294903
 20
253.5618177315
 30
0.0
 10
127.5973659632
 20
252.9027090044
 30
0.0
 10
127.4212725784
 20
252.5648294536
 30
0.0
  0
SPLINE
  5
341
100
AcDbEntity
  8
0
100
AcDbSpline
 62
7
  6
CONTINUOUS
 70
0
 71
3
 72
10
 73
6
 74
0
 42
0.0000001
 43
0.0000001
 44
0.0000000001
 40
0.0
 40
0.0
 40
0.0
 40
0.0
 40
0.4981821317
 40
0.7489100066
 40
1.0
 40
1.0
 40
1.0
 40
1.0
 10
138.1669146364
 20
242.743878925
 30
0.0
 10
137.8834488374
 20
244.598405874
 30
0.0
 10
137.3055030283
 20
247.3727065998
 30
0.0
 10
136.045980503
 20
250.9268580055
 30
0.0
 10
135.1916928126
 20
252.6233380826
 30
0.0
 10
134.6879882786
 20
253.4235670882
 30
0.0
  0
SPLINE
  5
342
100
AcDbEntity
  8
0
100
AcDbSpline
 62
7
  6
CONTINUOUS
 70
0
 71
3
 72
11
 73
7
 74
0
 42
0.0000001
 43
0.0000001
 44
0.0000000001
 40
0.0
 40
0.0
 40
0.0
 40
0.0
 40
0.2530437727
 40
0.4425326225
 40
0.6309561675
 40
1.0
 40
1.0
 40
1.0
 40
1.0
 10
137.30636652
 20
243.3534725097
 30
0.0
 10
137.3643709011
 20
243.2838714942
 30
0.0
 10
137.4706539205
 20
243.1660784906
 30
0.0
 10
137.6353255356
 20
243.0109561741
 30
0.0
 10
137.8455551737
 20
242.8456753192
 30
0.0
 10
138.0363725783
 20
242.7643433508
 30
0.0
 10
138.1669146364
 20
242.743878925
 30
0.0
  0
SPLINE
  5
343
100
AcDbEntity
  8
0
100
AcDbSpline
 62
7
  6
CONTINUOUS
 70
0
 71
3
 72
9
 73
5
 74
0
 42
0.0000001
 43
0.0000001
 44
0.0000000001
 40
0.0
 40
0.0
 40
0.0
 40
0.0
 40
0.2520856529
 40
1.0
 40
1.0
 40
1.0
 40
1.0
 10
134.6879882786
 20
253.4235670882
 30
0.0
 10
134.6542951232
 20
253.3916200807
 30
0.0
 10
134.520667805
 20
253.2648574173
 30
0.0
 10
134.3871619269
 20
253.1379667306
 30
0.0
 10
134.2873827189
 20
253.0429880272
 30
0.0
  0
SPLINE
  5
344
100
AcDbEntity
  8
0
100
AcDbSpline
 62
7
  6
CONTINUOUS
 70
0
 71
3
 72
16
 73
12
 74
0
 42
0.0000001
 43
0.0000001
 44
0.0000000001
 40
0.0
 40
0.0
 40
0.0
 40
0.0
 40
0.253167673
 40
0.3739433485
 40
0.4921573039
 40
0.6103986126
 40
0.7328366824
 40
0.796831644
 40
0.8629032709
 40
0.930943199
 40
1.0
 40
1.0
 40
1.0
 40
1.0
 10
138.1669003818
 20
242.7438699388
 30
0.0
 10
139.0578483484
 20
242.7741221476
 30
0.0
 10
140.3822420158
 20
242.7954994878
 30
0.0
 10
142.0955386995
 20
242.5022406073
 30
0.0
 10
143.2992110525
 20
242.1211649
 30
0.0
 10
144.4290961081
 20
241.5392186709
 30
0.0
 10
145.2721258362
 20
240.8624787529
 30
0.0
 10
145.8741803816
 20
240.2065984265
 30
0.0
 10
146.2966364857
 20
239.6504390181
 30
0.0
 10
146.6888559498
 20
239.0516179798
 30
0.0
 10
146.9134116195
 20
238.6223313404
 30
0.0
 10
147.0079466523
 20
238.3982950431
 30
0.0
  0
SPLINE
  5
345
100
AcDbEntity
  8
0
100
AcDbSpline
 62
7
  6
CONTINUOUS
 70
0
 71
3
 72
10
 73
6
 74
0
 42
0.0000001
 43
0.0000001
 44
0.0000000001
 40
0.0
 40
0.0
 40
0.0
 40
0.0
 40
0.1838296339
 40
0.4187925042
 40
1.0
 40
1.0
 40
1.0
 40
1.0
 10
144.9613133573
 20
258.1786179592
 30
0.0
 10
144.3335990283
 20
258.1785770589
 30
0.0
 10
142.9035708971
 20
258.1748505128
 30
0.0
 10
139.4889163948
 20
258.1752728681
 30
0.0
 10
136.7019804721
 20
258.1792683783
 30
0.0
 10
134.7173588108
 20
258.1793931808
 30
0.0
  0
SPLINE
  5
346
100
AcDbEntity
  8
0
100
AcDbSpline
 62
7
  6
CONTINUOUS
 70
0
 71
3
 72
9
 73
5
 74
0
 42
0.0000001
 43
0.0000001
 44
0.0000000001
 40
0.0
 40
0.0
 40
0.0
 40
0.0
 40
0.2488489739
 40
1.0
 40
1.0
 40
1.0
 40
1.0
 10
147.9559666311
 20
238.3982950431
 30
0.0
 10
147.4713880056
 20
239.9888270055
 30
0.0
 10
145.7623926163
 20
246.4508364841
 30
0.0
 10
144.9955513313
 20
253.1598401852
 30
0.0
 10
144.9612933571
 20
258.1786195311
 30
0.0
  0
SPLINE
  5
347
100
AcDbEntity
  8
0
100
AcDbSpline
 62
7
  6
CONTINUOUS
 70
0
 71
3
 72
10
 73
6
 74
0
 42
0.0000001
 43
0.0000001
 44
0.0000000001
 40
0.0
 40
0.0
 40
0.0
 40
0.0
 40
0.2518716612
 40
0.6274016752
 40
1.0
 40
1.0
 40
1.0
 40
1.0
 10
135.6905147014
 20
240.4235110206
 30
0.0
 10
135.8929287532
 20
240.3812453258
 30
0.0
 10
136.4002129519
 20
240.2897709578
 30
0.0
 10
137.2190907225
 20
240.2143007661
 30
0.0
 10
137.8352229541
 20
240.22569676
 30
0.0
 10
138.1397575426
 20
240.2544921849
 30
0.0
  0
SPLINE
  5
348
100
AcDbEntity
  8
0
100
AcDbSpline
 62
7
  6
CONTINUOUS
 70
0
 71
3
 72
9
 73
5
 74
0
 42
0.0000001
 43
0.0000001
 44
0.0000000001
 40
0.0
 40
0.0
 40
0.0
 40
0.0
 40
0.4903398056
 40
1.0
 40
1.0
 40
1.0
 40
1.0
 10
137.3062732777
 20
243.353530072
 30
0.0
 10
137.0725398939
 20
242.8588395623
 30
0.0
 10
136.5603451856
 20
241.8666158875
 30
0.0
 10
135.9935174487
 20
240.9047531522
 30
0.0
 10
135.6906250816
 20
240.4234414473
 30
0.0
  0
SPLINE
  5
349
100
AcDbEntity
  8
0
100
AcDbSpline
 62
7
  6
CONTINUOUS
 70
0
 71
3
 72
14
 73
10
 74
0
 42
0.0000001
 43
0.0000001
 44
0.0000000001
 40
0.0
 40
0.0
 40
0.0
 40
0.0
 40
0.1337116752
 40
0.262963163
 40
0.3862388147
 40
0.506471446
 40
0.626812011
 40
0.7489144483
 40
1.0
 40
1.0
 40
1.0
 40
1.0
 10
144.8748189871
 20
237.5822622301
 30
0.0
 10
144.7373806858
 20
237.903601043
 30
0.0
 10
144.4098123393
 20
238.5142461822
 30
0.0
 10
143.7295207844
 20
239.2758326095
 30
0.0
 10
142.8992522189
 20
239.8067071853
 30
0.0
 10
141.9962697408
 20
240.1237384097
 30
0.0
 10
141.0597251593
 20
240.2882136157
 30
0.0
 10
139.7702914514
 20
240.3636603968
 30
0.0
 10
138.7933755324
 20
240.313647732
 30
0.0
 10
138.1397575426
 20
240.2544921849
 30
0.0
  0
SPLINE
  5
34A
100
AcDbEntity
  8
0
100
AcDbSpline
 62
7
  6
CONTINUOUS
 70
0
 71
3
 72
13
 73
9
 74
0
 42
0.0000001
 43
0.0000001
 44
0.0000000001
 40
0.0
 40
0.0
 40
0.0
 40
0.0
 40
0.1166551025
 40
0.2404132644
 40
0.5000422384
 40
0.759649
 40
0.8833804328
 40
1.0
 40
1.0
 40
1.0
 40
1.0
 10
116.8550986681
 20
237.4526071248
 30
0.0
 10
117.8960301984
 20
237.0632584908
 30
0.0
 10
120.0877220376
 20
236.3815755112
 30
0.0
 10
124.7553453223
 20
235.4026627069
 30
0.0
 10
130.8914867777
 20
234.9268312019
 30
0.0
 10
137.0272224563
 20
235.4047727113
 30
0.0
 10
141.6936749315
 20
236.3853647825
 30
0.0
 10
143.8845020949
 20
237.067845236
 30
0.0
 10
144.9249276684
 20
237.4575798419
 30
0.0
  0
SPLINE
  5
34B
100
AcDbEntity
  8
0
100
AcDbSpline
 62
7
  6
CONTINUOUS
 70
0
 71
3
 72
14
 73
10
 74
0
 42
0.0000001
 43
0.0000001
 44
0.0000000001
 40
0.0
 40
0.0
 40
0.0
 40
0.0
 40
0.2515480122
 40
0.3736969405
 40
0.4938544454
 40
0.6136774099
 40
0.7366069544
 40
0.8660328442
 40
1.0
 40
1.0
 40
1.0
 40
1.0
 10
123.6722961402
 20
240.3104062449
 30
0.0
 10
123.0120986892
 20
240.3824135848
 30
0.0
 10
122.0252750659
 20
240.4521766329
 30
0.0
 10
120.7207727509
 20
240.4038569596
 30
0.0
 10
119.7725900609
 20
240.2600215141
 30
0.0
 10
118.8568901826
 20
239.9561920092
 30
0.0
 10
118.0174016079
 20
239.420258334
 30
0.0
 10
117.3496078587
 20
238.6306112481
 30
0.0
 10
117.0471103353
 20
237.9973073154
 30
0.0
 10
116.9249705474
 20
237.6653789205
 30
0.0
  0
SPLINE
  5
34C
100
AcDbEntity
  8
0
100
AcDbSpline
 62
7
  6
CONTINUOUS
 70
0
 71
3
 72
11
 73
7
 74
0
 42
0.0000001
 43
0.0000001
 44
0.0000000001
 40
0.0
 40
0.0
 40
0.0
 40
0.0
 40
0.2436226922
 40
0.4992576172
 40
0.7552646778
 40
1.0
 40
1.0
 40
1.0
 40
1.0
 10
135.6904735509
 20
240.4234206636
 30
0.0
 10
134.9336985974
 20
240.5800823228
 30
0.0
 10
133.3557100897
 20
240.765956755
 30
0.0
 10
130.960154195
 20
240.8461788925
 30
0.0
 10
128.5607027752
 20
240.7758481097
 30
0.0
 10
126.9772098075
 20
240.6004033916
 30
0.0
 10
126.2152968436
 20
240.4513811909
 30
0.0
  0
SPLINE
  5
34D
100
AcDbEntity
  8
0
100
AcDbSpline
 62
7
  6
CONTINUOUS
 70
0
 71
3
 72
9
 73
5
 74
0
 42
0.0000001
 43
0.0000001
 44
0.0000000001
 40
0.0
 40
0.0
 40
0.0
 40
0.0
 40
0.2150631691
 40
1.0
 40
1.0
 40
1.0
 40
1.0
 10
147.0079570292
 20
238.3982752973
 30
0.0
 10
146.8543041379
 20
238.3417257118
 30
0.0
 10
146.1409946636
 20
238.0756722437
 30
0.0
 10
145.4310444615
 20
237.8006915026
 30
0.0
 10
144.8748193621
 20
237.5822630524
 30
0.0
  0
SPLINE
  5
34E
100
AcDbEntity
  8
0
100
AcDbSpline
 62
7
  6
CONTINUOUS
 70
0
 71
3
 72
9
 73
5
 74
0
 42
0.0000001
 43
0.0000001
 44
0.0000000001
 40
0.0
 40
0.0
 40
0.0
 40
0.0
 40
0.216273114
 40
1.0
 40
1.0
 40
1.0
 40
1.0
 10
114.666616862
 20
238.0553074229
 30
0.0
 10
114.8256750242
 20
238.0167945223
 30
0.0
 10
115.5592418416
 20
237.8309586936
 30
0.0
 10
116.2869278649
 20
237.6225706813
 30
0.0
 10
116.8550987188
 20
237.4526070617
 30
0.0
  0
SPLINE
  5
34F
100
AcDbEntity
  8
0
100
AcDbSpline
 62
7
  6
CONTINUOUS
 70
0
 71
3
 72
9
 73
5
 74
0
 42
0.0000001
 43
0.0000001
 44
0.0000000001
 40
0.0
 40
0.0
 40
0.0
 40
0.0
 40
0.2159260961
 40
1.0
 40
1.0
 40
1.0
 40
1.0
 10
114.7899779038
 20
238.3982669351
 30
0.0
 10
114.944489299
 20
238.348036827
 30
0.0
 10
115.6587717887
 20
238.1114374626
 30
0.0
 10
116.3691905716
 20
237.863316011
 30
0.0
 10
116.9249634519
 20
237.6653824669
 30
0.0
  0
SPLINE
  5
350
100
AcDbEntity
  8
0
100
AcDbSpline
 62
7
  6
CONTINUOUS
 70
0
 71
3
 72
9
 73
5
 74
0
 42
0.0000001
 43
0.0000001
 44
0.0000000001
 40
0.0
 40
0.0
 40
0.0
 40
0.0
 40
0.2483662669
 40
1.0
 40
1.0
 40
1.0
 40
1.0
 10
123.6722961402
 20
240.3104062449
 30
0.0
 10
123.8823129152
 20
240.2868133844
 30
0.0
 10
124.7328234935
 20
240.2366617406
 30
0.0
 10
125.587727644
 20
240.327908479
 30
0.0
 10
126.2152297407
 20
240.4515859411
 30
0.0
  0
SPLINE
  5
351
100
AcDbEntity
  8
0
100
AcDbSpline
 62
7
  6
CONTINUOUS
 70
0
 71
3
 72
9
 73
5
 74
0
 42
0.0000001
 43
0.0000001
 44
0.0000000001
 40
0.0
 40
0.0
 40
0.0
 40
0.0
 40
0.4909330367
 40
1.0
 40
1.0
 40
1.0
 40
1.0
 10
124.6467733214
 20
243.4094155504
 30
0.0
 10
124.8734565482
 20
242.9103866692
 30
0.0
 10
125.3700995007
 20
241.9096210586
 30
0.0
 10
125.9208731805
 20
240.9377709013
 30
0.0
 10
126.2152090255
 20
240.4515768276
 30
0.0
  0
SPLINE
  5
352
100
AcDbEntity
  8
0
100
AcDbSpline
 62
7
  6
CONTINUOUS
 70
0
 71
3
 72
10
 73
6
 74
0
 42
0.0000001
 43
0.0000001
 44
0.0000000001
 40
0.0
 40
0.0
 40
0.0
 40
0.0
 40
0.2481380136
 40
0.4999933068
 40
1.0
 40
1.0
 40
1.0
 40
1.0
 10
134.7173588108
 20
258.1793931808
 30
0.0
 10
134.0830030546
 20
258.1794439902
 30
0.0
 10
132.8048148359
 20
258.1691173813
 30
0.0
 10
130.248350761
 20
258.1611207617
 30
0.0
 10
128.326258294
 20
258.173558832
 30
0.0
 10
127.0480213708
 20
258.1790754426
 30
0.0
  0
SPLINE
  5
353
100
AcDbEntity
  8
0
100
AcDbSpline
 62
7
  6
CONTINUOUS
 70
0
 71
3
 72
20
 73
16
 74
0
 42
0.0000001
 43
0.0000001
 44
0.0000000001
 40
0.0
 40
0.0
 40
0.0
 40
0.0
 40
0.1249425919
 40
0.1875188035
 40
0.250095903
 40
0.3125443319
 40
0.3751109393
 40
0.437792938
 40
0.5005271099
 40
0.5629990487
 40
0.6255981692
 40
0.750220748
 40
0.8126909263
 40
0.875202647
 40
1.0
 40
1.0
 40
1.0
 40
1.0
 10
134.6879851938
 20
253.4235687276
 30
0.0
 10
134.4585680345
 20
253.7681658357
 30
0.0
 10
134.0799529651
 20
254.2646585372
 30
0.0
 10
133.4982450543
 20
254.8559940621
 30
0.0
 10
133.021543961
 20
255.2569109472
 30
0.0
 10
132.4952210776
 20
255.5919948706
 30
0.0
 10
131.9193691082
 20
255.83540108
 30
0.0
 10
131.3074281474
 20
255.969963873
 30
0.0
 10
130.680444027
 20
255.9820262004
 30
0.0
 10
130.0654565752
 20
255.8575503248
 30
0.0
 10
129.3019437525
 20
255.5292020549
 30
0.0
 10
128.6223373622
 20
255.0375543393
 30
0.0
 10
128.0494445953
 20
254.4400412851
 30
0.0
 10
127.5261048043
 20
253.7980177095
 30
0.0
 10
127.183669393
 20
253.2780198076
 30
0.0
 10
126.9751755491
 20
252.9209322689
 30
0.0
  0
SPLINE
  5
354
100
AcDbEntity
  8
0
100
AcDbSpline
 62
7
  6
CONTINUOUS
 70
0
 71
3
 72
9
 73
5
 74
0
 42
0.0000001
 43
0.0000001
 44
0.0000000001
 40
0.0
 40
0.0
 40
0.0
 40
0.0
 40
0.5000091083
 40
1.0
 40
1.0
 40
1.0
 40
1.0
 10
151.1320642277
 20
238.39839124
 30
0.0
 10
150.0055711357
 20
241.5597583888
 30
0.0
 10
148.3052621147
 20
248.0927621485
 30
0.0
 10
147.7704767425
 20
254.8227851995
 30
0.0
 10
147.8020507846
 20
258.1785878366
 30
0.0
  0
SPLINE
  5
355
100
AcDbEntity
  8
0
100
AcDbSpline
 62
7
  6
CONTINUOUS
 70
0
 71
3
 72
9
 73
5
 74
0
 42
0.0000001
 43
0.0000001
 44
0.0000000001
 40
0.0
 40
0.0
 40
0.0
 40
0.0
 40
0.4975425972
 40
1.0
 40
1.0
 40
1.0
 40
1.0
 10
113.8107857158
 20
238.398387162
 30
0.0
 10
114.7142767977
 20
241.5972889609
 30
0.0
 10
116.1149995324
 20
248.1497731602
 30
0.0
 10
116.7107188788
 20
254.822420395
 30
0.0
 10
116.8054097386
 20
258.1779641009
 30
0.0
  0
SPLINE
  5
356
100
AcDbEntity
  8
0
100
AcDbSpline
 62
7
  6
CONTINUOUS
 70
0
 71
3
 72
10
 73
6
 74
0
 42
0.0000001
 43
0.0000001
 44
0.0000000001
 40
0.0
 40
0.0
 40
0.0
 40
0.0
 40
0.5501107152
 40
0.787675944
 40
1.0
 40
1.0
 40
1.0
 40
1.0
 10
113.9583573963
 20
258.1786598628
 30
0.0
 10
113.6920646156
 20
258.1785699829
 30
0.0
 10
113.3110597014
 20
258.1516691209
 30
0.0
 10
112.8270011548
 20
258.1619745265
 30
0.0
 10
112.6092895782
 20
258.1730241477
 30
0.0
 10
112.5065341146
 20
258.17077953
 30
0.0
  0
SPLINE
  5
357
100
AcDbEntity
  8
0
100
AcDbSpline
 62
7
  6
CONTINUOUS
 70
0
 71
3
 72
9
 73
5
 74
0
 42
0.0000001
 43
0.0000001
 44
0.0000000001
 40
0.0
 40
0.0
 40
0.0
 40
0.0
 40
0.4999864435
 40
1.0
 40
1.0
 40
1.0
 40
1.0
 10
110.634648591
 20
238.3983066393
 30
0.0
 10
111.7106858265
 20
241.5744587828
 30
0.0
 10
113.3489125893
 20
248.1118088051
 30
0.0
 10
113.9340191988
 20
254.825091081
 30
0.0
 10
113.9583401487
 20
258.1786603375
 30
0.0
  0
SPLINE
  5
358
100
AcDbEntity
  8
0
100
AcDbSpline
 62
7
  6
CONTINUOUS
 70
0
 71
3
 72
9
 73
5
 74
0
 42
0.0000001
 43
0.0000001
 44
0.0000000001
 40
0.0
 40
0.0
 40
0.0
 40
0.0
 40
0.3132493845
 40
1.0
 40
1.0
 40
1.0
 40
1.0
 10
112.5065341146
 20
258.17077953
 30
0.0
 10
112.4177359074
 20
258.173303973
 30
0.0
 10
112.1342551169
 20
258.1802774849
 30
0.0
 10
111.8505572816
 20
258.1845251558
 30
0.0
 10
111.6558551718
 20
258.1799896506
 30
0.0
  0
SPLINE
  5
359
100
AcDbEntity
  8
0
100
AcDbSpline
 62
7
  6
CONTINUOUS
 70
0
 71
3
 72
9
 73
5
 74
0
 42
0.0000001
 43
0.0000001
 44
0.0000000001
 40
0.0
 40
0.0
 40
0.0
 40
0.0
 40
0.5002365512
 40
1.0
 40
1.0
 40
1.0
 40
1.0
 10
108.4370124598
 20
238.398280048
 30
0.0
 10
109.5611774315
 20
241.5599663956
 30
0.0
 10
111.2414082182
 20
248.0962999075
 30
0.0
 10
111.7219285362
 20
254.8285419512
 30
0.0
 10
111.6558305734
 20
258.1803101566
 30
0.0
  0
SPLINE
  5
35A
100
AcDbEntity
  8
0
100
AcDbSpline
 62
7
  6
CONTINUOUS
 70
0
 71
3
 72
10
 73
6
 74
0
 42
0.0000001
 43
0.0000001
 44
0.0000000001
 40
0.0
 40
0.0
 40
0.0
 40
0.0
 40
0.1638684602
 40
0.3845084786
 40
1.0
 40
1.0
 40
1.0
 40
1.0
 10
154.251892381
 20
207.3537398258
 30
0.0
 10
154.2121297097
 20
207.4200541259
 30
0.0
 10
154.07866996
 20
207.5498158171
 30
0.0
 10
153.6710793063
 20
207.789305332
 30
0.0
 10
153.2910791894
 20
207.9118890588
 30
0.0
 10
153.0107946603
 20
207.9879490855
 30
0.0
  0
SPLINE
  5
35B
100
AcDbEntity
  8
0
100
AcDbSpline
 62
7
  6
CONTINUOUS
 70
0
 71
3
 72
9
 73
5
 74
0
 42
0.0000001
 43
0.0000001
 44
0.0000000001
 40
0.0
 40
0.0
 40
0.0
 40
0.0
 40
0.5001987443
 40
1.0
 40
1.0
 40
1.0
 40
1.0
 10
108.0299722886
 20
238.3982761257
 30
0.0
 10
109.1510277693
 20
241.5632694407
 30
0.0
 10
110.8470275625
 20
248.0967802955
 30
0.0
 10
111.3998805813
 20
254.8243884155
 30
0.0
 10
111.3833691689
 20
258.1793496113
 30
0.0
  0
SPLINE
  5
35C
100
AcDbEntity
  8
0
100
AcDbSpline
 62
7
  6
CONTINUOUS
 70
0
 71
3
 72
13
 73
9
 74
0
 42
0.0000001
 43
0.0000001
 44
0.0000000001
 40
0.0
 40
0.0
 40
0.0
 40
0.0
 40
0.3526208288
 40
0.6399749005
 40
0.7574607596
 40
0.8565857725
 40
0.9371639699
 40
1.0
 40
1.0
 40
1.0
 40
1.0
 10
111.0196497418
 20
220.3904746077
 30
0.0
 10
110.6049427802
 20
220.3682025054
 30
0.0
 10
109.8528479593
 20
220.314460653
 30
0.0
 10
108.9664109369
 20
220.2117229939
 30
0.0
 10
108.3786228261
 20
220.1296247036
 30
0.0
 10
108.0314729999
 20
220.0838765479
 30
0.0
 10
107.7490807064
 20
220.0431988114
 30
0.0
 10
107.583860639
 20
220.0016658673
 30
0.0
 10
107.5158710733
 20
219.9724370836
 30
0.0
  0
SPLINE
  5
35D
100
AcDbEntity
  8
0
100
AcDbSpline
 62
7
  6
CONTINUOUS
 70
0
 71
3
 72
9
 73
5
 74
0
 42
0.0000001
 43
0.0000001
 44
0.0000000001
 40
0.0
 40
0.0
 40
0.0
 40
0.0
 40
0.4447128251
 40
1.0
 40
1.0
 40
1.0
 40
1.0
 10
154.2518319275
 20
214.3547017895
 30
0.0
 10
154.2063182633
 20
214.2365352051
 30
0.0
 10
154.0330150276
 20
213.9998737142
 30
0.0
 10
153.805940183
 20
213.8253335195
 30
0.0
 10
153.6730984638
 20
213.7395832729
 30
0.0
  0
SPLINE
  5
35E
100
AcDbEntity
  8
0
100
AcDbSpline
 62
7
  6
CONTINUOUS
 70
0
 71
3
 72
9
 73
5
 74
0
 42
0.0000001
 43
0.0000001
 44
0.0000000001
 40
0.0
 40
0.0
 40
0.0
 40
0.0
 40
0.2644157507
 40
1.0
 40
1.0
 40
1.0
 40
1.0
 10
148.4502595752
 20
217.0562796734
 30
0.0
 10
148.4790817472
 20
216.8399747282
 30
0.0
 10
148.542003219
 20
216.0180379192
 30
0.0
 10
148.4215951815
 20
215.1700440922
 30
0.0
 10
148.1904023031
 20
214.60872927
 30
0.0
  0
SPLINE
  5
35F
100
AcDbEntity
  8
0
100
AcDbSpline
 62
7
  6
CONTINUOUS
 70
0
 71
3
 72
17
 73
13
 74
0
 42
0.0000001
 43
0.0000001
 44
0.0000000001
 40
0.0
 40
0.0
 40
0.0
 40
0.0
 40
0.1710599525
 40
0.2397559448
 40
0.2975336619
 40
0.3473995728
 40
0.3930764064
 40
0.4848686732
 40
0.5894809171
 40
0.7106512081
 40
0.8479611752
 40
1.0
 40
1.0
 40
1.0
 40
1.0
 10
154.2518644754
 20
214.3547003315
 30
0.0
 10
154.2148257504
 20
214.806154692
 30
0.0
 10
154.1439915003
 20
215.4402349593
 30
0.0
 10
153.9333795223
 20
216.2015894543
 30
0.0
 10
153.7382252492
 20
216.6287147723
 30
0.0
 10
153.4935120648
 20
216.9573721316
 30
0.0
 10
153.1028595306
 20
217.2718187057
 30
0.0
 10
152.4776330482
 20
217.4775016251
 30
0.0
 10
151.6340326863
 20
217.5124111234
 30
0.0
 10
150.6745499307
 20
217.433026867
 30
0.0
 10
149.5992202189
 20
217.2714100066
 30
0.0
 10
148.845674174
 20
217.1323223441
 30
0.0
 10
148.4503151407
 20
217.0562946133
 30
0.0
  0
SPLINE
  5
360
100
AcDbEntity
  8
0
100
AcDbSpline
 62
7
  6
CONTINUOUS
 70
0
 71
3
 72
10
 73
6
 74
0
 42
0.0000001
 43
0.0000001
 44
0.0000000001
 40
0.0
 40
0.0
 40
0.0
 40
0.0
 40
0.5478245155
 40
0.7909345141
 40
1.0
 40
1.0
 40
1.0
 40
1.0
 10
116.8686119097
 20
217.0012998781
 30
0.0
 10
116.5997030852
 20
216.4331974641
 30
0.0
 10
116.276367472
 20
215.5784371
 30
0.0
 10
116.0280306371
 20
214.4564532874
 30
0.0
 10
115.9970401622
 20
213.9346021297
 30
0.0
 10
116.0113345102
 20
213.6951627137
 30
0.0
  0
SPLINE
  5
361
100
AcDbEntity
  8
0
100
AcDbSpline
 62
7
  6
CONTINUOUS
 70
0
 71
3
 72
16
 73
12
 74
0
 42
0.0000001
 43
0.0000001
 44
0.0000000001
 40
0.0
 40
0.0
 40
0.0
 40
0.0
 40
0.0916151651
 40
0.1992579275
 40
0.3202338319
 40
0.4505357546
 40
0.5167573456
 40
0.5832918266
 40
0.7194798759
 40
0.8591465944
 40
1.0
 40
1.0
 40
1.0
 40
1.0
 10
145.7889082128
 20
213.7089061081
 30
0.0
 10
145.7580762913
 20
213.8097068186
 30
0.0
 10
145.7083959962
 20
214.0341478715
 30
0.0
 10
145.6580624501
 20
214.3993288601
 30
0.0
 10
145.6262308361
 20
214.8112137836
 30
0.0
 10
145.6146666639
 20
215.1766954097
 30
0.0
 10
145.5689704962
 20
215.4766164526
 30
0.0
 10
145.4813944105
 20
215.7743157361
 30
0.0
 10
145.3158615568
 20
216.1327623329
 30
0.0
 10
145.1143865301
 20
216.5674620979
 30
0.0
 10
144.9736306516
 20
216.8581546205
 30
0.0
 10
144.8974916718
 20
217.0012186273
 30
0.0
  0
SPLINE
  5
362
100
AcDbEntity
  8
0
100
AcDbSpline
 62
7
  6
CONTINUOUS
 70
0
 71
3
 72
9
 73
5
 74
0
 42
0.0000001
 43
0.0000001
 44
0.0000000001
 40
0.0
 40
0.0
 40
0.0
 40
0.0
 40
0.2693774203
 40
1.0
 40
1.0
 40
1.0
 40
1.0
 10
113.3159899575
 20
217.0563114058
 30
0.0
 10
113.2866678593
 20
216.8359310537
 30
0.0
 10
113.2248359004
 20
216.0137987154
 30
0.0
 10
113.3464769151
 20
215.1664028454
 30
0.0
 10
113.5761064889
 20
214.6088404243
 30
0.0
  0
SPLINE
  5
363
100
AcDbEntity
  8
0
100
AcDbSpline
 62
7
  6
CONTINUOUS
 70
0
 71
3
 72
9
 73
5
 74
0
 42
0.0000001
 43
0.0000001
 44
0.0000000001
 40
0.0
 40
0.0
 40
0.0
 40
0.0
 40
0.4698921007
 40
1.0
 40
1.0
 40
1.0
 40
1.0
 10
113.316360926
 20
217.056303936
 30
0.0
 10
113.8702501877
 20
217.1158492313
 30
0.0
 10
115.0594734093
 20
217.1375955926
 30
0.0
 10
116.2429309689
 20
217.0605770796
 30
0.0
 10
116.8685995199
 20
217.0013072724
 30
0.0
  0
SPLINE
  5
364
100
AcDbEntity
  8
0
100
AcDbSpline
 62
7
  6
CONTINUOUS
 70
0
 71
3
 72
11
 73
7
 74
0
 42
0.0000001
 43
0.0000001
 44
0.0000000001
 40
0.0
 40
0.0
 40
0.0
 40
0.0
 40
0.2460099529
 40
0.499999247
 40
0.7539894295
 40
1.0
 40
1.0
 40
1.0
 40
1.0
 10
116.8687707696
 20
217.0016495435
 30
0.0
 10
119.0317111596
 20
216.0605618426
 30
0.0
 10
123.642583107
 20
214.6094115992
 30
0.0
 10
130.8830486925
 20
213.8733613112
 30
0.0
 10
138.123532106
 20
214.6092765948
 30
0.0
 10
142.7344495267
 20
216.0603415138
 30
0.0
 10
144.8974049068
 20
217.0014096056
 30
0.0
  0
SPLINE
  5
365
100
AcDbEntity
  8
0
100
AcDbSpline
 62
7
  6
CONTINUOUS
 70
0
 71
3
 72
12
 73
8
 74
0
 42
0.0000001
 43
0.0000001
 44
0.0000000001
 40
0.0
 40
0.0
 40
0.0
 40
0.0
 40
0.1087934141
 40
0.1942210433
 40
0.3044835339
 40
0.6017587394
 40
1.0
 40
1.0
 40
1.0
 40
1.0
 10
117.0666508727
 20
97.247232595
 30
0.0
 10
117.1281475153
 20
97.2400942046
 30
0.0
 10
117.2344680441
 20
97.3151031419
 30
0.0
 10
117.3351215557
 20
97.4505377741
 30
0.0
 10
117.4768871134
 20
97.6957256027
 30
0.0
 10
117.6498216292
 20
98.1203184295
 30
0.0
 10
117.7721653027
 20
98.4972651106
 30
0.0
 10
117.8368533567
 20
98.714458161
 30
0.0
  0
SPLINE
  5
366
100
AcDbEntity
  8
0
100
AcDbSpline
 62
7
  6
CONTINUOUS
 70
0
 71
3
 72
9
 73
5
 74
0
 42
0.0000001
 43
0.0000001
 44
0.0000000001
 40
0.0
 40
0.0
 40
0.0
 40
0.0
 40
0.2261281759
 40
1.0
 40
1.0
 40
1.0
 40
1.0
 10
117.8368533567
 20
98.714458161
 30
0.0
 10
117.8646800155
 20
98.8078874194
 30
0.0
 10
117.9834422003
 20
99.2223356482
 30
0.0
 10
118.0875948406
 20
99.6408647234
 30
0.0
 10
118.1631256759
 20
99.9658227458
 30
0.0
  0
SPLINE
  5
367
100
AcDbEntity
  8
0
100
AcDbSpline
 62
7
  6
CONTINUOUS
 70
0
 71
3
 72
13
 73
9
 74
0
 42
0.0000001
 43
0.0000001
 44
0.0000000001
 40
0.0
 40
0.0
 40
0.0
 40
0.0
 40
0.2427596214
 40
0.3714328378
 40
0.5019299023
 40
0.6321186078
 40
0.7599394442
 40
1.0
 40
1.0
 40
1.0
 40
1.0
 10
105.4185736568
 20
107.1258518892
 30
0.0
 10
105.4146080147
 20
106.0403100243
 30
0.0
 10
105.6954082671
 20
104.3597703199
 30
0.0
 10
106.6373022408
 20
102.3129172229
 30
0.0
 10
107.6392302028
 20
100.8760189076
 30
0.0
 10
108.8945420312
 20
99.6595684311
 30
0.0
 10
110.7520114769
 20
98.4147630062
 30
0.0
 10
112.3555802739
 20
97.8831257067
 30
0.0
 10
113.4176287227
 20
97.7268831689
 30
0.0
  0
SPLINE
  5
368
100
AcDbEntity
  8
0
100
AcDbSpline
 62
7
  6
CONTINUOUS
 70
0
 71
3
 72
9
 73
5
 74
0
 42
0.0000001
 43
0.0000001
 44
0.0000000001
 40
0.0
 40
0.0
 40
0.0
 40
0.0
 40
0.2504841174
 40
1.0
 40
1.0
 40
1.0
 40
1.0
 10
115.0516381277
 20
220.8488204808
 30
0.0
 10
115.1886543012
 20
220.5209540617
 30
0.0
 10
115.7472903031
 20
219.2170388846
 30
0.0
 10
116.3620964153
 20
217.9361923984
 30
0.0
 10
116.8684374894
 20
217.0012070691
 30
0.0
  0
SPLINE
  5
369
100
AcDbEntity
  8
0
100
AcDbSpline
 62
7
  6
CONTINUOUS
 70
0
 71
3
 72
9
 73
5
 74
0
 42
0.0000001
 43
0.0000001
 44
0.0000000001
 40
0.0
 40
0.0
 40
0.0
 40
0.0
 40
0.2730845775
 40
1.0
 40
1.0
 40
1.0
 40
1.0
 10
143.6036093081
 20
99.9658233471
 30
0.0
 10
143.6302561661
 20
99.8511799309
 30
0.0
 10
143.7303331048
 20
99.4319731374
 30
0.0
 10
143.8403714584
 20
99.0150163861
 30
0.0
 10
143.9297951496
 20
98.7147486993
 30
0.0
  0
SPLINE
  5
36A
100
AcDbEntity
  8
0
100
AcDbSpline
 62
7
  6
CONTINUOUS
 70
0
 71
3
 72
12
 73
8
 74
0
 42
0.0000001
 43
0.0000001
 44
0.0000000001
 40
0.0
 40
0.0
 40
0.0
 40
0.0
 40
0.3982384535
 40
0.695514868
 40
0.8057788315
 40
0.8912079502
 40
1.0
 40
1.0
 40
1.0
 40
1.0
 10
143.9297951496
 20
98.7147486993
 30
0.0
 10
143.9944888376
 20
98.4975196431
 30
0.0
 10
144.1168435758
 20
98.1205080064
 30
0.0
 10
144.2897934469
 20
97.6958399255
 30
0.0
 10
144.4315708043
 20
97.4506014257
 30
0.0
 10
144.5322328064
 20
97.3151380865
 30
0.0
 10
144.6385581054
 20
97.2401006456
 30
0.0
 10
144.700065254
 20
97.2472311412
 30
0.0
  0
SPLINE
  5
36B
100
AcDbEntity
  8
0
100
AcDbSpline
 62
7
  6
CONTINUOUS
 70
0
 71
3
 72
13
 73
9
 74
0
 42
0.0000001
 43
0.0000001
 44
0.0000000001
 40
0.0
 40
0.0
 40
0.0
 40
0.0
 40
0.2418362502
 40
0.3699917814
 40
0.5001427494
 40
0.6302015192
 40
0.7582781395
 40
1.0
 40
1.0
 40
1.0
 40
1.0
 10
155.6821574675
 20
107.0298976378
 30
0.0
 10
155.6858523639
 20
105.9724779076
 30
0.0
 10
155.41992331
 20
104.3365133789
 30
0.0
 10
154.5247266044
 20
102.3324909837
 30
0.0
 10
153.5704629492
 20
100.916017784
 30
0.0
 10
152.3691926977
 20
99.7021336979
 30
0.0
 10
150.5772391856
 20
98.4364071624
 30
0.0
 10
149.0187490778
 20
97.8678570229
 30
0.0
 10
147.9787355287
 20
97.6795370139
 30
0.0
  0
SPLINE
  5
36C
100
AcDbEntity
  8
0
100
AcDbSpline
 62
7
  6
CONTINUOUS
 70
0
 71
3
 72
13
 73
9
 74
0
 42
0.0000001
 43
0.0000001
 44
0.0000000001
 40
0.0
 40
0.0
 40
0.0
 40
0.0
 40
0.2400605934
 40
0.3678814449
 40
0.498070159
 40
0.6285672237
 40
0.7572404299
 40
1.0
 40
1.0
 40
1.0
 40
1.0
 10
148.3491163864
 20
97.7268836649
 30
0.0
 10
149.4111653166
 20
97.8831267134
 30
0.0
 10
151.0147346924
 20
98.4147650924
 30
0.0
 10
152.8722042517
 20
99.6595722871
 30
0.0
 10
154.1275157491
 20
100.8760241671
 30
0.0
 10
155.1294429527
 20
102.3129237724
 30
0.0
 10
156.071335454
 20
104.3597781318
 30
0.0
 10
156.3521343057
 20
106.0403184119
 30
0.0
 10
156.3481676818
 20
107.1258604304
 30
0.0
  0
SPLINE
  5
36D
100
AcDbEntity
  8
0
100
AcDbSpline
 62
7
  6
CONTINUOUS
 70
0
 71
3
 72
9
 73
5
 74
0
 42
0.0000001
 43
0.0000001
 44
0.0000000001
 40
0.0
 40
0.0
 40
0.0
 40
0.0
 40
0.5007491737
 40
1.0
 40
1.0
 40
1.0
 40
1.0
 10
116.8553373671
 20
237.4525430597
 30
0.0
 10
115.9829329017
 20
234.7916023007
 30
0.0
 10
114.8940427425
 20
229.2514750765
 30
0.0
 10
114.8780667132
 20
223.6355929027
 30
0.0
 10
115.0524007431
 20
220.8491175111
 30
0.0
  0
SPLINE
  5
36E
100
AcDbEntity
  8
0
100
AcDbSpline
 62
7
  6
CONTINUOUS
 70
0
 71
3
 72
10
 73
6
 74
0
 42
0.0000001
 43
0.0000001
 44
0.0000000001
 40
0.0
 40
0.0
 40
0.0
 40
0.0
 40
0.4985001751
 40
0.7487058898
 40
1.0
 40
1.0
 40
1.0
 40
1.0
 10
146.7427805177
 20
220.9163836043
 30
0.0
 10
147.0298958567
 20
223.6894787772
 30
0.0
 10
147.1199683378
 20
227.9138875231
 30
0.0
 10
146.2468482623
 20
233.4505621309
 30
0.0
 10
145.431434775
 20
236.1466330105
 30
0.0
 10
144.925028153
 20
237.4576158186
 30
0.0
  0
SPLINE
  5
36F
100
AcDbEntity
  8
0
100
AcDbSpline
 62
7
  6
CONTINUOUS
 70
0
 71
3
 72
9
 73
5
 74
0
 42
0.0000001
 43
0.0000001
 44
0.0000000001
 40
0.0
 40
0.0
 40
0.0
 40
0.0
 40
0.2494923113
 40
1.0
 40
1.0
 40
1.0
 40
1.0
 10
144.8978546101
 20
217.0010108323
 30
0.0
 10
145.0693118622
 20
217.3176122057
 30
0.0
 10
145.7355517264
 20
218.5979844553
 30
0.0
 10
146.3265735248
 20
219.9163980254
 30
0.0
 10
146.7429068559
 20
220.9162541605
 30
0.0
  0
SPLINE
  5
370
100
AcDbEntity
  8
0
100
AcDbSpline
 62
7
  6
CONTINUOUS
 70
0
 71
3
 72
9
 73
5
 74
0
 42
0.0000001
 43
0.0000001
 44
0.0000000001
 40
0.0
 40
0.0
 40
0.0
 40
0.0
 40
0.4648056639
 40
1.0
 40
1.0
 40
1.0
 40
1.0
 10
112.1322832083
 20
220.4324851915
 30
0.0
 10
112.5788302918
 20
220.5333668861
 30
0.0
 10
113.5507112121
 20
220.7005894372
 30
0.0
 10
114.5303178017
 20
220.8072763157
 30
0.0
 10
115.0556736075
 20
220.8504701877
 30
0.0
  0
SPLINE
  5
371
100
AcDbEntity
  8
0
100
AcDbSpline
 62
7
  6
CONTINUOUS
 70
0
 71
3
 72
10
 73
6
 74
0
 42
0.0000001
 43
0.0000001
 44
0.0000000001
 40
0.0
 40
0.0
 40
0.0
 40
0.0
 40
0.2524186123
 40
0.5029672986
 40
1.0
 40
1.0
 40
1.0
 40
1.0
 10
114.6666273394
 20
238.055311406
 30
0.0
 10
114.1878618962
 20
236.6294889947
 30
0.0
 10
113.3825650466
 20
233.7361503006
 30
0.0
 10
112.3429229555
 20
227.862595573
 30
0.0
 10
112.1099058364
 20
223.3940141257
 30
0.0
 10
112.1323033038
 20
220.4324897313
 30
0.0
  0
SPLINE
  5
372
100
AcDbEntity
  8
0
100
AcDbSpline
 62
7
  6
CONTINUOUS
 70
0
 71
3
 72
9
 73
5
 74
0
 42
0.0000001
 43
0.0000001
 44
0.0000000001
 40
0.0
 40
0.0
 40
0.0
 40
0.0
 40
0.2546070398
 40
1.0
 40
1.0
 40
1.0
 40
1.0
 10
113.7928118979
 20
108.9522766088
 30
0.0
 10
114.2383440989
 20
108.7492152021
 30
0.0
 10
116.025827248
 20
108.0360849267
 30
0.0
 10
117.9366038955
 20
107.6387158971
 30
0.0
 10
119.3655175602
 20
107.5249265738
 30
0.0
  0
SPLINE
  5
373
100
AcDbEntity
  8
0
100
AcDbSpline
 62
7
  6
CONTINUOUS
 70
0
 71
3
 72
8
 73
4
 74
0
 42
0.0000001
 43
0.0000001
 44
0.0000000001
 40
0.0
 40
0.0
 40
0.0
 40
0.0
 40
1.0
 40
1.0
 40
1.0
 40
1.0
 10
112.6077472225
 20
117.7999479534
 30
0.0
 10
112.7141854012
 20
117.7929843146
 30
0.0
 10
112.8205747328
 20
117.7849825491
 30
0.0
 10
112.9267612473
 20
117.7748829311
 30
0.0
  0
SPLINE
  5
374
100
AcDbEntity
  8
0
100
AcDbSpline
 62
7
  6
CONTINUOUS
 70
0
 71
3
 72
27
 73
23
 74
0
 42
0.0000001
 43
0.0000001
 44
0.0000000001
 40
0.0
 40
0.0
 40
0.0
 40
0.0
 40
0.0576284485
 40
0.1197716784
 40
0.1871128123
 40
0.2226605411
 40
0.2592309689
 40
0.2963903188
 40
0.3337481757
 40
0.3709671724
 40
0.4075791538
 40
0.4432282356
 40
0.4777267729
 40
0.5433545784
 40
0.6051022821
 40
0.6639626413
 40
0.7209860956
 40
0.7770116233
 40
0.8327050567
 40
0.8883339336
 40
0.9440512884
 40
1.0
 40
1.0
 40
1.0
 40
1.0
 10
112.9267612473
 20
117.7748829311
 30
0.0
 10
113.1621459444
 20
117.7524950079
 30
0.0
 10
113.6504477436
 20
117.6842995095
 30
0.0
 10
114.385658219
 20
117.4478738685
 30
0.0
 10
114.9820574184
 20
117.1179730763
 30
0.0
 10
115.4416953225
 20
116.7763124887
 30
0.0
 10
115.77816863
 20
116.4790905293
 30
0.0
 10
116.0905293801
 20
116.1460140496
 30
0.0
 10
116.3650461021
 20
115.7776382144
 30
0.0
 10
116.5989703023
 20
115.3852115136
 30
0.0
 10
116.7952287146
 20
114.9805885608
 30
0.0
 10
116.950837352
 20
114.5703567804
 30
0.0
 10
117.0941316743
 20
114.0311501756
 30
0.0
 10
117.1737015265
 20
113.3680329484
 30
0.0
 10
117.1381910065
 20
112.6012961428
 30
0.0
 10
116.9803683199
 20
111.8862238829
 30
0.0
 10
116.7166819582
 20
111.22863285
 30
0.0
 10
116.3540697981
 20
110.6349864314
 30
0.0
 10
115.904499439
 20
110.1127270842
 30
0.0
 10
115.3857870806
 20
109.6604270471
 30
0.0
 10
114.7937325148
 20
109.3056191437
 30
0.0
 10
114.3655182184
 20
109.138471328
 30
0.0
 10
114.148222051
 20
109.0644583767
 30
0.0
  0
SPLINE
  5
375
100
AcDbEntity
  8
0
100
AcDbSpline
 62
7
  6
CONTINUOUS
 70
0
 71
3
 72
8
 73
4
 74
0
 42
0.0000001
 43
0.0000001
 44
0.0000000001
 40
0.0
 40
0.0
 40
0.0
 40
0.0
 40
1.0
 40
1.0
 40
1.0
 40
1.0
 10
114.148222051
 20
109.0644583767
 30
0.0
 10
114.0306268998
 20
109.0244044525
 30
0.0
 10
113.9120003777
 20
108.9873285169
 30
0.0
 10
113.7928196179
 20
108.9522730902
 30
0.0
  0
SPLINE
  5
376
100
AcDbEntity
  8
0
100
AcDbSpline
 62
7
  6
CONTINUOUS
 70
0
 71
3
 72
9
 73
5
 74
0
 42
0.0000001
 43
0.0000001
 44
0.0000000001
 40
0.0
 40
0.0
 40
0.0
 40
0.0
 40
0.203473582
 40
1.0
 40
1.0
 40
1.0
 40
1.0
 10
109.1437458605
 20
117.8489848743
 30
0.0
 10
109.378661629
 20
117.8444584904
 30
0.0
 10
110.5332315237
 20
117.8244489563
 30
0.0
 10
111.6878925406
 20
117.810182863
 30
0.0
 10
112.6076175199
 20
117.799937425
 30
0.0
  0
SPLINE
  5
377
100
AcDbEntity
  8
0
100
AcDbSpline
 62
7
  6
CONTINUOUS
 70
0
 71
3
 72
8
 73
4
 74
0
 42
0.0000001
 43
0.0000001
 44
0.0000000001
 40
0.0
 40
0.0
 40
0.0
 40
0.0
 40
1.0
 40
1.0
 40
1.0
 40
1.0
 10
107.4606939527
 20
108.9769436079
 30
0.0
 10
107.1921100161
 20
110.3598914246
 30
0.0
 10
107.064873746
 20
111.7759423418
 30
0.0
 10
107.064873746
 20
113.1847297618
 30
0.0
  0
SPLINE
  5
378
100
AcDbEntity
  8
0
100
AcDbSpline
 62
7
  6
CONTINUOUS
 70
0
 71
3
 72
11
 73
7
 74
0
 42
0.0000001
 43
0.0000001
 44
0.0000000001
 40
0.0
 40
0.0
 40
0.0
 40
0.0
 40
0.3237410988
 40
0.5975052589
 40
0.82239841
 40
1.0
 40
1.0
 40
1.0
 40
1.0
 10
112.6633296607
 20
108.8310423877
 30
0.0
 10
112.1016853114
 20
108.8373994486
 30
0.0
 10
111.0652588095
 20
108.8606825826
 30
0.0
 10
109.6388585991
 20
108.8954337067
 30
0.0
 10
108.4661483109
 20
108.9332852766
 30
0.0
 10
107.7685728463
 20
108.9658157929
 30
0.0
 10
107.4606404611
 20
108.9769332193
 30
0.0
  0
SPLINE
  5
379
100
AcDbEntity
  8
0
100
AcDbSpline
 62
7
  6
CONTINUOUS
 70
0
 71
3
 72
14
 73
10
 74
0
 42
0.0000001
 43
0.0000001
 44
0.0000000001
 40
0.0
 40
0.0
 40
0.0
 40
0.0
 40
0.0896026711
 40
0.1896715538
 40
0.3017090476
 40
0.4257126605
 40
0.5602770266
 40
0.7030147157
 40
1.0
 40
1.0
 40
1.0
 40
1.0
 10
106.084612802
 20
107.0298666932
 30
0.0
 10
106.1854664197
 20
106.6011096754
 30
0.0
 10
106.5388134908
 20
105.7239053522
 30
0.0
 10
107.4132224558
 20
104.5129381648
 30
0.0
 10
108.6251530056
 20
103.3776278349
 30
0.0
 10
110.137177397
 20
102.3506867047
 30
0.0
 10
111.9056260607
 20
101.464589612
 30
0.0
 10
114.5633992978
 20
100.5006165409
 30
0.0
 10
116.7073489892
 20
100.0935530766
 30
0.0
 10
118.161673591
 20
99.9662302575
 30
0.0
  0
SPLINE
  5
37A
100
AcDbEntity
  8
0
100
AcDbSpline
 62
7
  6
CONTINUOUS
 70
0
 71
3
 72
11
 73
7
 74
0
 42
0.0000001
 43
0.0000001
 44
0.0000000001
 40
0.0
 40
0.0
 40
0.0
 40
0.0
 40
0.2498138674
 40
0.4996659733
 40
0.7498239579
 40
1.0
 40
1.0
 40
1.0
 40
1.0
 10
107.4606939527
 20
108.9769436079
 30
0.0
 10
107.449332069
 20
109.0353541971
 30
0.0
 10
107.454661496
 20
109.1597496433
 30
0.0
 10
107.5474706886
 20
109.3196240604
 30
0.0
 10
107.6980697022
 20
109.4250347421
 30
0.0
 10
107.8187584174
 20
109.449253405
 30
0.0
 10
107.8783494172
 20
109.4489767966
 30
0.0
  0
SPLINE
  5
37B
100
AcDbEntity
  8
0
100
AcDbSpline
 62
7
  6
CONTINUOUS
 70
0
 71
3
 72
9
 73
5
 74
0
 42
0.0000001
 43
0.0000001
 44
0.0000000001
 40
0.0
 40
0.0
 40
0.0
 40
0.0
 40
0.4670142323
 40
1.0
 40
1.0
 40
1.0
 40
1.0
 10
112.0250065432
 20
219.2729679214
 30
0.0
 10
112.464920215
 20
219.5731374061
 30
0.0
 10
113.4545597914
 20
220.1460394792
 30
0.0
 10
114.4932943511
 20
220.6199395071
 30
0.0
 10
115.0556664336
 20
220.8504920136
 30
0.0
  0
SPLINE
  5
37C
100
AcDbEntity
  8
0
100
AcDbSpline
 62
7
  6
CONTINUOUS
 70
0
 71
3
 72
9
 73
5
 74
0
 42
0.0000001
 43
0.0000001
 44
0.0000000001
 40
0.0
 40
0.0
 40
0.0
 40
0.0
 40
0.2604775865
 40
1.0
 40
1.0
 40
1.0
 40
1.0
 10
112.1323031234
 20
220.4326032988
 30
0.0
 10
112.0356802077
 20
220.4293963591
 30
0.0
 10
111.6647445907
 20
220.4169185971
 30
0.0
 10
111.2937862857
 20
220.4041856111
 30
0.0
 10
111.0196556491
 20
220.3904736195
 30
0.0
  0
SPLINE
  5
37D
100
AcDbEntity
  8
0
100
AcDbSpline
 62
7
  6
CONTINUOUS
 70
0
 71
3
 72
9
 73
5
 74
0
 42
0.0000001
 43
0.0000001
 44
0.0000000001
 40
0.0
 40
0.0
 40
0.0
 40
0.0
 40
0.251214978
 40
1.0
 40
1.0
 40
1.0
 40
1.0
 10
113.3163945357
 20
217.0563039347
 30
0.0
 10
113.2006679751
 20
217.2373275955
 30
0.0
 10
112.74831268
 20
217.9632206292
 30
0.0
 10
112.326168031
 20
218.7077791437
 30
0.0
 10
112.0250281729
 20
219.2729637722
 30
0.0
  0
SPLINE
  5
37E
100
AcDbEntity
  8
0
100
AcDbSpline
 62
7
  6
CONTINUOUS
 70
0
 71
3
 72
17
 73
13
 74
0
 42
0.0000001
 43
0.0000001
 44
0.0000000001
 40
0.0
 40
0.0
 40
0.0
 40
0.0
 40
0.1710667412
 40
0.2397439283
 40
0.297543068
 40
0.3473980405
 40
0.3930771088
 40
0.4848704619
 40
0.5894819951
 40
0.7106521239
 40
0.847961437
 40
1.0
 40
1.0
 40
1.0
 40
1.0
 10
107.5148770638
 20
214.3546999719
 30
0.0
 10
107.5518667862
 20
214.8061746979
 30
0.0
 10
107.6226116637
 20
215.4402664933
 30
0.0
 10
107.8334946175
 20
216.2015376072
 30
0.0
 10
108.0283959649
 20
216.6287669997
 30
0.0
 10
108.2732941542
 20
216.9573321982
 30
0.0
 10
108.6638499876
 20
217.2718360081
 30
0.0
 10
109.2891024411
 20
217.4775361413
 30
0.0
 10
110.132695818
 20
217.5124159569
 30
0.0
 10
111.092167607
 20
217.4329841119
 30
0.0
 10
112.1674980971
 20
217.2714302791
 30
0.0
 10
112.9210385483
 20
217.1323359111
 30
0.0
 10
113.3163945357
 20
217.0563039347
 30
0.0
  0
SPLINE
  5
37F
100
AcDbEntity
  8
0
100
AcDbSpline
 62
7
  6
CONTINUOUS
 70
0
 71
3
 72
12
 73
8
 74
0
 42
0.0000001
 43
0.0000001
 44
0.0000000001
 40
0.0
 40
0.0
 40
0.0
 40
0.0
 40
0.3524180659
 40
0.6382430786
 40
0.8541180601
 40
0.9356827326
 40
1.0
 40
1.0
 40
1.0
 40
1.0
 10
110.929161006
 20
219.3296635326
 30
0.0
 10
110.5240553098
 20
219.3450749129
 30
0.0
 10
109.7905637732
 20
219.3816207371
 30
0.0
 10
108.8112642031
 20
219.4584453908
 30
0.0
 10
108.1446533555
 20
219.5465647114
 30
0.0
 10
107.7402958744
 20
219.6462286111
 30
0.0
 10
107.5817210702
 20
219.7031987905
 30
0.0
 10
107.5148770638
 20
219.7349141506
 30
0.0
  0
SPLINE
  5
380
100
AcDbEntity
  8
0
100
AcDbSpline
 62
7
  6
CONTINUOUS
 70
0
 71
3
 72
9
 73
5
 74
0
 42
0.0000001
 43
0.0000001
 44
0.0000000001
 40
0.0
 40
0.0
 40
0.0
 40
0.0
 40
0.4977853161
 40
1.0
 40
1.0
 40
1.0
 40
1.0
 10
153.8568436374
 20
117.4490290074
 30
0.0
 10
153.9578157335
 20
117.449029037
 30
0.0
 10
154.1688668764
 20
117.5355255514
 30
0.0
 10
154.2518649029
 20
117.7471584466
 30
0.0
 10
154.2518649029
 20
117.8490290074
 30
0.0
  0
SPLINE
  5
381
100
AcDbEntity
  8
0
100
AcDbSpline
 62
7
  6
CONTINUOUS
 70
0
 71
3
 72
10
 73
6
 74
0
 42
0.0000001
 43
0.0000001
 44
0.0000000001
 40
0.0
 40
0.0
 40
0.0
 40
0.0
 40
0.2395164171
 40
0.4869169829
 40
1.0
 40
1.0
 40
1.0
 40
1.0
 10
152.2629189534
 20
117.4490451388
 30
0.0
 10
152.309883623
 20
117.4490527717
 30
0.0
 10
152.4064637828
 20
117.4711619137
 30
0.0
 10
152.5671843914
 20
117.5909766814
 30
0.0
 10
152.6228313478
 20
117.7483627383
 30
0.0
 10
152.6228500949
 20
117.8489686783
 30
0.0
  0
SPLINE
  5
382
100
AcDbEntity
  8
0
100
AcDbSpline
 62
7
  6
CONTINUOUS
 70
0
 71
3
 72
9
 73
5
 74
0
 42
0.0000001
 43
0.0000001
 44
0.0000000001
 40
0.0
 40
0.0
 40
0.0
 40
0.0
 40
0.5297985531
 40
1.0
 40
1.0
 40
1.0
 40
1.0
 10
149.0758240881
 20
117.5608115529
 30
0.0
 10
149.0521507474
 20
117.5280086312
 30
0.0
 10
148.9963913647
 20
117.4722119451
 30
0.0
 10
148.9192325406
 20
117.4490637511
 30
0.0
 10
148.8833299561
 20
117.4490561457
 30
0.0
  0
SPLINE
  5
383
100
AcDbEntity
  8
0
100
AcDbSpline
 62
7
  6
CONTINUOUS
 70
0
 71
3
 72
9
 73
5
 74
0
 42
0.0000001
 43
0.0000001
 44
0.0000000001
 40
0.0
 40
0.0
 40
0.0
 40
0.0
 40
0.5002711297
 40
1.0
 40
1.0
 40
1.0
 40
1.0
 10
153.7367676063
 20
238.3982802624
 30
0.0
 10
152.6103097197
 20
241.5622370959
 30
0.0
 10
150.9080821679
 20
248.0955756717
 30
0.0
 10
150.3609450578
 20
254.8251469941
 30
0.0
 10
150.3833767819
 20
258.1799328028
 30
0.0
  0
SPLINE
  5
384
100
AcDbEntity
  8
0
100
AcDbSpline
 62
7
  6
CONTINUOUS
 70
0
 71
3
 72
9
 73
5
 74
0
 42
0.0000001
 43
0.0000001
 44
0.0000000001
 40
0.0
 40
0.0
 40
0.0
 40
0.0
 40
0.5005317831
 40
1.0
 40
1.0
 40
1.0
 40
1.0
 10
153.3297181292
 20
238.3982802466
 30
0.0
 10
154.4049369737
 20
235.4386390441
 30
0.0
 10
156.005220971
 20
229.3118310547
 30
0.0
 10
156.433304148
 20
222.9930650836
 30
0.0
 10
156.3482440914
 20
219.852007536
 30
0.0
  0
SPLINE
  5
385
100
AcDbEntity
  8
0
100
AcDbSpline
 62
7
  6
CONTINUOUS
 70
0
 71
3
 72
9
 73
5
 74
0
 42
0.0000001
 43
0.0000001
 44
0.0000000001
 40
0.0
 40
0.0
 40
0.0
 40
0.0
 40
0.2427554416
 40
1.0
 40
1.0
 40
1.0
 40
1.0
 10
142.401222569
 20
107.5249264586
 30
0.0
 10
142.8665023721
 20
107.5619782397
 30
0.0
 10
144.7755828811
 20
107.7939312131
 30
0.0
 10
146.6490714675
 20
108.3484424772
 30
0.0
 10
147.9739295437
 20
108.9522767168
 30
0.0
  0
SPLINE
  5
386
100
AcDbEntity
  8
0
100
AcDbSpline
 62
7
  6
CONTINUOUS
 70
0
 71
3
 72
9
 73
5
 74
0
 42
0.0000001
 43
0.0000001
 44
0.0000000001
 40
0.0
 40
0.0
 40
0.0
 40
0.0
 40
0.5002156633
 40
1.0
 40
1.0
 40
1.0
 40
1.0
 10
153.7377900191
 20
238.3982761303
 30
0.0
 10
152.6154790261
 20
241.5630120288
 30
0.0
 10
150.9178842859
 20
248.0963863787
 30
0.0
 10
150.3658356245
 20
254.8243493794
 30
0.0
 10
150.3833719265
 20
258.1792549601
 30
0.0
  0
SPLINE
  5
387
100
AcDbEntity
  8
0
100
AcDbSpline
 62
7
  6
CONTINUOUS
 70
0
 71
3
 72
21
 73
17
 74
0
 42
0.0000001
 43
0.0000001
 44
0.0000000001
 40
0.0
 40
0.0
 40
0.0
 40
0.0
 40
0.0560205877
 40
0.1118335677
 40
0.1675476148
 40
0.2233311685
 40
0.2794677661
 40
0.3365900611
 40
0.3955969519
 40
0.4575093454
 40
0.5232478591
 40
0.5935053948
 40
0.741215709
 40
0.8800776507
 40
0.9423341579
 40
1.0
 40
1.0
 40
1.0
 40
1.0
 10
147.6109857339
 20
109.0643603657
 30
0.0
 10
147.3937564765
 20
109.1381043896
 30
0.0
 10
146.9667920068
 20
109.3081313677
 30
0.0
 10
146.3760916323
 20
109.6641393065
 30
0.0
 10
145.8576153365
 20
110.1165283643
 30
0.0
 10
145.4103514959
 20
110.6405467831
 30
0.0
 10
145.0474046082
 20
111.2335975789
 30
0.0
 10
144.7827558345
 20
111.8912329712
 30
0.0
 10
144.6300282181
 20
112.6076203891
 30
0.0
 10
144.5928777569
 20
113.3743956771
 30
0.0
 10
144.6926593442
 20
114.1833346985
 30
0.0
 10
145.0498012412
 20
115.2950639238
 30
0.0
 10
145.8948706117
 20
116.5356329395
 30
0.0
 10
147.1085224114
 20
117.3541152668
 30
0.0
 10
148.1193230473
 20
117.687423318
 30
0.0
 10
148.6071660718
 20
117.760378727
 30
0.0
 10
148.8424341093
 20
117.7806823166
 30
0.0
  0
SPLINE
  5
388
100
AcDbEntity
  8
0
100
AcDbSpline
 62
7
  6
CONTINUOUS
 70
0
 71
3
 72
9
 73
5
 74
0
 42
0.0000001
 43
0.0000001
 44
0.0000000001
 40
0.0
 40
0.0
 40
0.0
 40
0.0
 40
0.2946173806
 40
1.0
 40
1.0
 40
1.0
 40
1.0
 10
149.1587902838
 20
117.79995413
 30
0.0
 10
149.4989946143
 20
117.8037241232
 30
0.0
 10
150.6537174465
 20
117.8172384388
 30
0.0
 10
151.8084235254
 20
117.8332416185
 30
0.0
 10
152.6228500949
 20
117.8489686783
 30
0.0
  0
SPLINE
  5
389
100
AcDbEntity
  8
0
100
AcDbSpline
 62
7
  6
CONTINUOUS
 70
0
 71
3
 72
8
 73
4
 74
0
 42
0.0000001
 43
0.0000001
 44
0.0000000001
 40
0.0
 40
0.0
 40
0.0
 40
0.0
 40
1.0
 40
1.0
 40
1.0
 40
1.0
 10
149.0758240881
 20
117.5608115529
 30
0.0
 10
149.091954971
 20
117.583192703
 30
0.0
 10
149.1055741159
 20
117.6075186563
 30
0.0
 10
149.1168146194
 20
117.632713345
 30
0.0
  0
SPLINE
  5
38A
100
AcDbEntity
  8
0
100
AcDbSpline
 62
7
  6
CONTINUOUS
 70
0
 71
3
 72
9
 73
5
 74
0
 42
0.0000001
 43
0.0000001
 44
0.0000000001
 40
0.0
 40
0.0
 40
0.0
 40
0.0
 40
0.2423049431
 40
1.0
 40
1.0
 40
1.0
 40
1.0
 10
149.1168146194
 20
117.632713345
 30
0.0
 10
149.1225038412
 20
117.6454652802
 30
0.0
 10
149.1435250932
 20
117.6991733025
 30
0.0
 10
149.1550579025
 20
117.7564496725
 30
0.0
 10
149.1587902838
 20
117.79995413
 30
0.0
  0
SPLINE
  5
38B
100
AcDbEntity
  8
0
100
AcDbSpline
 62
7
  6
CONTINUOUS
 70
0
 71
3
 72
11
 73
7
 74
0
 42
0.0000001
 43
0.0000001
 44
0.0000000001
 40
0.0
 40
0.0
 40
0.0
 40
0.0
 40
0.2980843837
 40
0.5607231872
 40
0.7896467381
 40
1.0
 40
1.0
 40
1.0
 40
1.0
 10
147.9738386916
 20
108.9523654502
 30
0.0
 10
148.0125519958
 20
109.011017595
 30
0.0
 10
148.062568392
 20
109.1374393858
 30
0.0
 10
148.072209184
 20
109.3260524626
 30
0.0
 10
148.0236329175
 20
109.4889558683
 30
0.0
 10
147.9358210186
 20
109.562832908
 30
0.0
 10
147.8877149738
 20
109.5748859268
 30
0.0
  0
SPLINE
  5
38C
100
AcDbEntity
  8
0
100
AcDbSpline
 62
7
  6
CONTINUOUS
 70
0
 71
3
 72
11
 73
7
 74
0
 42
0.0000001
 43
0.0000001
 44
0.0000000001
 40
0.0
 40
0.0
 40
0.0
 40
0.0
 40
0.2958047096
 40
0.5602858991
 40
0.791059338
 40
1.0
 40
1.0
 40
1.0
 40
1.0
 10
149.1033989583
 20
108.8310544385
 30
0.0
 10
149.1320907893
 20
108.8983067309
 30
0.0
 10
149.1575653568
 20
109.0389499581
 30
0.0
 10
149.1266795284
 20
109.2347722001
 30
0.0
 10
149.042703213
 20
109.39258257
 30
0.0
 10
148.9350474293
 20
109.4490254262
 30
0.0
 10
148.8834015002
 20
109.4490206651
 30
0.0
  0
SPLINE
  5
38D
100
AcDbEntity
  8
0
100
AcDbSpline
 62
7
  6
CONTINUOUS
 70
0
 71
3
 72
9
 73
5
 74
0
 42
0.0000001
 43
0.0000001
 44
0.0000000001
 40
0.0
 40
0.0
 40
0.0
 40
0.0
 40
0.2613081837
 40
1.0
 40
1.0
 40
1.0
 40
1.0
 10
112.025029933
 20
219.2730245524
 30
0.0
 10
111.9295631377
 20
219.2776881412
 30
0.0
 10
111.5642475433
 20
219.2960730528
 30
0.0
 10
111.1990066265
 20
219.3158964194
 30
0.0
 10
110.9291619069
 20
219.3296853872
 30
0.0
  0
SPLINE
  5
38E
100
AcDbEntity
  8
0
100
AcDbSpline
 62
7
  6
CONTINUOUS
 70
0
 71
3
 72
9
 73
5
 74
0
 42
0.0000001
 43
0.0000001
 44
0.0000000001
 40
0.0
 40
0.0
 40
0.0
 40
0.0
 40
0.5013242184
 40
1.0
 40
1.0
 40
1.0
 40
1.0
 10
107.5148483769
 20
207.3537850026
 30
0.0
 10
107.4664764862
 20
208.5230541889
 30
0.0
 10
107.4028161011
 20
210.8566316437
 30
0.0
 10
107.4400265564
 20
213.1930205025
 30
0.0
 10
107.5148769252
 20
214.3546985045
 30
0.0
  0
SPLINE
  5
38F
100
AcDbEntity
  8
0
100
AcDbSpline
 62
7
  6
CONTINUOUS
 70
0
 71
3
 72
11
 73
7
 74
0
 42
0.0000001
 43
0.0000001
 44
0.0000000001
 40
0.0
 40
0.0
 40
0.0
 40
0.0
 40
0.2898006344
 40
0.5562608309
 40
0.7903821053
 40
1.0
 40
1.0
 40
1.0
 40
1.0
 10
112.6076175199
 20
117.799937425
 30
0.0
 10
112.6116465485
 20
117.7533068282
 30
0.0
 10
112.630500173
 20
117.6642880333
 30
0.0
 10
112.690314448
 20
117.5493718952
 30
0.0
 10
112.7769346427
 20
117.4696539411
 30
0.0
 10
112.8493403881
 20
117.4490653017
 30
0.0
 10
112.8831947812
 20
117.4490480552
 30
0.0
  0
SPLINE
  5
390
100
AcDbEntity
  8
0
100
AcDbSpline
 62
7
  6
CONTINUOUS
 70
0
 71
3
 72
10
 73
6
 74
0
 42
0.0000001
 43
0.0000001
 44
0.0000000001
 40
0.0
 40
0.0
 40
0.0
 40
0.0
 40
0.2395356616
 40
0.4869223794
 40
1.0
 40
1.0
 40
1.0
 40
1.0
 10
109.5035281924
 20
117.4490323902
 30
0.0
 10
109.4565658495
 20
117.4490507962
 30
0.0
 10
109.3600002859
 20
117.4711719328
 30
0.0
 10
109.1993300918
 20
117.591016175
 30
0.0
 10
109.143742946
 20
117.7483930509
 30
0.0
 10
109.1437458605
 20
117.8489848743
 30
0.0
  0
SPLINE
  5
391
100
AcDbEntity
  8
0
100
AcDbSpline
 62
7
  6
CONTINUOUS
 70
0
 71
3
 72
11
 73
7
 74
0
 42
0.0000001
 43
0.0000001
 44
0.0000000001
 40
0.0
 40
0.0
 40
0.0
 40
0.0
 40
0.2502335684
 40
0.5003837601
 40
0.750232371
 40
1.0
 40
1.0
 40
1.0
 40
1.0
 10
153.8883920744
 20
109.448976798
 30
0.0
 10
153.9479985224
 20
109.4492543374
 30
0.0
 10
154.0686986769
 20
109.4250347732
 30
0.0
 10
154.219339858
 20
109.3196382328
 30
0.0
 10
154.3120713341
 20
109.1597254527
 30
0.0
 10
154.3174101018
 20
109.0353492342
 30
0.0
 10
154.3060504826
 20
108.9769476457
 30
0.0
  0
SPLINE
  5
392
100
AcDbEntity
  8
0
100
AcDbSpline
 62
7
  6
CONTINUOUS
 70
0
 71
3
 72
9
 73
5
 74
0
 42
0.0000001
 43
0.0000001
 44
0.0000000001
 40
0.0
 40
0.0
 40
0.0
 40
0.0
 40
0.5022146794
 40
1.0
 40
1.0
 40
1.0
 40
1.0
 10
107.5148765889
 20
117.8490290074
 30
0.0
 10
107.5148765889
 20
117.7471584092
 30
0.0
 10
107.5978746822
 20
117.5355254265
 30
0.0
 10
107.8089259667
 20
117.449028973
 30
0.0
 10
107.9098981017
 20
117.4490290074
 30
0.0
  0
SPLINE
  5
393
100
AcDbEntity
  8
0
100
AcDbSpline
 62
7
  6
CONTINUOUS
 70
0
 71
3
 72
12
 73
8
 74
0
 42
0.0000001
 43
0.0000001
 44
0.0000000001
 40
0.0
 40
0.0
 40
0.0
 40
0.0
 40
0.2635424531
 40
0.5199400461
 40
0.7643529368
 40
0.8830770927
 40
1.0
 40
1.0
 40
1.0
 40
1.0
 10
116.8054228771
 20
327.4061874031
 30
0.0
 10
116.8155504399
 20
328.0477925827
 30
0.0
 10
117.0524061728
 20
329.3209773069
 30
0.0
 10
118.0093997367
 20
330.9606124377
 30
0.0
 10
119.2313716499
 20
331.9193452276
 30
0.0
 10
120.3372802667
 20
332.3205589479
 30
0.0
 10
120.9115840844
 20
332.3967672824
 30
0.0
 10
121.1962138413
 20
332.4025842862
 30
0.0
  0
SPLINE
  5
394
100
AcDbEntity
  8
0
100
AcDbSpline
 62
7
  6
CONTINUOUS
 70
0
 71
3
 72
11
 73
7
 74
0
 42
0.0000001
 43
0.0000001
 44
0.0000000001
 40
0.0
 40
0.0
 40
0.0
 40
0.0
 40
0.297509541
 40
0.5553748971
 40
0.7876356812
 40
1.0
 40
1.0
 40
1.0
 40
1.0
 10
113.7928436957
 20
108.9522864434
 30
0.0
 10
113.7543893149
 20
109.0109476928
 30
0.0
 10
113.7045781664
 20
109.1360322713
 30
0.0
 10
113.6944968162
 20
109.3239437405
 30
0.0
 10
113.7417698732
 20
109.4875852008
 30
0.0
 10
113.8305224988
 20
109.5624665637
 30
0.0
 10
113.8790157617
 20
109.5749237663
 30
0.0
  0
SPLINE
  5
395
100
AcDbEntity
  8
0
100
AcDbSpline
 62
7
  6
CONTINUOUS
 70
0
 71
3
 72
11
 73
7
 74
0
 42
0.0000001
 43
0.0000001
 44
0.0000000001
 40
0.0
 40
0.0
 40
0.0
 40
0.0
 40
0.2955614268
 40
0.5603150885
 40
0.7912616757
 40
1.0
 40
1.0
 40
1.0
 40
1.0
 10
112.6633941911
 20
108.8311076559
 30
0.0
 10
112.634482069
 20
108.8981887667
 30
0.0
 10
112.6092743473
 20
109.0389205926
 30
0.0
 10
112.6399727839
 20
109.2348115385
 30
0.0
 10
112.7240678816
 20
109.3924334737
 30
0.0
 10
112.8317518977
 20
109.4492517719
 30
0.0
 10
112.8833390724
 20
109.4488697775
 30
0.0
  0
SPLINE
  5
396
100
AcDbEntity
  8
0
100
AcDbSpline
 62
7
  6
CONTINUOUS
 70
0
 71
3
 72
9
 73
5
 74
0
 42
0.0000001
 43
0.0000001
 44
0.0000000001
 40
0.0
 40
0.0
 40
0.0
 40
0.0
 40
0.5520629709
 40
1.0
 40
1.0
 40
1.0
 40
1.0
 10
153.6730740681
 20
213.7395849358
 30
0.0
 10
153.6646601213
 20
213.9730221868
 30
0.0
 10
153.6327632428
 20
214.3952766836
 30
0.0
 10
153.5317713211
 20
214.8113456492
 30
0.0
 10
153.4565152909
 20
214.9852955246
 30
0.0
  0
SPLINE
  5
397
100
AcDbEntity
  8
0
100
AcDbSpline
 62
7
  6
CONTINUOUS
 70
0
 71
3
 72
10
 73
6
 74
0
 42
0.0000001
 43
0.0000001
 44
0.0000000001
 40
0.0
 40
0.0
 40
0.0
 40
0.0
 40
0.5079655651
 40
0.7611411893
 40
1.0
 40
1.0
 40
1.0
 40
1.0
 10
153.0110747931
 20
207.9877892032
 30
0.0
 10
153.2091402859
 20
208.9498050037
 30
0.0
 10
153.466652003
 20
210.4009214624
 30
0.0
 10
153.6635073444
 20
212.3251707365
 30
0.0
 10
153.6898740565
 20
213.2781170893
 30
0.0
 10
153.6732611003
 20
213.7396715688
 30
0.0
  0
SPLINE
  5
398
100
AcDbEntity
  8
0
100
AcDbSpline
 62
7
  6
CONTINUOUS
 70
0
 71
3
 72
14
 73
10
 74
0
 42
0.0000001
 43
0.0000001
 44
0.0000000001
 40
0.0
 40
0.0
 40
0.0
 40
0.0
 40
0.0852729208
 40
0.1840981883
 40
0.2960818321
 40
0.4202860274
 40
0.5551063413
 40
0.6984289477
 40
1.0
 40
1.0
 40
1.0
 40
1.0
 10
109.1441351071
 20
117.8490290074
 30
0.0
 10
109.5427243615
 20
118.1403652439
 30
0.0
 10
110.4575451783
 20
118.6955927552
 30
0.0
 10
112.0214278992
 20
119.4043112499
 30
0.0
 10
113.8581756265
 20
120.0352730081
 30
0.0
 10
115.9389906678
 20
120.5754387679
 30
0.0
 10
118.229094296
 20
121.0105270347
 30
0.0
 10
121.5584714896
 20
121.4455015322
 30
0.0
 10
124.1373449155
 20
121.5712992956
 30
0.0
 10
125.8833718948
 20
121.5721348485
 30
0.0
  0
SPLINE
  5
399
100
AcDbEntity
  8
0
100
AcDbSpline
 62
7
  6
CONTINUOUS
 70
0
 71
3
 72
9
 73
5
 74
0
 42
0.0000001
 43
0.0000001
 44
0.0000000001
 40
0.0
 40
0.0
 40
0.0
 40
0.0
 40
0.4828010384
 40
1.0
 40
1.0
 40
1.0
 40
1.0
 10
108.1041993056
 20
202.3699701589
 30
0.0
 10
107.9366986055
 20
203.1606718794
 30
0.0
 10
107.6858660122
 20
204.818940862
 30
0.0
 10
107.560462044
 20
206.4891368651
 30
0.0
 10
107.5148494333
 20
207.3537680614
 30
0.0
  0
SPLINE
  5
39A
100
AcDbEntity
  8
0
100
AcDbSpline
 62
7
  6
CONTINUOUS
 70
0
 71
3
 72
18
 73
14
 74
0
 42
0.0000001
 43
0.0000001
 44
0.0000000001
 40
0.0
 40
0.0
 40
0.0
 40
0.0
 40
0.0691905119
 40
0.1375898433
 40
0.2046595164
 40
0.2703201018
 40
0.3347635568
 40
0.3982300588
 40
0.5228214688
 40
0.6451256186
 40
0.7654330896
 40
0.8837648042
 40
1.0
 40
1.0
 40
1.0
 40
1.0
 10
125.8833534527
 20
183.2172540273
 30
0.0
 10
125.2407951044
 20
183.0328952777
 30
0.0
 10
123.9179071317
 20
182.8024879292
 30
0.0
 10
121.9266967076
 20
182.9288478141
 30
0.0
 10
120.0508388375
 20
183.4906838321
 30
0.0
 10
118.357356421
 20
184.3834576728
 30
0.0
 10
116.8513110215
 20
185.5020854407
 30
0.0
 10
115.0831973724
 20
187.1895664334
 30
0.0
 10
113.2290683565
 20
189.5656214923
 30
0.0
 10
111.4433364086
 20
192.6394747386
 30
0.0
 10
110.0162181557
 20
195.8274219835
 30
0.0
 10
108.8980951238
 20
199.0726094567
 30
0.0
 10
108.3369221881
 20
201.2713443624
 30
0.0
 10
108.1041993056
 20
202.3699701589
 30
0.0
  0
SPLINE
  5
39B
100
AcDbEntity
  8
0
100
AcDbSpline
 62
7
  6
CONTINUOUS
 70
0
 71
3
 72
13
 73
9
 74
0
 42
0.0000001
 43
0.0000001
 44
0.0000000001
 40
0.0
 40
0.0
 40
0.0
 40
0.0
 40
0.2417222113
 40
0.3697988639
 40
0.4998575847
 40
0.6300084632
 40
0.758163883
 40
1.0
 40
1.0
 40
1.0
 40
1.0
 10
113.7879286531
 20
97.6795510195
 30
0.0
 10
112.7479221069
 20
97.8678789524
 30
0.0
 10
111.1894455246
 20
98.4364376669
 30
0.0
 10
109.3975103254
 20
99.7021672456
 30
0.0
 10
108.1962544614
 20
100.9160487825
 30
0.0
 10
107.2420027527
 20
102.3325148507
 30
0.0
 10
106.346816977
 20
104.3365244415
 30
0.0
 10
106.0808904553
 20
105.9724765472
 30
0.0
 10
106.0845843292
 20
107.0298886824
 30
0.0
  0
SPLINE
  5
39C
100
AcDbEntity
  8
0
100
AcDbSpline
 62
7
  6
CONTINUOUS
 70
0
 71
3
 72
11
 73
7
 74
0
 42
0.0000001
 43
0.0000001
 44
0.0000000001
 40
0.0
 40
0.0
 40
0.0
 40
0.0
 40
0.25034604
 40
0.5000005771
 40
0.7496534226
 40
1.0
 40
1.0
 40
1.0
 40
1.0
 10
135.8833817639
 20
183.2172382326
 30
0.0
 10
135.0831286212
 20
183.5100569214
 30
0.0
 10
133.4382809901
 20
183.9800675209
 30
0.0
 10
130.8833614701
 20
184.230948762
 30
0.0
 10
128.3284473024
 20
183.9800413099
 30
0.0
 10
126.6835952511
 20
183.5100577445
 30
0.0
 10
125.8833434089
 20
183.2172301783
 30
0.0
  0
SPLINE
  5
39D
100
AcDbEntity
  8
0
100
AcDbSpline
 62
7
  6
CONTINUOUS
 70
0
 71
3
 72
9
 73
5
 74
0
 42
0.0000001
 43
0.0000001
 44
0.0000000001
 40
0.0
 40
0.0
 40
0.0
 40
0.0
 40
0.2424263007
 40
1.0
 40
1.0
 40
1.0
 40
1.0
 10
151.8153301328
 20
203.7647271856
 30
0.0
 10
151.9420330653
 20
204.0962473619
 30
0.0
 10
152.4290099119
 20
205.4774203622
 30
0.0
 10
152.7875748441
 20
206.9014143719
 30
0.0
 10
153.0112547798
 20
207.9876973079
 30
0.0
  0
SPLINE
  5
39E
100
AcDbEntity
  8
0
100
AcDbSpline
 62
7
  6
CONTINUOUS
 70
0
 71
3
 72
15
 73
11
 74
0
 42
0.0000001
 43
0.0000001
 44
0.0000000001
 40
0.0
 40
0.0
 40
0.0
 40
0.0
 40
0.1131812204
 40
0.2362400812
 40
0.3663097083
 40
0.4999999993
 40
0.6336902903
 40
0.7637599177
 40
0.886818779
 40
1.0
 40
1.0
 40
1.0
 40
1.0
 10
109.9519388186
 20
203.7650533507
 30
0.0
 10
111.4153893047
 20
203.0637896805
 30
0.0
 10
114.585097856
 20
201.8353155181
 30
0.0
 10
119.684401675
 20
200.5370666301
 30
0.0
 10
125.1825375771
 20
199.7385038797
 30
0.0
 10
130.8833705911
 20
199.4691981219
 30
0.0
 10
136.5842036109
 20
199.7385038499
 30
0.0
 10
142.0823395282
 20
200.5370665758
 30
0.0
 10
147.1816433777
 20
201.8353154283
 30
0.0
 10
150.3513519432
 20
203.0637895917
 30
0.0
 10
151.8148024478
 20
203.7650532428
 30
0.0
  0
SPLINE
  5
39F
100
AcDbEntity
  8
0
100
AcDbSpline
 62
7
  6
CONTINUOUS
 70
0
 71
3
 72
9
 73
5
 74
0
 42
0.0000001
 43
0.0000001
 44
0.0000000001
 40
0.0
 40
0.0
 40
0.0
 40
0.0
 40
0.2577113867
 40
1.0
 40
1.0
 40
1.0
 40
1.0
 10
108.7554720495
 20
207.987699648
 30
0.0
 10
108.8315500275
 20
207.6182018066
 30
0.0
 10
109.1484226528
 20
206.1892997373
 30
0.0
 10
109.5634805288
 20
204.779708839
 30
0.0
 10
109.9513967276
 20
203.7647186813
 30
0.0
  0
SPLINE
  5
3A0
100
AcDbEntity
  8
0
100
AcDbSpline
 62
7
  6
CONTINUOUS
 70
0
 71
3
 72
10
 73
6
 74
0
 42
0.0000001
 43
0.0000001
 44
0.0000000001
 40
0.0
 40
0.0
 40
0.0
 40
0.0
 40
0.2388556933
 40
0.4920263062
 40
1.0
 40
1.0
 40
1.0
 40
1.0
 10
108.0934892306
 20
213.7396417592
 30
0.0
 10
108.0768854483
 20
213.2780960734
 30
0.0
 10
108.1032352303
 20
212.3251722519
 30
0.0
 10
108.3000958493
 20
210.4009355679
 30
0.0
 10
108.5575985704
 20
208.9498219116
 30
0.0
 10
108.7556672586
 20
207.9877974312
 30
0.0
  0
SPLINE
  5
3A1
100
AcDbEntity
  8
0
100
AcDbSpline
 62
7
  6
CONTINUOUS
 70
0
 71
3
 72
9
 73
5
 74
0
 42
0.0000001
 43
0.0000001
 44
0.0000000001
 40
0.0
 40
0.0
 40
0.0
 40
0.0
 40
0.5171991168
 40
1.0
 40
1.0
 40
1.0
 40
1.0
 10
154.2518906231
 20
207.3537264812
 30
0.0
 10
154.2062657163
 20
206.4891030397
 30
0.0
 10
154.0808793408
 20
204.8189203633
 30
0.0
 10
153.8300418656
 20
203.1606660074
 30
0.0
 10
153.6625424269
 20
202.3699713042
 30
0.0
  0
SPLINE
  5
3A2
100
AcDbEntity
  8
0
100
AcDbSpline
 62
7
  6
CONTINUOUS
 70
0
 71
3
 72
17
 73
13
 74
0
 42
0.0000001
 43
0.0000001
 44
0.0000000001
 40
0.0
 40
0.0
 40
0.0
 40
0.0
 40
0.0654366363
 40
0.1301013703
 40
0.1940634747
 40
0.2574949964
 40
0.3832195145
 40
0.5082583894
 40
0.6325995128
 40
0.756126336
 40
0.878664309
 40
1.0
 40
1.0
 40
1.0
 40
1.0
 10
136.2531624509
 20
184.2275296029
 30
0.0
 10
136.8224990524
 20
184.0356368727
 30
0.0
 10
138.0139605985
 20
183.8011635857
 30
0.0
 10
139.8107398845
 20
184.0037585063
 30
0.0
 10
141.4583988369
 20
184.6811841576
 30
0.0
 10
143.3834996435
 20
186.0042819974
 30
0.0
 10
145.3550495738
 20
188.1509677089
 30
0.0
 10
147.2264108328
 20
191.0509433827
 30
0.0
 10
148.751267955
 20
194.1229188806
 30
0.0
 10
150.0045672187
 20
197.2876305071
 30
0.0
 10
151.0291439182
 20
200.5039153229
 30
0.0
 10
151.5760379831
 20
202.6768882765
 30
0.0
 10
151.8148568002
 20
203.7650306762
 30
0.0
  0
SPLINE
  5
3A3
100
AcDbEntity
  8
0
100
AcDbSpline
 62
7
  6
CONTINUOUS
 70
0
 71
3
 72
17
 73
13
 74
0
 42
0.0000001
 43
0.0000001
 44
0.0000000001
 40
0.0
 40
0.0
 40
0.0
 40
0.0
 40
0.121337782
 40
0.2438781044
 40
0.3674074516
 40
0.491751419
 40
0.6167936156
 40
0.7425232484
 40
0.805957119
 40
0.8699142576
 40
0.9345724897
 40
1.0
 40
1.0
 40
1.0
 40
1.0
 10
109.9518810811
 20
203.7650291362
 30
0.0
 10
110.1907047904
 20
202.6768687763
 30
0.0
 10
110.7376100706
 20
200.5038579364
 30
0.0
 10
111.7622069679
 20
197.2875139594
 30
0.0
 10
113.0155462689
 20
194.1227443088
 30
0.0
 10
114.5404532984
 20
191.0507040055
 30
0.0
 10
116.4119104712
 20
188.150674529
 30
0.0
 10
118.3835672268
 20
186.0039301341
 30
0.0
 10
120.308802556
 20
184.6809898349
 30
0.0
 10
121.956398654
 20
184.003648531
 30
0.0
 10
123.7529963255
 20
183.8011571229
 30
0.0
 10
124.9443060417
 20
184.0356203048
 30
0.0
 10
125.5135604018
 20
184.2274936724
 30
0.0
  0
ELLIPSE
  5
3A4
100
AcDbEntity
  8
0
100
AcDbEllipse
 62
7
  6
CONTINUOUS
 10
154.2968263778
 20
117.8490290074
 30
0.0
 11
0.4050413679
 21
-0.0
 31
0.0
 40
0.9875534493
 41
-1.5707963268
 42
-0.0
  0
ELLIPSE
  5
3A5
100
AcDbEntity
  8
0
100
AcDbEllipse
 62
7
  6
CONTINUOUS
 10
107.4699151139
 20
117.8490290074
 30
0.0
 11
0.4050413679
 21
0.0
 31
0.0
 40
0.9875534493
 41
3.1415926537
 42
4.712388981
  0
ENDSEC
  0
SECTION
  2
OBJECTS
  0
DICTIONARY
  5
C
100
AcDbDictionary
280
0
281
1
  3
ACAD_GROUP
350
D
  3
ACAD_MLINESTYLE
350
17
  3
ACAD_LAYOUT
350
1A
  3
ACAD_PLOTSETTINGS
350
19
  3
ACAD_PLOTSTYLENAME
350
E
  0
DICTIONARY
  5
D
102
{ACAD_REACTORS
330
C
102
}
100
AcDbDictionary
280
0
281
1
  0
ACDBDICTIONARYWDFLT
  5
E
102
{ACAD_REACTORS
330
C
102
}
100
AcDbDictionary
281
1
  3
Normal
350
F
100
AcDbDictionaryWithDefault
340
F
  0
DICTIONARY
  5
17
102
{ACAD_REACTORS
330
C
102
}
100
AcDbDictionary
280
0
281
1
  3
Standard
350
18
  0
DICTIONARY
  5
19
102
{ACAD_REACTORS
330
C
102
}
100
AcDbDictionary
281
1
  0
DICTIONARY
  5
1A
102
{ACAD_REACTORS
330
C
102
}
100
AcDbDictionary
281
1
  3
Model
350
3A6
  3
Layout1
350
3A7
  0
ACDBPLACEHOLDER
  5
F
102
{ACAD_REACTORS
330
E
102
}
  0
MLINESTYLE
  5
18
102
{ACAD_REACTORS
330
17
102
}
100
AcDbMlineStyle
  2
STANDARD
 70
0
  3

 62
256
 51
90.0
 52
90.0
 71
2
 49
0.5
 62
256
  6
BYLAYER
 49
-0.5
 62
256
  6
BYLAYER
  0
LAYOUT
  5
3A6
102
{ACAD_REACTORS
330
1A
102
}
100
AcDbPlotSettings
  1

  2
none_device
  4

  6

 40
0.0
 41
0.0
 42
0.0
 43
0.0
 44
210.0
 45
297.0
 46
0.0
 47
0.0
 48
0.0
 49
0.0
140
0.0
141
0.0
142
1.0
143
1.0
 70
1024
 72
1
 73
0
 74
0
  7

 75
0
147
1.0
148
0.0
149
0.0
100
AcDbLayout
  1
Model
 70
0
 71
0
 10
0.0
 20
0.0
 11
210.0
 21
297.0
 12
0.0
 22
0.0
 32
0.0
 14
0.0
 24
0.0
 34
0.0
 15
0.0
 25
0.0
 35
0.0
146
0.0
 13
0.0
 23
0.0
 33
0.0
 16
1.0
 26
0.0
 36
0.0
 17
0.0
 27
1.0
 37
0.0
 76
0
330
210
345
0
346
0
  0
LAYOUT
  5
3A7
102
{ACAD_REACTORS
330
1A
102
}
100
AcDbPlotSettings
  1

  2
none_device
  4

  6

 40
0.0
 41
0.0
 42
0.0
 43
0.0
 44
210.0
 45
297.0
 46
0.0
 47
0.0
 48
0.0
 49
0.0
140
0.0
141
0.0
142
1.0
143
1.0
 70
0
 72
1
 73
0
 74
0
  7

 75
0
147
1.0
148
0.0
149
0.0
100
AcDbLayout
  1
Layout1
 70
0
 71
1
 10
0.0
 20
0.0
 11
210.0
 21
297.0
 12
0.0
 22
0.0
 32
0.0
 14
0.0
 24
0.0
 34
0.0
 15
0.0
 25
0.0
 35
0.0
146
0.0
 13
0.0
 23
0.0
 33
0.0
 16
1.0
 26
0.0
 36
0.0
 17
0.0
 27
1.0
 37
0.0
 76
0
330
211
345
0
346
0
  0
ENDSEC
  0
EOF
