999
DXF file: C:\Users\sesa63760\Dev\_Creo\CAD\MCADPP0003422_3D-CAD\drw0001_1.dxf
999
Pro/ENGINEER 2019471 by Parametric Technology Corporation
  0
SECTION
  2
HEADER
  9
$ACADVER
  1
AC1024
  9
$DWGCODEPAGE
  3
ANSI_1252
  9
$EXTMAX
 10
105.1273537221
 20
148.6801145498
 30
0.0
  9
$EXTMIN
 10
0.0
 20
0.0
 30
0.0
  9
$LIMMIN
 10
0.0
 20
0.0
  9
$LIMMAX
 10
105.1273537221
 20
148.6801145498
  9
$VIEWCTR
 10
52.5636768611
 20
74.3400572749
  9
$VIEWSIZE
 40
148.6801145498
  9
$CLAYER
  8
0
  9
$LTSCALE
 40
9.6917408003
  9
$CELTYPE
  6
BYLAYER
  9
$DIMSCALE
 40
1.0
  9
$DIMASZ
 40
1.2515161157
  9
$DIMEXO
 40
1.0
  9
$DIMDLI
 40
6.6961118257
  9
$DIMEXE
 40
1.0
  9
$DIMCEN
 40
1.5859212219
  9
$DIMLFAC
 40
1.0
  9
$DIMBLK
  1
_FILLED
  9
$DIMALT
 70
0
  9
$DIMALTF
 40
0.0393700787
  9
$DIMTXT
 40
1.752122562
  9
$DIMTOL
 70
1
  9
$DIMLIM
 70
0
  9
$DIMTFAC
 40
1.0
  9
$DIMTP
 40
0.01
  9
$DIMTM
 40
0.01
  9
$DIMGAP
 40
0.625
  9
$DIMDSEP
 70
46
  9
$AUNITS
 70
0
  9
$PDMODE
 70
3
  9
$PDSIZE
 40
0.3125
  9
$HANDSEED
  5
308
  9
$TILEMODE
 70
1
  9
$MEASUREMENT
 70
1
  9
$INSUNITS
 70
4
  0
ENDSEC
  0
SECTION
  2
CLASSES
  0
CLASS
  1
ACDBDICTIONARYWDFLT
  2
AcDbDictionaryWithDefault
  3
AutoCAD 2000
 90
0
 91
1
280
0
281
0
  0
CLASS
  1
ACDBPLACEHOLDER
  2
AcDbPlaceHolder
  3
AutoCAD 2000
 90
0
 91
1
280
0
281
0
  0
CLASS
  1
LAYOUT
  2
AcDbLayout
  3
AutoCAD 2000
 90
0
 91
0
280
0
281
0
  0
ENDSEC
  0
SECTION
  2
TABLES
  0
TABLE
  2
VPORT
  5
8
100
AcDbSymbolTable
 70
2
  0
VPORT
  5
1F4
100
AcDbSymbolTableRecord
100
AcDbViewportTableRecord
  2
*ACTIVE
 70
0
 10
0.0
 20
0.0
 11
1.0
 21
1.0
 12
52.5636768611
 22
74.3400572749
 13
0.0
 23
0.0
 14
1.0
 24
1.0
 15
0.0
 25
0.0
 16
0.0
 26
0.0
 36
1.0
 17
0.0
 27
0.0
 37
0.0
 40
148.6801145498
 41
0.7070707071
 42
50.0
 43
0.0
 44
0.0
 50
0.0
 51
0.0
 71
0
 72
100
 73
1
 74
1
 75
0
 76
0
 77
0
 78
0
  0
ENDTAB
  0
TABLE
  2
LTYPE
  5
5
100
AcDbSymbolTable
 70
6
  0
LTYPE
  5
14
100
AcDbSymbolTableRecord
100
AcDbLinetypeTableRecord
  2
BYBLOCK
 70
0
  3

 72
65
 73
0
 40
0.0
  0
LTYPE
  5
15
100
AcDbSymbolTableRecord
100
AcDbLinetypeTableRecord
  2
BYLAYER
 70
0
  3

 72
65
 73
0
 40
0.0
  0
LTYPE
  5
16
100
AcDbSymbolTableRecord
100
AcDbLinetypeTableRecord
  2
CONTINUOUS
 70
64
  3
Solid line
 72
65
 73
0
 40
0.0
  0
LTYPE
  5
1F5
100
AcDbSymbolTableRecord
100
AcDbLinetypeTableRecord
  2
CENTER
 70
64
  3
____ _ ____ _ ____ _ ____ _ ____ _ ____ _ ____
 72
65
 73
4
 40
0.6
 49
0.375
 74
0
 49
-0.075
 74
0
 49
0.075
 74
0
 49
-0.075
 74
0
  0
LTYPE
  5
1F6
100
AcDbSymbolTableRecord
100
AcDbLinetypeTableRecord
  2
HIDDEN
 70
64
  3
- - - - - - - - - - - - - - - - - - - -
 72
65
 73
2
 40
0.2
 49
0.1
 74
0
 49
-0.1
 74
0
  0
LTYPE
  5
1F7
100
AcDbSymbolTableRecord
100
AcDbLinetypeTableRecord
  2
PHANTOM
 70
64
  3
_____ _ _ _____ _ _ _____ _ _ _____
 72
65
 73
6
 40
0.8
 49
0.45
 74
0
 49
-0.05
 74
0
 49
0.1
 74
0
 49
-0.05
 74
0
 49
0.1
 74
0
 49
-0.05
 74
0
  0
LTYPE
  5
1F8
100
AcDbSymbolTableRecord
100
AcDbLinetypeTableRecord
  2
DOT
 70
64
  3
. . . . . . . . . . . . . . . . . . . .
 72
65
 73
2
 40
0.2
 49
0.1
 74
0
 49
-0.1
 74
0
  0
LTYPE
  5
1F9
100
AcDbSymbolTableRecord
100
AcDbLinetypeTableRecord
  2
DASHED
 70
64
  3
- - - - - - - - - - - - - - - - - - - -
 72
65
 73
2
 40
0.2
 49
0.1
 74
0
 49
-0.1
 74
0
  0
ENDTAB
  0
TABLE
  2
LAYER
  5
2
100
AcDbSymbolTable
 70
36
  0
LAYER
  5
10
100
AcDbSymbolTableRecord
100
AcDbLayerTableRecord
  2
0
 70
0
 62
7
  6
CONTINUOUS
370
-3
390
F
  0
LAYER
  5
1FA
100
AcDbSymbolTableRecord
100
AcDbLayerTableRecord
  2
DEFAULT_1
 70
0
 62
7
  6
CENTER
370
-3
390
F
  0
LAYER
  5
1FB
100
AcDbSymbolTableRecord
100
AcDbLayerTableRecord
  2
DEFAULT_2
 70
0
 62
8
  6
HIDDEN
370
-3
390
F
  0
LAYER
  5
1FC
100
AcDbSymbolTableRecord
100
AcDbLayerTableRecord
  2
DEFAULT_3
 70
0
 62
7
  6
PHANTOM
370
-3
390
F
  0
LAYER
  5
1FD
100
AcDbSymbolTableRecord
100
AcDbLayerTableRecord
  2
00_COMPONENTS
 70
0
 62
7
  6
CONTINUOUS
370
-3
390
F
  0
LAYER
  5
1FE
100
AcDbSymbolTableRecord
100
AcDbLayerTableRecord
  2
01_1_DEFAULT_DATUMS
 70
0
 62
7
  6
CONTINUOUS
370
-3
390
F
  0
LAYER
  5
1FF
100
AcDbSymbolTableRecord
100
AcDbLayerTableRecord
  2
01_PLANES
 70
0
 62
7
  6
CONTINUOUS
370
-3
390
F
  0
LAYER
  5
200
100
AcDbSymbolTableRecord
100
AcDbLayerTableRecord
  2
02_COORD_SYS
 70
0
 62
7
  6
CONTINUOUS
370
-3
390
F
  0
LAYER
  5
201
100
AcDbSymbolTableRecord
100
AcDbLayerTableRecord
  2
03_AXES
 70
0
 62
7
  6
CONTINUOUS
370
-3
390
F
  0
LAYER
  5
202
100
AcDbSymbolTableRecord
100
AcDbLayerTableRecord
  2
04_POINTS
 70
0
 62
7
  6
CONTINUOUS
370
-3
390
F
  0
LAYER
  5
203
100
AcDbSymbolTableRecord
100
AcDbLayerTableRecord
  2
05_CURVES
 70
0
 62
7
  6
CONTINUOUS
370
-3
390
F
  0
LAYER
  5
204
100
AcDbSymbolTableRecord
100
AcDbLayerTableRecord
  2
06_SURFS
 70
0
 62
7
  6
CONTINUOUS
370
-3
390
F
  0
LAYER
  5
205
100
AcDbSymbolTableRecord
100
AcDbLayerTableRecord
  2
07_COSMETICS
 70
0
 62
7
  6
CONTINUOUS
370
-3
390
F
  0
LAYER
  5
206
100
AcDbSymbolTableRecord
100
AcDbLayerTableRecord
  2
10_NOTES
 70
0
 62
7
  6
CONTINUOUS
370
-3
390
F
  0
LAYER
  5
207
100
AcDbSymbolTableRecord
100
AcDbLayerTableRecord
  2
11_NOTES_PUB
 70
0
 62
7
  6
CONTINUOUS
370
-3
390
F
  0
LAYER
  5
208
100
AcDbSymbolTableRecord
100
AcDbLayerTableRecord
  2
13_REF_GTOL
 70
0
 62
7
  6
CONTINUOUS
370
-3
390
F
  0
LAYER
  5
209
100
AcDbSymbolTableRecord
100
AcDbLayerTableRecord
  2
16_MISC
 70
0
 62
7
  6
CONTINUOUS
370
-3
390
F
  0
LAYER
  5
20A
100
AcDbSymbolTableRecord
100
AcDbLayerTableRecord
  2
17_NO_PRINT
 70
0
 62
7
  6
CONTINUOUS
370
-3
390
F
  0
LAYER
  5
20B
100
AcDbSymbolTableRecord
100
AcDbLayerTableRecord
  2
18_DATUM_CAMS_JOINTS
 70
0
 62
7
  6
CONTINUOUS
370
-3
390
F
  0
LAYER
  5
20C
100
AcDbSymbolTableRecord
100
AcDbLayerTableRecord
  2
19_DATUM_FUNCTIONAL
 70
0
 62
7
  6
CONTINUOUS
370
-3
390
F
  0
LAYER
  5
20D
100
AcDbSymbolTableRecord
100
AcDbLayerTableRecord
  2
20_DATUM_KINEMATIC_SCHEME
 70
0
 62
7
  6
CONTINUOUS
370
-3
390
F
  0
ENDTAB
  0
TABLE
  2
STYLE
  5
3
100
AcDbSymbolTable
 70
1
  0
STYLE
  5
11
100
AcDbSymbolTableRecord
100
AcDbTextStyleTableRecord
  2
STANDARD
 70
0
 40
0.0
 41
0.8
 50
0.0
 71
0
 42
0.2
  3
txt
  4

  0
STYLE
  5
20E
100
AcDbSymbolTableRecord
100
AcDbTextStyleTableRecord
  2
TEXTSTYLE_1
 70
0
 40
0.0
 41
0.8
 50
0.0
 71
0
 42
0.2
  3
gdt
  4

  0
ENDTAB
  0
TABLE
  2
VIEW
  5
6
100
AcDbSymbolTable
 70
0
  0
ENDTAB
  0
TABLE
  2
UCS
  5
7
100
AcDbSymbolTable
 70
0
  0
ENDTAB
  0
TABLE
  2
APPID
  5
9
100
AcDbSymbolTable
 70
1
  0
APPID
  5
20F
100
AcDbSymbolTableRecord
100
AcDbRegAppTableRecord
  2
ACAD
 70
0
  0
ENDTAB
  0
TABLE
  2
BLOCK_RECORD
  5
1
100
AcDbSymbolTable
 70
0
  0
BLOCK_RECORD
  5
210
100
AcDbSymbolTableRecord
100
AcDbBlockTableRecord
  2
*Model_Space
  0
BLOCK_RECORD
  5
211
100
AcDbSymbolTableRecord
100
AcDbBlockTableRecord
  2
*Paper_Space
  0
BLOCK_RECORD
  5
212
100
AcDbSymbolTableRecord
100
AcDbBlockTableRecord
  2
_FILLED
  0
ENDTAB
  0
TABLE
  2
DIMSTYLE
  5
A
100
AcDbSymbolTable
 70
1
100
AcDbDimStyleTable
 71
0
  0
DIMSTYLE
105
213
100
AcDbSymbolTableRecord
100
AcDbDimStyleTableRecord
  2
STANDARD
 70
0
  3

  4

 40
1.0
 41
1.2515161157
 42
1.0
 43
0.38
 44
1.0
 45
0.0
 46
0.0
 47
0.01
 48
0.01
140
1.752122562
141
0.09
142
0.0
143
25.4
144
1.0
145
0.0
146
1.0
147
0.625
 71
1
 72
0
 73
0
 74
0
 75
0
 76
0
 77
1
 78
8
 79
2
170
0
171
1
172
0
173
0
174
0
175
0
176
0
177
0
178
0
270
2
179
2
271
2
272
2
273
2
274
2
275
0
280
0
281
0
282
0
283
1
284
8
285
0
286
0
287
3
288
0
340
11
278
46
341
212
342
212
343
212
344
212
  0
ENDTAB
  0
ENDSEC
  0
SECTION
  2
BLOCKS
  0
BLOCK
  5
20
100
AcDbEntity
  8
0
100
AcDbBlockBegin
  2
*Model_Space
 70
0
 10
0.0
 20
0.0
 30
0.0
  3
*Model_Space
  1

  0
ENDBLK
  5
21
100
AcDbEntity
  8
0
100
AcDbBlockEnd
  0
BLOCK
  5
1C
100
AcDbEntity
  8
0
100
AcDbBlockBegin
  2
*Paper_Space
 70
0
 10
0.0
 20
0.0
 30
0.0
  3
*Paper_Space
  1

  0
ENDBLK
  5
1D
100
AcDbEntity
  8
0
100
AcDbBlockEnd
  0
BLOCK
  5
214
100
AcDbEntity
  8
0
100
AcDbBlockBegin
  2
_FILLED
 70
64
 10
0.0
 20
0.0
  3
_FILLED
  1

  0
SOLID
  5
215
100
AcDbEntity
  8
0
  6
BYBLOCK
 62
0
100
AcDbTrace
 10
0.0
 20
0.0
 11
-1.0
 21
0.25
 12
-1.0
 22
-0.25
 13
-1.0
 23
-0.25
  0
ENDBLK
  5
216
100
AcDbEntity
  8
0
  6
BYBLOCK
 62
0
100
AcDbBlockEnd
  0
ENDSEC
  0
SECTION
  2
ENTITIES
  0
LINE
  5
217
100
AcDbEntity
  8
0
100
AcDbLine
 62
7
  6
CONTINUOUS
 10
25.6280687042
 20
111.0117529412
 11
53.6091759901
 21
127.1615578944
  0
LINE
  5
218
100
AcDbEntity
  8
0
100
AcDbLine
 62
7
  6
CONTINUOUS
 10
12.1959825507
 20
78.5130919836
 11
12.1959825507
 21
87.3335793712
  0
LINE
  5
219
100
AcDbEntity
  8
0
100
AcDbLine
 62
7
  6
CONTINUOUS
 10
24.8773817631
 20
43.1670010248
 11
62.0006423333
 21
21.7343614125
  0
LINE
  5
21A
100
AcDbEntity
  8
0
100
AcDbLine
 62
7
  6
CONTINUOUS
 10
24.5676208615
 20
43.8530816772
 11
61.6908814317
 21
22.4204420649
  0
LINE
  5
21B
100
AcDbEntity
  8
0
100
AcDbLine
 62
7
  6
CONTINUOUS
 10
17.8515886357
 20
56.4681429029
 11
17.8515886357
 21
73.5572037502
  0
LINE
  5
21C
100
AcDbEntity
  8
0
100
AcDbLine
 62
7
  6
CONTINUOUS
 10
17.8515886357
 20
87.3336379142
 11
17.8515886357
 21
90.2312471156
  0
LINE
  5
21D
100
AcDbEntity
  8
0
100
AcDbLine
 62
7
  6
CONTINUOUS
 10
13.2564086915
 20
89.1703015206
 11
13.9633594515
 21
89.5784572958
  0
LINE
  5
21E
100
AcDbEntity
  8
0
100
AcDbLine
 62
7
  6
CONTINUOUS
 10
18.162189862
 20
55.7816123363
 11
55.2854504322
 21
34.348972724
  0
LINE
  5
21F
100
AcDbEntity
  8
0
100
AcDbLine
 62
7
  6
CONTINUOUS
 10
54.9748492059
 20
35.0355032906
 11
17.8515886357
 21
56.4681429029
  0
LINE
  5
220
100
AcDbEntity
  8
0
100
AcDbLine
 62
7
  6
CONTINUOUS
 10
24.5676208615
 20
43.8516710609
 11
24.5676208615
 21
52.0835186865
  0
LINE
  5
221
100
AcDbEntity
  8
0
100
AcDbLine
 62
7
  6
CONTINUOUS
 10
24.5676208615
 20
96.4920178748
 11
24.5676208615
 21
109.1749932798
  0
LINE
  5
222
100
AcDbEntity
  8
0
100
AcDbLine
 62
7
  6
CONTINUOUS
 10
60.9901446103
 20
37.1766764607
 11
61.6908814317
 21
36.7721150207
  0
LINE
  5
223
100
AcDbEntity
  8
0
100
AcDbLine
 62
7
  6
CONTINUOUS
 10
92.7927748129
 20
58.9477809048
 11
90.322386348
 21
58.2858594701
  0
LINE
  5
224
100
AcDbEntity
  8
0
100
AcDbLine
 62
7
  6
CONTINUOUS
 10
90.322386348
 20
60.2486138022
 11
90.4707565481
 21
60.2883684469
  0
LINE
  5
225
100
AcDbEntity
  8
0
100
AcDbLine
 62
7
  6
CONTINUOUS
 10
51.0022815842
 20
54.575399872
 11
54.9748492059
 21
54.0478347855
  0
LINE
  5
226
100
AcDbEntity
  8
0
100
AcDbLine
 62
7
  6
CONTINUOUS
 10
50.3546089345
 20
54.7920662892
 11
51.0022815842
 21
54.575399872
  0
LINE
  5
227
100
AcDbEntity
  8
0
100
AcDbLine
 62
7
  6
CONTINUOUS
 10
21.2280542771
 20
69.6776261779
 11
25.0514176629
 21
67.4702562353
  0
LINE
  5
228
100
AcDbEntity
  8
0
100
AcDbLine
 62
7
  6
CONTINUOUS
 10
33.6024744671
 20
62.5334129738
 11
37.425837853
 21
60.3260430312
  0
LINE
  5
229
100
AcDbEntity
  8
0
100
AcDbLine
 62
7
  6
CONTINUOUS
 10
45.9768946572
 20
55.3891997697
 11
49.800258043
 21
53.1818298271
  0
LINE
  5
22A
100
AcDbEntity
  8
0
100
AcDbLine
 62
7
  6
CONTINUOUS
 10
13.231319972
 20
76.224656761
 11
50.3545805422
 21
54.7920171487
  0
LINE
  5
22B
100
AcDbEntity
  8
0
100
AcDbLine
 62
7
  6
CONTINUOUS
 10
19.8598738946
 20
70.9746800212
 11
21.0695808117
 21
71.6731004664
  0
LINE
  5
22C
100
AcDbEntity
  8
0
100
AcDbLine
 62
7
  6
CONTINUOUS
 10
54.9260690186
 20
60.77317853
 11
53.1890488637
 21
60.500352688
  0
LINE
  5
22D
100
AcDbEntity
  8
0
100
AcDbLine
 62
7
  6
CONTINUOUS
 10
55.2074288863
 20
61.2517282516
 11
56.4510779731
 21
61.4470625472
  0
LINE
  5
22E
100
AcDbEntity
  8
0
100
AcDbLine
 62
7
  6
CONTINUOUS
 10
55.1902850683
 20
60.7191477693
 11
54.9272916352
 21
60.6930040768
  0
LINE
  5
22F
100
AcDbEntity
  8
0
100
AcDbLine
 62
7
  6
CONTINUOUS
 10
53.1890488637
 20
60.500352688
 11
52.4148330576
 21
60.6230060521
  0
LINE
  5
230
100
AcDbEntity
  8
0
100
AcDbLine
 62
7
  6
CONTINUOUS
 10
55.0783877346
 20
61.2721614643
 11
55.2074288863
 21
61.2517282516
  0
LINE
  5
231
100
AcDbEntity
  8
0
100
AcDbLine
 62
7
  6
CONTINUOUS
 10
49.3192431209
 20
57.0804523713
 11
12.1959825507
 21
78.5130919836
  0
LINE
  5
232
100
AcDbEntity
  8
0
100
AcDbLine
 62
7
  6
CONTINUOUS
 10
90.7324365603
 20
105.7289182821
 11
62.7513292744
 21
89.5791133289
  0
LINE
  5
233
100
AcDbEntity
  8
0
100
AcDbLine
 62
7
  6
CONTINUOUS
 10
51.7395283256
 20
65.6148876044
 11
51.6112269272
 21
65.6036294911
  0
LINE
  5
234
100
AcDbEntity
  8
0
100
AcDbLine
 62
7
  6
CONTINUOUS
 10
94.3563538378
 20
58.7040743524
 11
94.0395654052
 21
58.7325127093
  0
LINE
  5
235
100
AcDbEntity
  8
0
100
AcDbLine
 62
7
  6
CONTINUOUS
 10
91.8597755967
 20
61.200519569
 11
90.322386348
 21
61.3571741071
  0
LINE
  5
236
100
AcDbEntity
  8
0
100
AcDbLine
 62
7
  6
CONTINUOUS
 10
94.0450559685
 20
58.7593439749
 11
92.7927748129
 21
58.9477809048
  0
LINE
  5
237
100
AcDbEntity
  8
0
100
AcDbLine
 62
7
  6
CONTINUOUS
 10
90.4707565481
 20
60.2883684469
 11
91.7230377037
 21
60.099931517
  0
LINE
  5
238
100
AcDbEntity
  8
0
100
AcDbLine
 62
7
  6
CONTINUOUS
 10
53.1890488637
 20
60.500352688
 11
51.9921575405
 21
61.1913625829
  0
LINE
  5
239
100
AcDbEntity
  8
0
100
AcDbLine
 62
7
  6
CONTINUOUS
 10
51.7935707816
 20
62.5816863164
 11
54.9260690186
 21
60.77317853
  0
LINE
  5
23A
100
AcDbEntity
  8
0
100
AcDbLine
 62
7
  6
CONTINUOUS
 10
51.7935707816
 20
62.6801973122
 11
55.1902850683
 21
60.7191477693
  0
LINE
  5
23B
100
AcDbEntity
  8
0
100
AcDbLine
 62
7
  6
CONTINUOUS
 10
51.7935707816
 20
63.1685974736
 11
55.0783829482
 21
61.2721531883
  0
LINE
  5
23C
100
AcDbEntity
  8
0
100
AcDbLine
 62
7
  6
CONTINUOUS
 10
54.9748492059
 20
61.5009967109
 11
51.7935707816
 21
63.3376671145
  0
LINE
  5
23D
100
AcDbEntity
  8
0
100
AcDbLine
 62
7
  6
CONTINUOUS
 10
12.1959825507
 20
87.3335793712
 11
49.3192431209
 21
65.9009397588
  0
LINE
  5
23E
100
AcDbEntity
  8
0
100
AcDbLine
 62
7
  6
CONTINUOUS
 10
51.3107675376
 20
65.7770958763
 11
51.6112269272
 21
65.6036294911
  0
LINE
  5
23F
100
AcDbEntity
  8
0
100
AcDbLine
 62
7
  6
CONTINUOUS
 10
51.3758168023
 20
65.8248789382
 11
51.7395314146
 21
65.6148929595
  0
LINE
  5
240
100
AcDbEntity
  8
0
100
AcDbLine
 62
7
  6
CONTINUOUS
 10
49.3192431209
 20
65.9009397588
 11
49.3192431209
 21
57.0804523713
  0
LINE
  5
241
100
AcDbEntity
  8
0
100
AcDbLine
 62
7
  6
CONTINUOUS
 10
25.7982912022
 20
67.5461893557
 11
27.0080166497
 21
68.2446204993
  0
LINE
  5
242
100
AcDbEntity
  8
0
100
AcDbLine
 62
7
  6
CONTINUOUS
 10
51.261441115
 20
66.568431046
 11
51.5503039899
 21
66.4016597603
  0
LINE
  5
243
100
AcDbEntity
  8
0
100
AcDbLine
 62
7
  6
CONTINUOUS
 10
51.0912033758
 20
67.2464148451
 11
51.3690549165
 21
67.0860008123
  0
LINE
  5
244
100
AcDbEntity
  8
0
100
AcDbLine
 62
7
  6
CONTINUOUS
 10
50.3796692617
 20
67.7376619083
 11
13.2564086915
 21
89.1703015206
  0
LINE
  5
245
100
AcDbEntity
  8
0
100
AcDbLine
 62
7
  6
CONTINUOUS
 10
84.9130366942
 20
48.5623836394
 11
85.97369245
 21
47.9500276066
  0
LINE
  5
246
100
AcDbEntity
  8
0
100
AcDbLine
 62
7
  6
CONTINUOUS
 10
13.9633594515
 20
89.5784572958
 11
51.0866200217
 21
68.1458176835
  0
LINE
  5
247
100
AcDbEntity
  8
0
100
AcDbLine
 62
7
  6
CONTINUOUS
 10
87.8475229178
 20
49.2768410973
 11
87.2111241651
 21
49.6442577764
  0
LINE
  5
248
100
AcDbEntity
  8
0
100
AcDbLine
 62
7
  6
CONTINUOUS
 10
17.8515886357
 20
90.2312471156
 11
54.9748492059
 21
68.7986075033
  0
LINE
  5
249
100
AcDbEntity
  8
0
100
AcDbLine
 62
7
  6
CONTINUOUS
 10
51.7939571896
 20
65.4945941488
 11
51.7395283256
 21
65.6148876044
  0
LINE
  5
24A
100
AcDbEntity
  8
0
100
AcDbLine
 62
7
  6
CONTINUOUS
 10
51.390994509
 20
65.4112275579
 11
51.2993372024
 21
65.7572975071
  0
LINE
  5
24B
100
AcDbEntity
  8
0
100
AcDbLine
 62
7
  6
CONTINUOUS
 10
51.2086389398
 20
66.0997463996
 11
51.118062764
 21
66.4417343299
  0
LINE
  5
24C
100
AcDbEntity
  8
0
100
AcDbLine
 62
7
  6
CONTINUOUS
 10
51.0273898665
 20
66.7840874516
 11
50.9367969379
 21
67.1261386352
  0
LINE
  5
24D
100
AcDbEntity
  8
0
100
AcDbLine
 62
7
  6
CONTINUOUS
 10
51.7935707816
 20
65.4805408933
 11
51.7935707816
 21
61.9959634449
  0
LINE
  5
24E
100
AcDbEntity
  8
0
100
AcDbLine
 62
7
  6
CONTINUOUS
 10
32.2342940846
 20
63.8304668171
 11
33.4440010018
 21
64.5288872623
  0
LINE
  5
24F
100
AcDbEntity
  8
0
100
AcDbLine
 62
7
  6
CONTINUOUS
 10
92.0719412703
 20
61.1334372916
 11
91.8597755967
 21
61.200519569
  0
LINE
  5
250
100
AcDbEntity
  8
0
100
AcDbLine
 62
7
  6
CONTINUOUS
 10
87.2111241651
 20
53.7267698621
 11
87.8475229178
 21
53.359353183
  0
LINE
  5
251
100
AcDbEntity
  8
0
100
AcDbLine
 62
7
  6
CONTINUOUS
 10
51.2337753663
 20
67.5966187769
 11
51.0866200217
 21
68.1458176835
  0
LINE
  5
252
100
AcDbEntity
  8
0
100
AcDbLine
 62
7
  6
CONTINUOUS
 10
51.6410022525
 20
66.0592108678
 11
51.5503039899
 21
66.4016597603
  0
LINE
  5
253
100
AcDbEntity
  8
0
100
AcDbLine
 62
7
  6
CONTINUOUS
 10
51.459727814
 20
66.7436476907
 11
51.3690549165
 21
67.0860008123
  0
LINE
  5
254
100
AcDbEntity
  8
0
100
AcDbLine
 62
7
  6
CONTINUOUS
 10
54.9272916352
 20
60.6930040768
 11
54.9260690186
 21
60.77317853
  0
LINE
  5
255
100
AcDbEntity
  8
0
100
AcDbLine
 62
7
  6
CONTINUOUS
 10
54.9748492059
 20
54.0478347855
 11
54.9748492059
 21
35.0355032906
  0
LINE
  5
256
100
AcDbEntity
  8
0
100
AcDbLine
 62
7
  6
CONTINUOUS
 10
54.9748492059
 20
61.5009967109
 11
54.9748492059
 21
68.7986075033
  0
LINE
  5
257
100
AcDbEntity
  8
0
100
AcDbLine
 62
7
  6
CONTINUOUS
 10
50.9367969379
 20
67.1261386352
 11
51.1102566579
 21
67.2794168444
  0
LINE
  5
258
100
AcDbEntity
  8
0
100
AcDbLine
 62
7
  6
CONTINUOUS
 10
51.3690549165
 20
67.0860008123
 11
51.0273898665
 21
66.7840874516
  0
LINE
  5
259
100
AcDbEntity
  8
0
100
AcDbLine
 62
7
  6
CONTINUOUS
 10
51.118062764
 20
66.4417343299
 11
51.459727814
 21
66.7436476907
  0
LINE
  5
25A
100
AcDbEntity
  8
0
100
AcDbLine
 62
7
  6
CONTINUOUS
 10
51.5503039899
 20
66.4016597603
 11
51.2086389398
 21
66.0997463996
  0
LINE
  5
25B
100
AcDbEntity
  8
0
100
AcDbLine
 62
7
  6
CONTINUOUS
 10
73.3518942549
 20
83.4476118754
 11
69.8163750688
 21
81.4063911061
  0
LINE
  5
25C
100
AcDbEntity
  8
0
100
AcDbLine
 62
7
  6
CONTINUOUS
 10
68.56791025
 20
79.9915541564
 11
73.5640201069
 21
82.8760423092
  0
LINE
  5
25D
100
AcDbEntity
  8
0
100
AcDbLine
 62
7
  6
CONTINUOUS
 10
73.5640201069
 20
81.6512886835
 11
68.3314517115
 21
78.6302819448
  0
LINE
  5
25E
100
AcDbEntity
  8
0
100
AcDbLine
 62
7
  6
CONTINUOUS
 10
50.3796692617
 20
67.7376619083
 11
51.0866200217
 21
68.1458176835
  0
LINE
  5
25F
100
AcDbEntity
  8
0
100
AcDbLine
 62
7
  6
CONTINUOUS
 10
38.1727113923
 20
60.4019761515
 11
39.3824368398
 21
61.1004072952
  0
LINE
  5
260
100
AcDbEntity
  8
0
100
AcDbLine
 62
7
  6
CONTINUOUS
 10
23.8643365753
 20
95.2696642464
 11
60.9875971455
 21
73.8370246341
  0
LINE
  5
261
100
AcDbEntity
  8
0
100
AcDbLine
 62
7
  6
CONTINUOUS
 10
61.6908814317
 20
75.0593782625
 11
24.5676208615
 21
96.4920178748
  0
LINE
  5
262
100
AcDbEntity
  8
0
100
AcDbLine
 62
7
  6
CONTINUOUS
 10
61.6908814317
 20
87.7423536675
 11
61.6908814317
 21
75.0593782625
  0
LINE
  5
263
100
AcDbEntity
  8
0
100
AcDbLine
 62
7
  6
CONTINUOUS
 10
61.6908814317
 20
36.7721150207
 11
61.6908814317
 21
22.4190314493
  0
LINE
  5
264
100
AcDbEntity
  8
0
100
AcDbLine
 62
7
  6
CONTINUOUS
 10
51.2993372024
 20
65.7572975071
 11
51.6410022525
 21
66.0592108678
  0
LINE
  5
265
100
AcDbEntity
  8
0
100
AcDbLine
 62
7
  6
CONTINUOUS
 10
51.6112269272
 20
65.6036294911
 11
51.390994509
 21
65.4112275579
  0
LINE
  5
266
100
AcDbEntity
  8
0
100
AcDbLine
 62
7
  6
CONTINUOUS
 10
72.7154955023
 20
79.7325164688
 11
69.1799763162
 21
77.6912956995
  0
LINE
  5
267
100
AcDbEntity
  8
0
100
AcDbLine
 62
7
  6
CONTINUOUS
 10
69.8163750688
 20
77.3238790204
 11
73.3518942549
 21
79.3650997898
  0
LINE
  5
268
100
AcDbEntity
  8
0
100
AcDbLine
 62
7
  6
CONTINUOUS
 10
91.1709109527
 20
87.2033452159
 11
90.322386348
 21
86.7134522313
  0
LINE
  5
269
100
AcDbEntity
  8
0
100
AcDbLine
 62
7
  6
CONTINUOUS
 10
90.4707565481
 20
60.2883684469
 11
92.7927748129
 21
58.9477809048
  0
LINE
  5
26A
100
AcDbEntity
  8
0
100
AcDbLine
 62
7
  6
CONTINUOUS
 10
91.7230377037
 20
60.099931517
 11
94.0450559685
 21
58.7593439749
  0
LINE
  5
26B
100
AcDbEntity
  8
0
100
AcDbLine
 62
7
  6
CONTINUOUS
 10
92.034415633
 20
60.0448006439
 11
94.3564338978
 21
58.7042131018
  0
LINE
  5
26C
100
AcDbEntity
  8
0
100
AcDbLine
 62
7
  6
CONTINUOUS
 10
90.322386348
 20
62.0881115856
 11
91.8597755967
 21
61.200519569
  0
LINE
  5
26D
100
AcDbEntity
  8
0
100
AcDbLine
 62
7
  6
CONTINUOUS
 10
90.322386348
 20
62.1435247066
 11
92.0719431151
 21
61.1334404873
  0
LINE
  5
26E
100
AcDbEntity
  8
0
100
AcDbLine
 62
7
  6
CONTINUOUS
 10
93.0673658749
 20
86.015927795
 11
94.2104735719
 21
86.6758973921
  0
LINE
  5
26F
100
AcDbEntity
  8
0
100
AcDbLine
 62
7
  6
CONTINUOUS
 10
44.6087142747
 20
56.686253613
 11
45.8184211918
 21
57.3846740582
  0
LINE
  5
270
100
AcDbEntity
  8
0
100
AcDbLine
 62
7
  6
CONTINUOUS
 10
56.4510779731
 20
61.4470625472
 11
55.1902850683
 21
60.7191477693
  0
LINE
  5
271
100
AcDbEntity
  8
0
100
AcDbLine
 62
7
  6
CONTINUOUS
 10
69.8163750688
 20
77.3238790204
 11
69.1799763162
 21
77.6912956995
  0
LINE
  5
272
100
AcDbEntity
  8
0
100
AcDbLine
 62
7
  6
CONTINUOUS
 10
68.3314517115
 20
78.6302819448
 11
68.3314517115
 21
79.5819850825
  0
LINE
  5
273
100
AcDbEntity
  8
0
100
AcDbLine
 62
7
  6
CONTINUOUS
 10
50.5471315824
 20
53.2577629474
 11
51.7568570299
 21
53.9561940911
  0
LINE
  5
274
100
AcDbEntity
  8
0
100
AcDbLine
 62
7
  6
CONTINUOUS
 10
72.7154955023
 20
79.7325164688
 11
73.3518942549
 21
79.3650997898
  0
LINE
  5
275
100
AcDbEntity
  8
0
100
AcDbLine
 62
7
  6
CONTINUOUS
 10
24.5676208615
 20
109.1749731928
 11
61.6908814317
 21
87.7423335805
  0
LINE
  5
276
100
AcDbEntity
  8
0
100
AcDbLine
 62
7
  6
CONTINUOUS
 10
72.5033371903
 20
82.2636603972
 11
73.5640201069
 21
81.6512886835
  0
LINE
  5
277
100
AcDbEntity
  8
0
100
AcDbLine
 62
7
  6
CONTINUOUS
 10
62.7514715661
 20
89.5791954551
 11
25.6282109959
 21
111.0118350675
  0
LINE
  5
278
100
AcDbEntity
  8
0
100
AcDbLine
 62
7
  6
CONTINUOUS
 10
73.5640201069
 20
82.8760423092
 11
73.5640201069
 21
81.6512886835
  0
LINE
  5
279
100
AcDbEntity
  8
0
100
AcDbLine
 62
7
  6
CONTINUOUS
 10
84.3120037317
 20
51.3181324136
 11
84.3120037317
 21
47.235620328
  0
LINE
  5
27A
100
AcDbEntity
  8
0
100
AcDbLine
 62
7
  6
CONTINUOUS
 10
84.9130366942
 20
47.3376613758
 11
84.9130366942
 21
53.1067403445
  0
LINE
  5
27B
100
AcDbEntity
  8
0
100
AcDbLine
 62
7
  6
CONTINUOUS
 10
92.8173671655
 20
85.9912021332
 11
90.9443704943
 21
87.0725528021
  0
LINE
  5
27C
100
AcDbEntity
  8
0
100
AcDbLine
 62
7
  6
CONTINUOUS
 10
85.97369245
 20
53.9921454933
 11
85.97369245
 21
47.9500276066
  0
LINE
  5
27D
100
AcDbEntity
  8
0
100
AcDbLine
 62
7
  6
CONTINUOUS
 10
87.2111241651
 20
53.7267698621
 11
87.2111241651
 21
49.6442577764
  0
LINE
  5
27E
100
AcDbEntity
  8
0
100
AcDbLine
 62
7
  6
CONTINUOUS
 10
87.8475229178
 20
49.2768410973
 11
87.8475229178
 21
53.359353183
  0
LINE
  5
27F
100
AcDbEntity
  8
0
100
AcDbLine
 62
7
  6
CONTINUOUS
 10
85.1494852131
 20
53.5162920637
 11
85.97369245
 21
53.9921454933
  0
LINE
  5
280
100
AcDbEntity
  8
0
100
AcDbLine
 62
7
  6
CONTINUOUS
 10
56.0167683587
 20
34.4127500126
 11
60.9962686637
 21
37.1872838723
  0
LINE
  5
281
100
AcDbEntity
  8
0
100
AcDbLine
 62
7
  6
CONTINUOUS
 10
91.1709109527
 20
87.2033452159
 11
92.8173671655
 21
85.9912021332
  0
LINE
  5
282
100
AcDbEntity
  8
0
100
AcDbLine
 62
7
  6
CONTINUOUS
 10
90.322386348
 20
58.2858594701
 11
90.322386348
 21
86.7134522313
  0
LINE
  5
283
100
AcDbEntity
  8
0
100
AcDbLine
 62
7
  6
CONTINUOUS
 10
92.3825443413
 20
59.8438129874
 11
92.3825443414
 21
60.4469099206
  0
LINE
  5
284
100
AcDbEntity
  8
0
100
AcDbLine
 62
7
  6
CONTINUOUS
 10
85.97369245
 20
47.9500276066
 11
84.9130366942
 21
47.3376613758
  0
LINE
  5
285
100
AcDbEntity
  8
0
100
AcDbLine
 62
7
  6
CONTINUOUS
 10
94.5634694249
 20
58.246597089
 11
94.5634694249
 21
41.1271782485
  0
LINE
  5
286
100
AcDbEntity
  8
0
100
AcDbLine
 62
7
  6
CONTINUOUS
 10
94.5640918025
 20
87.2998234777
 11
94.5640918025
 21
92.0514906205
  0
LINE
  5
287
100
AcDbEntity
  8
0
100
AcDbLine
 62
7
  6
CONTINUOUS
 10
94.0395654052
 20
58.7325127093
 11
94.0450559685
 21
58.7593439749
  0
LINE
  5
288
100
AcDbEntity
  8
0
100
AcDbLine
 62
7
  6
CONTINUOUS
 10
94.5640918025
 20
92.0514906205
 11
92.362773002
 21
105.1963563826
  0
LINE
  5
289
100
AcDbEntity
  8
0
100
AcDbLine
 62
7
  6
CONTINUOUS
 10
53.6091759901
 20
127.1615578944
 11
90.7324365603
 21
105.7289182821
  0
LINE
  5
28A
100
AcDbEntity
  8
0
100
AcDbLine
 62
7
  6
CONTINUOUS
 10
54.7920741948
 20
127.2539935489
 11
91.915334765
 21
105.8213539366
  0
LINE
  5
28B
100
AcDbEntity
  8
0
100
AcDbLine
 62
7
  6
CONTINUOUS
 10
92.3496504258
 20
38.9077276367
 11
92.5949353793
 21
39.1630220551
  0
LINE
  5
28C
100
AcDbEntity
  8
0
100
AcDbLine
 62
7
  6
CONTINUOUS
 10
92.5949353793
 20
39.1630220551
 11
93.8380280089
 21
39.8811828757
  0
LINE
  5
28D
100
AcDbEntity
  8
0
100
AcDbLine
 62
7
  6
CONTINUOUS
 10
62.7483845725
 20
21.8084144224
 11
92.3496504258
 21
38.9077276367
  0
ARC
  5
28E
100
AcDbEntity
  8
0
100
AcDbCircle
 62
7
  6
CONTINUOUS
 10
18.0462168322
 20
62.9581891422
 40
10.4048167914
100
AcDbArc
 50
30.5357173135
 51
30.8143827986
  0
ARC
  5
28F
100
AcDbEntity
  8
0
100
AcDbCircle
 62
7
  6
CONTINUOUS
 10
30.4206370235
 20
55.8139759389
 40
10.40481679
100
AcDbArc
 50
30.5357173135
 51
30.8143827986
  0
ARC
  5
290
100
AcDbEntity
  8
0
100
AcDbCircle
 62
7
  6
CONTINUOUS
 10
42.8036658796
 20
48.6754402709
 40
10.3945174338
100
AcDbArc
 50
30.5328715071
 51
34.2942266689
  0
ARC
  5
291
100
AcDbEntity
  8
0
100
AcDbCircle
 62
7
  6
CONTINUOUS
 10
94.1018702786
 20
87.288863241
 40
0.4623514508
100
AcDbArc
 50
359.9953459192
 51
1.35834793
  0
ARC
  5
292
100
AcDbEntity
  8
0
100
AcDbCircle
 62
7
  6
CONTINUOUS
 10
51.5341799686
 20
65.4947050361
 40
0.2597772446
100
AcDbArc
 50
356.8744443154
 51
359.9755430015
  0
SPLINE
  5
293
100
AcDbEntity
  8
0
100
AcDbSpline
 62
7
  6
CONTINUOUS
 70
0
 71
3
 72
11
 73
7
 74
0
 42
0.0000001
 43
0.0000001
 44
0.0000000001
 40
0.0
 40
0.0
 40
0.0
 40
0.0
 40
0.2177825102
 40
0.4509091639
 40
0.7102957096
 40
1.0
 40
1.0
 40
1.0
 40
1.0
 10
68.5664025148
 20
77.2000701125
 30
0.0
 10
68.4839359115
 20
77.2476811605
 30
0.0
 10
68.3296440728
 20
77.3773927938
 30
0.0
 10
68.165382342
 20
77.6459676567
 30
0.0
 10
68.0678205895
 20
77.9769527051
 30
0.0
 10
68.0486154758
 20
78.2178537458
 30
0.0
 10
68.0486154758
 20
78.3445246786
 30
0.0
  0
SPLINE
  5
294
100
AcDbEntity
  8
0
100
AcDbSpline
 62
7
  6
CONTINUOUS
 70
0
 71
3
 72
11
 73
7
 74
0
 42
0.0000001
 43
0.0000001
 44
0.0000000001
 40
0.0
 40
0.0
 40
0.0
 40
0.0
 40
0.2879142373
 40
0.5466481709
 40
0.7805110756
 40
1.0
 40
1.0
 40
1.0
 40
1.0
 10
53.6091759901
 20
127.1615578944
 30
0.0
 10
53.7135076404
 20
127.2180913411
 30
0.0
 10
53.9207842138
 20
127.3100430976
 30
0.0
 10
54.2379218347
 20
127.3786038165
 30
0.0
 10
54.5349242692
 20
127.365573581
 30
0.0
 10
54.7137130918
 20
127.2991929377
 30
0.0
 10
54.7920685347
 20
127.2539837435
 30
0.0
  0
SPLINE
  5
295
100
AcDbEntity
  8
0
100
AcDbSpline
 62
7
  6
CONTINUOUS
 70
0
 71
3
 72
13
 73
9
 74
0
 42
0.0000001
 43
0.0000001
 44
0.0000000001
 40
0.0
 40
0.0
 40
0.0
 40
0.0
 40
0.1141768771
 40
0.2375714635
 40
0.5000018953
 40
0.7624301048
 40
0.8858262307
 40
1.0
 40
1.0
 40
1.0
 40
1.0
 10
24.5676208615
 20
109.1749932798
 30
0.0
 10
24.5676208615
 20
109.2587608472
 30
0.0
 10
24.5830598706
 20
109.4332234765
 30
0.0
 10
24.6662634483
 20
109.7913998203
 30
0.0
 10
24.8601271412
 20
110.2306225553
 30
0.0
 10
25.1435759797
 20
110.6181228976
 30
0.0
 10
25.4121535088
 20
110.8692732564
 30
0.0
 10
25.5555208596
 20
110.9698789204
 30
0.0
 10
25.6280687042
 20
111.0117529412
 30
0.0
  0
SPLINE
  5
296
100
AcDbEntity
  8
0
100
AcDbSpline
 62
7
  6
CONTINUOUS
 70
0
 71
3
 72
11
 73
7
 74
0
 42
0.0000001
 43
0.0000001
 44
0.0000000001
 40
0.0
 40
0.0
 40
0.0
 40
0.0
 40
0.2375729055
 40
0.5003252152
 40
0.7629007609
 40
1.0
 40
1.0
 40
1.0
 40
1.0
 10
23.8643365753
 20
95.2696642464
 30
0.0
 10
23.9642968832
 20
95.3279746548
 30
0.0
 10
24.1533095441
 20
95.4879856525
 30
0.0
 10
24.37378269
 20
95.790525566
 30
0.0
 10
24.5244614431
 20
96.1329598272
 30
0.0
 10
24.5676208615
 20
96.3765240731
 30
0.0
 10
24.5676208615
 20
96.4920178748
 30
0.0
  0
SPLINE
  5
297
100
AcDbEntity
  8
0
100
AcDbSpline
 62
7
  6
CONTINUOUS
 70
0
 71
3
 72
11
 73
7
 74
0
 42
0.0000001
 43
0.0000001
 44
0.0000000001
 40
0.0
 40
0.0
 40
0.0
 40
0.0
 40
0.2642527887
 40
0.520043149
 40
0.7657299387
 40
1.0
 40
1.0
 40
1.0
 40
1.0
 10
17.8515886357
 20
90.2312471156
 30
0.0
 10
18.313718074
 20
90.7484685729
 30
0.0
 10
19.257527754
 20
91.7363506008
 30
0.0
 10
20.747464128
 20
93.0879689139
 30
0.0
 10
22.2749334374
 20
94.2727653128
 30
0.0
 10
23.333196869
 20
94.9598315371
 30
0.0
 10
23.8643365753
 20
95.2696642464
 30
0.0
  0
SPLINE
  5
298
100
AcDbEntity
  8
0
100
AcDbSpline
 62
7
  6
CONTINUOUS
 70
0
 71
3
 72
11
 73
7
 74
0
 42
0.0000001
 43
0.0000001
 44
0.0000000001
 40
0.0
 40
0.0
 40
0.0
 40
0.0
 40
0.2177825102
 40
0.4509091639
 40
0.7102957096
 40
1.0
 40
1.0
 40
1.0
 40
1.0
 10
84.8297907708
 20
46.0911657619
 30
0.0
 10
84.7473241674
 20
46.1387768099
 30
0.0
 10
84.5930323287
 20
46.2684884432
 30
0.0
 10
84.4287705979
 20
46.5370633061
 30
0.0
 10
84.3312088454
 20
46.8680483545
 30
0.0
 10
84.3120037317
 20
47.1089493952
 30
0.0
 10
84.3120037317
 20
47.235620328
 30
0.0
  0
SPLINE
  5
299
100
AcDbEntity
  8
0
100
AcDbSpline
 62
7
  6
CONTINUOUS
 70
0
 71
3
 72
11
 73
7
 74
0
 42
0.0000001
 43
0.0000001
 44
0.0000000001
 40
0.0
 40
0.0
 40
0.0
 40
0.0
 40
0.2176899422
 40
0.4508856506
 40
0.7106204681
 40
1.0
 40
1.0
 40
1.0
 40
1.0
 10
56.2349839971
 20
42.7772917331
 30
0.0
 10
56.201997955
 20
42.7963025204
 30
0.0
 10
56.1402759607
 20
42.8481725539
 30
0.0
 10
56.0745013278
 20
42.955634546
 30
0.0
 10
56.0356300099
 20
43.0880864488
 30
0.0
 10
56.0278502431
 20
43.1844306052
 30
0.0
 10
56.0278502431
 20
43.2350406718
 30
0.0
  0
SPLINE
  5
29A
100
AcDbEntity
  8
0
100
AcDbSpline
 62
7
  6
CONTINUOUS
 70
0
 71
3
 72
11
 73
7
 74
0
 42
0.0000001
 43
0.0000001
 44
0.0000000001
 40
0.0
 40
0.0
 40
0.0
 40
0.0
 40
0.2177651606
 40
0.4508956102
 40
0.7103690052
 40
1.0
 40
1.0
 40
1.0
 40
1.0
 10
85.0798013663
 20
67.4266682207
 30
0.0
 10
85.0138486908
 20
67.4647800952
 30
0.0
 10
84.8903486602
 20
67.5684476514
 30
0.0
 10
84.7589569945
 20
67.7833759662
 30
0.0
 10
84.6809554902
 20
68.0481716218
 30
0.0
 10
84.6655556503
 20
68.2408935132
 30
0.0
 10
84.6655556503
 20
68.3422042834
 30
0.0
  0
SPLINE
  5
29B
100
AcDbEntity
  8
0
100
AcDbSpline
 62
7
  6
CONTINUOUS
 70
0
 71
3
 72
17
 73
13
 74
0
 42
0.0000001
 43
0.0000001
 44
0.0000000001
 40
0.0
 40
0.0
 40
0.0
 40
0.0
 40
0.0428592926
 40
0.087485474
 40
0.1353198781
 40
0.1872819044
 40
0.3045421965
 40
0.4382074305
 40
0.582548911
 40
0.7297129633
 40
0.8713059682
 40
1.0
 40
1.0
 40
1.0
 40
1.0
 10
29.2548427895
 20
48.1836223885
 30
0.0
 10
29.3287993735
 20
48.2263284387
 30
0.0
 10
29.4918498917
 20
48.2940327765
 30
0.0
 10
29.7609502918
 20
48.333531488
 30
0.0
 10
30.0499558105
 20
48.312238258
 30
0.0
 10
30.4698740404
 20
48.2005538392
 30
0.0
 10
31.0066743503
 20
47.9070281675
 30
0.0
 10
31.5997533986
 20
47.3817952418
 30
0.0
 10
32.1240335967
 20
46.7107659997
 30
0.0
 10
32.5366356548
 20
45.9481335981
 30
0.0
 10
32.8044268388
 20
45.1564539899
 30
0.0
 10
32.8761601319
 20
44.6172642546
 30
0.0
 10
32.8761601319
 20
44.3608288892
 30
0.0
  0
SPLINE
  5
29C
100
AcDbEntity
  8
0
100
AcDbSpline
 62
7
  6
CONTINUOUS
 70
0
 71
3
 72
17
 73
13
 74
0
 42
0.0000001
 43
0.0000001
 44
0.0000000001
 40
0.0
 40
0.0
 40
0.0
 40
0.0
 40
0.0428592926
 40
0.087485474
 40
0.1353198781
 40
0.1872819044
 40
0.3045421965
 40
0.4382074305
 40
0.582548911
 40
0.7297129633
 40
0.8713059682
 40
1.0
 40
1.0
 40
1.0
 40
1.0
 10
41.6292629796
 20
41.0394091844
 30
0.0
 10
41.7032195635
 20
41.0821152346
 30
0.0
 10
41.8662700818
 20
41.1498195724
 30
0.0
 10
42.1353704818
 20
41.1893182839
 30
0.0
 10
42.4243760006
 20
41.1680250539
 30
0.0
 10
42.8442942305
 20
41.0563406351
 30
0.0
 10
43.3810945403
 20
40.7628149634
 30
0.0
 10
43.9741735887
 20
40.2375820377
 30
0.0
 10
44.4984537868
 20
39.5665527956
 30
0.0
 10
44.9110558449
 20
38.803920394
 30
0.0
 10
45.1788470288
 20
38.0122407858
 30
0.0
 10
45.250580322
 20
37.4730510505
 30
0.0
 10
45.250580322
 20
37.216615685
 30
0.0
  0
SPLINE
  5
29D
100
AcDbEntity
  8
0
100
AcDbSpline
 62
7
  6
CONTINUOUS
 70
0
 71
3
 72
13
 73
9
 74
0
 42
0.0000001
 43
0.0000001
 44
0.0000000001
 40
0.0
 40
0.0
 40
0.0
 40
0.0
 40
0.114176888
 40
0.2375715548
 40
0.5000017735
 40
0.762431024
 40
0.8858245003
 40
1.0
 40
1.0
 40
1.0
 40
1.0
 10
12.1959825507
 20
87.3335793712
 30
0.0
 10
12.1959825507
 20
87.4173452143
 30
0.0
 10
12.2114213043
 20
87.5918042673
 30
0.0
 10
12.2946227892
 20
87.9499733502
 30
0.0
 10
12.48848506
 20
88.3891858569
 30
0.0
 10
12.7719207412
 20
88.7766824904
 30
0.0
 10
13.0405009763
 20
89.0278205867
 30
0.0
 10
13.1838661172
 20
89.1284192958
 30
0.0
 10
13.2564086915
 20
89.1703015206
 30
0.0
  0
SPLINE
  5
29E
100
AcDbEntity
  8
0
100
AcDbSpline
 62
7
  6
CONTINUOUS
 70
0
 71
3
 72
17
 73
13
 74
0
 42
0.0000001
 43
0.0000001
 44
0.0000000001
 40
0.0
 40
0.0
 40
0.0
 40
0.0
 40
0.0428592926
 40
0.087485474
 40
0.1353198781
 40
0.1872819044
 40
0.3045421965
 40
0.4382074305
 40
0.582548911
 40
0.7297129633
 40
0.8713059682
 40
1.0
 40
1.0
 40
1.0
 40
1.0
 10
54.0036831697
 20
33.8951959803
 30
0.0
 10
54.0776397536
 20
33.9379020305
 30
0.0
 10
54.2406902719
 20
34.0056063683
 30
0.0
 10
54.5097906719
 20
34.0451050798
 30
0.0
 10
54.7987961906
 20
34.0238118498
 30
0.0
 10
55.2187144206
 20
33.912127431
 30
0.0
 10
55.7555147304
 20
33.6186017593
 30
0.0
 10
56.3485937787
 20
33.0933688336
 30
0.0
 10
56.8728739768
 20
32.4223395915
 30
0.0
 10
57.2854760349
 20
31.6597071899
 30
0.0
 10
57.5532672189
 20
30.8680275817
 30
0.0
 10
57.6250005121
 20
30.3288378463
 30
0.0
 10
57.6250005121
 20
30.0724024809
 30
0.0
  0
SPLINE
  5
29F
100
AcDbEntity
  8
0
100
AcDbSpline
 62
7
  6
CONTINUOUS
 70
0
 71
3
 72
11
 73
7
 74
0
 42
0.0000001
 43
0.0000001
 44
0.0000000001
 40
0.0
 40
0.0
 40
0.0
 40
0.0
 40
0.2043730444
 40
0.4256268925
 40
0.684016671
 40
1.0
 40
1.0
 40
1.0
 40
1.0
 10
25.0512160009
 20
67.470372507
 30
0.0
 10
25.0974565056
 20
67.4436865161
 30
0.0
 10
25.203579414
 20
67.4035930439
 30
0.0
 10
25.3846386474
 20
67.3959306327
 30
0.0
 10
25.5889398193
 20
67.4436156239
 30
0.0
 10
25.7258180776
 20
67.5070427179
 30
0.0
 10
25.7984319831
 20
67.5462958215
 30
0.0
  0
SPLINE
  5
2A0
100
AcDbEntity
  8
0
100
AcDbSpline
 62
7
  6
CONTINUOUS
 70
0
 71
3
 72
10
 73
6
 74
0
 42
0.0000001
 43
0.0000001
 44
0.0000000001
 40
0.0
 40
0.0
 40
0.0
 40
0.0
 40
0.2503082037
 40
0.5006325288
 40
1.0
 40
1.0
 40
1.0
 40
1.0
 10
21.2279975994
 20
69.6775285305
 30
0.0
 10
21.090607843
 20
69.7569239895
 30
0.0
 10
20.8239108214
 20
69.9305522645
 30
0.0
 10
20.3329441862
 20
70.3321243171
 30
0.0
 10
20.0207150935
 20
70.7020144234
 30
0.0
 10
19.8598738946
 20
70.9746800212
 30
0.0
  0
SPLINE
  5
2A1
100
AcDbEntity
  8
0
100
AcDbSpline
 62
7
  6
CONTINUOUS
 70
0
 71
3
 72
11
 73
7
 74
0
 42
0.0000001
 43
0.0000001
 44
0.0000000001
 40
0.0
 40
0.0
 40
0.0
 40
0.0
 40
0.2043730444
 40
0.4256268925
 40
0.684016671
 40
1.0
 40
1.0
 40
1.0
 40
1.0
 10
37.425636191
 20
60.3261593029
 30
0.0
 10
37.4718766956
 20
60.299473312
 30
0.0
 10
37.5779996041
 20
60.2593798398
 30
0.0
 10
37.7590588374
 20
60.2517174286
 30
0.0
 10
37.9633600093
 20
60.2994024198
 30
0.0
 10
38.1002382677
 20
60.3628295138
 30
0.0
 10
38.1728521732
 20
60.4020826174
 30
0.0
  0
SPLINE
  5
2A2
100
AcDbEntity
  8
0
100
AcDbSpline
 62
7
  6
CONTINUOUS
 70
0
 71
3
 72
10
 73
6
 74
0
 42
0.0000001
 43
0.0000001
 44
0.0000000001
 40
0.0
 40
0.0
 40
0.0
 40
0.0
 40
0.2503082037
 40
0.5006325288
 40
1.0
 40
1.0
 40
1.0
 40
1.0
 10
33.6024177895
 20
62.5333153264
 30
0.0
 10
33.4650280331
 20
62.6127107854
 30
0.0
 10
33.1983310114
 20
62.7863390604
 30
0.0
 10
32.7073643762
 20
63.187911113
 30
0.0
 10
32.3951352836
 20
63.5578012193
 30
0.0
 10
32.2342940846
 20
63.8304668171
 30
0.0
  0
SPLINE
  5
2A3
100
AcDbEntity
  8
0
100
AcDbSpline
 62
7
  6
CONTINUOUS
 70
0
 71
3
 72
11
 73
7
 74
0
 42
0.0000001
 43
0.0000001
 44
0.0000000001
 40
0.0
 40
0.0
 40
0.0
 40
0.0
 40
0.2043730444
 40
0.4256268925
 40
0.684016671
 40
1.0
 40
1.0
 40
1.0
 40
1.0
 10
49.8000563811
 20
53.1819460988
 30
0.0
 10
49.8462968857
 20
53.1552601079
 30
0.0
 10
49.9524197941
 20
53.1151666357
 30
0.0
 10
50.1334790275
 20
53.1075042245
 30
0.0
 10
50.3377801994
 20
53.1551892157
 30
0.0
 10
50.4746584577
 20
53.2186163097
 30
0.0
 10
50.5472723633
 20
53.2578694133
 30
0.0
  0
SPLINE
  5
2A4
100
AcDbEntity
  8
0
100
AcDbSpline
 62
7
  6
CONTINUOUS
 70
0
 71
3
 72
10
 73
6
 74
0
 42
0.0000001
 43
0.0000001
 44
0.0000000001
 40
0.0
 40
0.0
 40
0.0
 40
0.0
 40
0.2503082037
 40
0.5006325288
 40
1.0
 40
1.0
 40
1.0
 40
1.0
 10
45.9768379795
 20
55.3891021223
 30
0.0
 10
45.8394482232
 20
55.4684975813
 30
0.0
 10
45.5727512015
 20
55.6421258563
 30
0.0
 10
45.0817845663
 20
56.0436979089
 30
0.0
 10
44.7695554737
 20
56.4135880151
 30
0.0
 10
44.6087142747
 20
56.686253613
 30
0.0
  0
SPLINE
  5
2A5
100
AcDbEntity
  8
0
100
AcDbSpline
 62
7
  6
CONTINUOUS
 70
0
 71
3
 72
17
 73
13
 74
0
 42
0.0000001
 43
0.0000001
 44
0.0000000001
 40
0.0
 40
0.0
 40
0.0
 40
0.0
 40
0.0428592926
 40
0.087485474
 40
0.1353198781
 40
0.1872819044
 40
0.3045421965
 40
0.4382074305
 40
0.582548911
 40
0.7297129633
 40
0.8713059682
 40
1.0
 40
1.0
 40
1.0
 40
1.0
 10
29.2548427895
 20
102.8892843362
 30
0.0
 10
29.3287993735
 20
102.9319903864
 30
0.0
 10
29.4918498917
 20
102.9996947242
 30
0.0
 10
29.7609502918
 20
103.0391934357
 30
0.0
 10
30.0499558105
 20
103.0179002057
 30
0.0
 10
30.4698740404
 20
102.9062157869
 30
0.0
 10
31.0066743503
 20
102.6126901152
 30
0.0
 10
31.5997533986
 20
102.0874571895
 30
0.0
 10
32.1240335967
 20
101.4164279474
 30
0.0
 10
32.5366356548
 20
100.6537955458
 30
0.0
 10
32.8044268388
 20
99.8621159375
 30
0.0
 10
32.8761601319
 20
99.3229262022
 30
0.0
 10
32.8761601319
 20
99.0664908368
 30
0.0
  0
SPLINE
  5
2A6
100
AcDbEntity
  8
0
100
AcDbSpline
 62
7
  6
CONTINUOUS
 70
0
 71
3
 72
17
 73
13
 74
0
 42
0.0000001
 43
0.0000001
 44
0.0000000001
 40
0.0
 40
0.0
 40
0.0
 40
0.0
 40
0.0428592926
 40
0.087485474
 40
0.1353198781
 40
0.1872819044
 40
0.3045421965
 40
0.4382074305
 40
0.582548911
 40
0.7297129633
 40
0.8713059682
 40
1.0
 40
1.0
 40
1.0
 40
1.0
 10
41.6292629796
 20
95.745071132
 30
0.0
 10
41.7032195635
 20
95.7877771823
 30
0.0
 10
41.8662700818
 20
95.8554815201
 30
0.0
 10
42.1353704818
 20
95.8949802316
 30
0.0
 10
42.4243760006
 20
95.8736870016
 30
0.0
 10
42.8442942305
 20
95.7620025828
 30
0.0
 10
43.3810945403
 20
95.4684769111
 30
0.0
 10
43.9741735887
 20
94.9432439854
 30
0.0
 10
44.4984537868
 20
94.2722147433
 30
0.0
 10
44.9110558449
 20
93.5095823417
 30
0.0
 10
45.1788470288
 20
92.7179027334
 30
0.0
 10
45.250580322
 20
92.1787129981
 30
0.0
 10
45.250580322
 20
91.9222776327
 30
0.0
  0
SPLINE
  5
2A7
100
AcDbEntity
  8
0
100
AcDbSpline
 62
7
  6
CONTINUOUS
 70
0
 71
3
 72
17
 73
13
 74
0
 42
0.0000001
 43
0.0000001
 44
0.0000000001
 40
0.0
 40
0.0
 40
0.0
 40
0.0
 40
0.0428592926
 40
0.087485474
 40
0.1353198781
 40
0.1872819044
 40
0.3045421965
 40
0.4382074305
 40
0.582548911
 40
0.7297129633
 40
0.8713059682
 40
1.0
 40
1.0
 40
1.0
 40
1.0
 10
54.0036831697
 20
88.6008579279
 30
0.0
 10
54.0776397536
 20
88.6435639782
 30
0.0
 10
54.2406902719
 20
88.711268316
 30
0.0
 10
54.5097906719
 20
88.7507670275
 30
0.0
 10
54.7987961906
 20
88.7294737975
 30
0.0
 10
55.2187144206
 20
88.6177893787
 30
0.0
 10
55.7555147304
 20
88.324263707
 30
0.0
 10
56.3485937787
 20
87.7990307813
 30
0.0
 10
56.8728739768
 20
87.1280015392
 30
0.0
 10
57.2854760349
 20
86.3653691376
 30
0.0
 10
57.5532672189
 20
85.5736895293
 30
0.0
 10
57.6250005121
 20
85.034499794
 30
0.0
 10
57.6250005121
 20
84.7780644286
 30
0.0
  0
SPLINE
  5
2A8
100
AcDbEntity
  8
0
100
AcDbSpline
 62
7
  6
CONTINUOUS
 70
0
 71
3
 72
17
 73
13
 74
0
 42
0.0000001
 43
0.0000001
 44
0.0000000001
 40
0.0
 40
0.0
 40
0.0
 40
0.0
 40
0.0428519647
 40
0.0874733204
 40
0.1353003186
 40
0.1872592077
 40
0.3045149619
 40
0.4381827144
 40
0.582529717
 40
0.7296959612
 40
0.8713033871
 40
1.0
 40
1.0
 40
1.0
 40
1.0
 10
54.5981032641
 20
119.4346734
 30
0.0
 10
54.5981261356
 20
119.3777516333
 30
0.0
 10
54.5828825172
 20
119.2610615215
 30
0.0
 10
54.5159683645
 20
119.0925732378
 30
0.0
 10
54.4073372327
 20
118.9328530164
 30
0.0
 10
54.2028908551
 20
118.7276808718
 30
0.0
 10
53.854479867
 20
118.5156654034
 30
0.0
 10
53.3535415223
 20
118.3484013216
 30
0.0
 10
52.791366506
 20
118.2694600717
 30
0.0
 10
52.2135258402
 20
118.2854932535
 30
0.0
 10
51.667197656
 20
118.3948283541
 30
0.0
 10
51.3319811773
 20
118.533141749
 30
0.0
 10
51.1839313612
 20
118.6186164165
 30
0.0
  0
SPLINE
  5
2A9
100
AcDbEntity
  8
0
100
AcDbSpline
 62
7
  6
CONTINUOUS
 70
0
 71
3
 72
17
 73
13
 74
0
 42
0.0000001
 43
0.0000001
 44
0.0000000001
 40
0.0
 40
0.0
 40
0.0
 40
0.0
 40
0.0428519647
 40
0.0874733204
 40
0.1353003186
 40
0.1872592077
 40
0.3045149619
 40
0.4381827144
 40
0.582529717
 40
0.7296959612
 40
0.8713033871
 40
1.0
 40
1.0
 40
1.0
 40
1.0
 10
66.9725234542
 20
112.2904601959
 30
0.0
 10
66.9725463257
 20
112.2335384292
 30
0.0
 10
66.9573027073
 20
112.1168483174
 30
0.0
 10
66.8903885546
 20
111.9483600337
 30
0.0
 10
66.7817574228
 20
111.7886398122
 30
0.0
 10
66.5773110452
 20
111.5834676677
 30
0.0
 10
66.2289000571
 20
111.3714521992
 30
0.0
 10
65.7279617124
 20
111.2041881175
 30
0.0
 10
65.1657866961
 20
111.1252468676
 30
0.0
 10
64.5879460303
 20
111.1412800494
 30
0.0
 10
64.0416178461
 20
111.25061515
 30
0.0
 10
63.7064013674
 20
111.3889285449
 30
0.0
 10
63.5583515512
 20
111.4744032124
 30
0.0
  0
SPLINE
  5
2AA
100
AcDbEntity
  8
0
100
AcDbSpline
 62
7
  6
CONTINUOUS
 70
0
 71
3
 72
17
 73
13
 74
0
 42
0.0000001
 43
0.0000001
 44
0.0000000001
 40
0.0
 40
0.0
 40
0.0
 40
0.0
 40
0.0428519647
 40
0.0874733204
 40
0.1353003186
 40
0.1872592077
 40
0.3045149619
 40
0.4381827144
 40
0.582529717
 40
0.7296959612
 40
0.8713033871
 40
1.0
 40
1.0
 40
1.0
 40
1.0
 10
79.3469436443
 20
105.1462469918
 30
0.0
 10
79.3469665157
 20
105.0893252251
 30
0.0
 10
79.3317228973
 20
104.9726351133
 30
0.0
 10
79.2648087446
 20
104.8041468296
 30
0.0
 10
79.1561776129
 20
104.6444266081
 30
0.0
 10
78.9517312352
 20
104.4392544636
 30
0.0
 10
78.6033202471
 20
104.2272389951
 30
0.0
 10
78.1023819024
 20
104.0599749134
 30
0.0
 10
77.5402068861
 20
103.9810336635
 30
0.0
 10
76.9623662204
 20
103.9970668453
 30
0.0
 10
76.4160380362
 20
104.1064019459
 30
0.0
 10
76.0808215574
 20
104.2447153408
 30
0.0
 10
75.9327717413
 20
104.3301900083
 30
0.0
  0
SPLINE
  5
2AB
100
AcDbEntity
  8
0
100
AcDbSpline
 62
7
  6
CONTINUOUS
 70
0
 71
3
 72
11
 73
7
 74
0
 42
0.0000001
 43
0.0000001
 44
0.0000000001
 40
0.0
 40
0.0
 40
0.0
 40
0.0
 40
0.2177689497
 40
0.4509142384
 40
0.7102541163
 40
1.0
 40
1.0
 40
1.0
 40
1.0
 10
52.414774977
 20
60.6229054504
 30
0.0
 10
52.3158418076
 20
60.6800217097
 30
0.0
 10
52.1307584936
 20
60.8356764929
 30
0.0
 10
51.9336624048
 20
61.157847728
 30
0.0
 10
51.816588319
 20
61.5549507101
 30
0.0
 10
51.7935707816
 20
61.8439691719
 30
0.0
 10
51.7935707816
 20
61.9959634449
 30
0.0
  0
SPLINE
  5
2AC
100
AcDbEntity
  8
0
100
AcDbSpline
 62
7
  6
CONTINUOUS
 70
0
 71
3
 72
12
 73
8
 74
0
 42
0.0000001
 43
0.0000001
 44
0.0000000001
 40
0.0
 40
0.0
 40
0.0
 40
0.0
 40
0.1081649225
 40
0.2183553039
 40
0.4513581151
 40
0.7104220363
 40
1.0
 40
1.0
 40
1.0
 40
1.0
 10
13.2313183662
 20
76.2246539417
 30
0.0
 10
13.1493556466
 20
76.2719727249
 30
0.0
 10
12.9917860758
 20
76.3819566536
 30
0.0
 10
12.7091213581
 20
76.6600068246
 30
0.0
 10
12.4291606274
 20
77.1164129024
 30
0.0
 10
12.2343844715
 20
77.7779577064
 30
0.0
 10
12.1959825507
 20
78.2597196133
 30
0.0
 10
12.1959825507
 20
78.5130919836
 30
0.0
  0
SPLINE
  5
2AD
100
AcDbEntity
  8
0
100
AcDbSpline
 62
7
  6
CONTINUOUS
 70
0
 71
3
 72
11
 73
7
 74
0
 42
0.0000001
 43
0.0000001
 44
0.0000000001
 40
0.0
 40
0.0
 40
0.0
 40
0.0
 40
0.2187110597
 40
0.4522642901
 40
0.711471125
 40
1.0
 40
1.0
 40
1.0
 40
1.0
 10
55.2854904528
 20
34.3490419612
 30
0.0
 10
55.3338297098
 20
34.3211281141
 30
0.0
 10
55.4444479952
 20
34.2803359648
 30
0.0
 10
55.6283469352
 20
34.2737800533
 30
0.0
 10
55.8244646518
 20
34.3184365755
 30
0.0
 10
55.9524409968
 20
34.3769073712
 30
0.0
 10
56.0167683587
 20
34.4127500126
 30
0.0
  0
SPLINE
  5
2AE
100
AcDbEntity
  8
0
100
AcDbSpline
 62
7
  6
CONTINUOUS
 70
0
 71
3
 72
11
 73
7
 74
0
 42
0.0000001
 43
0.0000001
 44
0.0000000001
 40
0.0
 40
0.0
 40
0.0
 40
0.0
 40
0.2177488625
 40
0.4508835943
 40
0.7104460086
 40
1.0
 40
1.0
 40
1.0
 40
1.0
 10
18.1622298816
 20
55.7816815696
 30
0.0
 10
18.1127717403
 20
55.8102415574
 30
0.0
 10
18.0201382835
 20
55.8879368775
 30
0.0
 10
17.9216046519
 20
56.0491230941
 30
0.0
 10
17.8631777413
 20
56.2476926612
 30
0.0
 10
17.8515886357
 20
56.3921975794
 30
0.0
 10
17.8515886357
 20
56.4681429029
 30
0.0
  0
SPLINE
  5
2AF
100
AcDbEntity
  8
0
100
AcDbSpline
 62
7
  6
CONTINUOUS
 70
0
 71
3
 72
11
 73
7
 74
0
 42
0.0000001
 43
0.0000001
 44
0.0000000001
 40
0.0
 40
0.0
 40
0.0
 40
0.0
 40
0.2177643947
 40
0.4509078027
 40
0.7105571868
 40
1.0
 40
1.0
 40
1.0
 40
1.0
 10
62.0006914357
 20
21.7344464523
 30
0.0
 10
62.0500172165
 20
21.7059740211
 30
0.0
 10
62.1632834311
 20
21.664703556
 30
0.0
 10
62.3516533516
 20
21.6598222954
 30
0.0
 10
62.5521875878
 20
21.7087761984
 30
0.0
 10
62.6827004934
 20
21.7707830204
 30
0.0
 10
62.7483845725
 20
21.8084144224
 30
0.0
  0
SPLINE
  5
2B0
100
AcDbEntity
  8
0
100
AcDbSpline
 62
7
  6
CONTINUOUS
 70
0
 71
3
 72
11
 73
7
 74
0
 42
0.0000001
 43
0.0000001
 44
0.0000000001
 40
0.0
 40
0.0
 40
0.0
 40
0.0
 40
0.2177312894
 40
0.4508720277
 40
0.7104561469
 40
1.0
 40
1.0
 40
1.0
 40
1.0
 10
24.8774308676
 20
43.1670860659
 30
0.0
 10
24.8281060826
 20
43.1955579626
 30
0.0
 10
24.7357138726
 20
43.2730282798
 30
0.0
 10
24.63744665
 20
43.4337824799
 30
0.0
 10
24.5791855352
 20
43.6318193466
 30
0.0
 10
24.5676208615
 20
43.775934421
 30
0.0
 10
24.5676208615
 20
43.8516710609
 30
0.0
  0
SPLINE
  5
2B1
100
AcDbEntity
  8
0
100
AcDbSpline
 62
7
  6
CONTINUOUS
 70
0
 71
3
 72
11
 73
7
 74
0
 42
0.0000001
 43
0.0000001
 44
0.0000000001
 40
0.0
 40
0.0
 40
0.0
 40
0.0
 40
0.2895161194
 40
0.5491680083
 40
0.7823267739
 40
1.0
 40
1.0
 40
1.0
 40
1.0
 10
94.5634694249
 20
58.246596693
 30
0.0
 10
94.5634694037
 20
58.297212247
 30
0.0
 10
94.5557261514
 20
58.3935379523
 30
0.0
 10
94.5168002125
 20
58.5259231761
 30
0.0
 10
94.4510748852
 20
58.6333332537
 30
0.0
 10
94.3893795792
 20
58.6851658226
 30
0.0
 10
94.3564224448
 20
58.704193186
 30
0.0
  0
SPLINE
  5
2B2
100
AcDbEntity
  8
0
100
AcDbSpline
 62
7
  6
CONTINUOUS
 70
0
 71
3
 72
11
 73
7
 74
0
 42
0.0000001
 43
0.0000001
 44
0.0000000001
 40
0.0
 40
0.0
 40
0.0
 40
0.0
 40
0.2371250145
 40
0.4992136582
 40
0.7617285751
 40
1.0
 40
1.0
 40
1.0
 40
1.0
 10
93.8380280089
 20
39.8811828757
 30
0.0
 10
93.939789602
 20
39.9408355085
 30
0.0
 10
94.1324272233
 20
40.1036498357
 30
0.0
 10
94.3583033756
 20
40.4112687945
 30
0.0
 10
94.5144782693
 20
40.7601184921
 30
0.0
 10
94.561407074
 20
41.0086688948
 30
0.0
 10
94.5634694249
 20
41.1271782485
 30
0.0
  0
SPLINE
  5
2B3
100
AcDbEntity
  8
0
100
AcDbSpline
 62
7
  6
CONTINUOUS
 70
0
 71
3
 72
11
 73
7
 74
0
 42
0.0000001
 43
0.0000001
 44
0.0000000001
 40
0.0
 40
0.0
 40
0.0
 40
0.0
 40
0.2885288374
 40
0.5477358614
 40
0.7812890728
 40
1.0
 40
1.0
 40
1.0
 40
1.0
 10
60.9962686637
 20
37.1872838723
 30
0.0
 10
61.0391535654
 20
37.2111789631
 30
0.0
 10
61.1244711692
 20
37.2501594516
 30
0.0
 10
61.2552163226
 20
37.2799305386
 30
0.0
 10
61.377815616
 20
37.2755598699
 30
0.0
 10
61.451561126
 20
37.2483651451
 30
0.0
 10
61.4837872679
 20
37.2297559092
 30
0.0
  0
SPLINE
  5
2B4
100
AcDbEntity
  8
0
100
AcDbSpline
 62
7
  6
CONTINUOUS
 70
0
 71
3
 72
9
 73
5
 74
0
 42
0.0000001
 43
0.0000001
 44
0.0000000001
 40
0.0
 40
0.0
 40
0.0
 40
0.0
 40
0.2627985467
 40
1.0
 40
1.0
 40
1.0
 40
1.0
 10
51.2390286207
 20
67.550151116
 30
0.0
 10
51.2390286207
 20
67.5542529745
 30
0.0
 10
51.2385857299
 20
67.569843814
 30
0.0
 10
51.2367542462
 20
67.585504542
 30
0.0
 10
51.2337753663
 20
67.5966187769
 30
0.0
  0
SPLINE
  5
2B5
100
AcDbEntity
  8
0
100
AcDbSpline
 62
7
  6
CONTINUOUS
 70
0
 71
3
 72
10
 73
6
 74
0
 42
0.0000001
 43
0.0000001
 44
0.0000000001
 40
0.0
 40
0.0
 40
0.0
 40
0.0
 40
0.513345148
 40
0.7688315975
 40
1.0
 40
1.0
 40
1.0
 40
1.0
 10
51.1102566579
 20
67.2794168444
 30
0.0
 10
51.1491742668
 20
67.3145495338
 30
0.0
 10
51.1962823931
 20
67.3806693454
 30
0.0
 10
51.2316730943
 20
67.4767506781
 30
0.0
 10
51.2390286207
 20
67.5265410399
 30
0.0
 10
51.2390286207
 20
67.550151116
 30
0.0
  0
SPLINE
  5
2B6
100
AcDbEntity
  8
0
100
AcDbSpline
 62
7
  6
CONTINUOUS
 70
0
 71
3
 72
10
 73
6
 74
0
 42
0.0000001
 43
0.0000001
 44
0.0000000001
 40
0.0
 40
0.0
 40
0.0
 40
0.0
 40
0.5254919306
 40
0.7664823232
 40
1.0
 40
1.0
 40
1.0
 40
1.0
 10
92.362773002
 20
105.1963563826
 30
0.0
 10
92.3254123252
 20
105.3288155951
 30
0.0
 10
92.2425459536
 20
105.5177381773
 30
0.0
 10
92.0692597634
 20
105.7162108889
 30
0.0
 10
91.9683026692
 20
105.7907796596
 30
0.0
 10
91.9153291088
 20
105.821344138
 30
0.0
  0
SPLINE
  5
2B7
100
AcDbEntity
  8
0
100
AcDbSpline
 62
7
  6
CONTINUOUS
 70
0
 71
3
 72
11
 73
7
 74
0
 42
0.0000001
 43
0.0000001
 44
0.0000000001
 40
0.0
 40
0.0
 40
0.0
 40
0.0
 40
0.2372749718
 40
0.5000316371
 40
0.7627710866
 40
1.0
 40
1.0
 40
1.0
 40
1.0
 10
94.2104735719
 20
86.6758973921
 30
0.0
 10
94.2607019351
 20
86.7049271136
 30
0.0
 10
94.3557400515
 20
86.7849700676
 30
0.0
 10
94.4666625816
 20
86.9366087018
 30
0.0
 10
94.5424679798
 20
87.1085021924
 30
0.0
 10
94.5642217278
 20
87.2308230407
 30
0.0
 10
94.5642217278
 20
87.2888256846
 30
0.0
  0
SPLINE
  5
2B8
100
AcDbEntity
  8
0
100
AcDbSpline
 62
7
  6
CONTINUOUS
 70
0
 71
3
 72
11
 73
7
 74
0
 42
0.0000001
 43
0.0000001
 44
0.0000000001
 40
0.0
 40
0.0
 40
0.0
 40
0.0
 40
0.2177262782
 40
0.4509525661
 40
0.7103013437
 40
1.0
 40
1.0
 40
1.0
 40
1.0
 10
92.8173671655
 20
85.9912021332
 30
0.0
 10
92.8338541454
 20
85.981680291
 30
0.0
 10
92.8717525412
 20
85.9679333712
 30
0.0
 10
92.9346943598
 20
85.9663044463
 30
0.0
 10
93.0017805599
 20
85.9825156108
 30
0.0
 10
93.0454255397
 20
86.0032641984
 30
0.0
 10
93.0673658749
 20
86.015927795
 30
0.0
  0
SPLINE
  5
2B9
100
AcDbEntity
  8
0
100
AcDbSpline
 62
7
  6
CONTINUOUS
 70
0
 71
3
 72
17
 73
13
 74
0
 42
0.0000001
 43
0.0000001
 44
0.0000000001
 40
0.0
 40
0.0
 40
0.0
 40
0.0
 40
0.1286891333
 40
0.2702803493
 40
0.4174326844
 40
0.5617743804
 40
0.6954465661
 40
0.8127104963
 40
0.8646756522
 40
0.91250911
 40
0.9571392634
 40
1.0
 40
1.0
 40
1.0
 40
1.0
 10
84.6655556503
 20
68.3422042834
 30
0.0
 10
84.6655556503
 20
68.5131538624
 30
0.0
 10
84.7133810954
 20
68.8726013283
 30
0.0
 10
84.8918728526
 20
69.400370748
 30
0.0
 10
85.1669285042
 20
69.9087763498
 30
0.0
 10
85.5164251366
 20
70.3561347723
 30
0.0
 10
85.9118102336
 20
70.7063118885
 30
0.0
 10
86.2696890565
 20
70.9020048184
 30
0.0
 10
86.5496398785
 20
70.9764727129
 30
0.0
 10
86.7423151028
 20
70.9906622565
 30
0.0
 10
86.921727791
 20
70.9643695975
 30
0.0
 10
87.0304284267
 20
70.9192039881
 30
0.0
 10
87.0797252832
 20
70.8907169616
 30
0.0
  0
SPLINE
  5
2BA
100
AcDbEntity
  8
0
100
AcDbSpline
 62
7
  6
CONTINUOUS
 70
0
 71
3
 72
17
 73
13
 74
0
 42
0.0000001
 43
0.0000001
 44
0.0000000001
 40
0.0
 40
0.0
 40
0.0
 40
0.0
 40
0.1286585904
 40
0.270314267
 40
0.4174301424
 40
0.5617701512
 40
0.6954418627
 40
0.8127138798
 40
0.8646727357
 40
0.912513532
 40
0.9571381545
 40
1.0
 40
1.0
 40
1.0
 40
1.0
 10
56.0278502431
 20
43.2350406718
 30
0.0
 10
56.0278502431
 20
43.3204935573
 30
0.0
 10
56.0518087446
 20
43.5002275532
 30
0.0
 10
56.1409861699
 20
43.7641292652
 30
0.0
 10
56.2785863741
 20
44.0183073346
 30
0.0
 10
56.4532836184
 20
44.2419871878
 30
0.0
 10
56.6509821352
 20
44.4170551344
 30
0.0
 10
56.829899036
 20
44.514965146
 30
0.0
 10
56.9698917259
 20
44.552125564
 30
0.0
 10
57.0662207161
 20
44.5592920362
 30
0.0
 10
57.1559238764
 20
44.5460733677
 30
0.0
 10
57.2102591388
 20
44.5234930683
 30
0.0
 10
57.2349241636
 20
44.5092779182
 30
0.0
  0
SPLINE
  5
2BB
100
AcDbEntity
  8
0
100
AcDbSpline
 62
7
  6
CONTINUOUS
 70
0
 71
3
 72
11
 73
7
 74
0
 42
0.0000001
 43
0.0000001
 44
0.0000000001
 40
0.0
 40
0.0
 40
0.0
 40
0.0
 40
0.289702809
 40
0.549088757
 40
0.7822160314
 40
1.0
 40
1.0
 40
1.0
 40
1.0
 10
86.0797633247
 20
54.3799988411
 30
0.0
 10
86.1894588281
 20
54.4433311915
 30
0.0
 10
86.4076785266
 20
54.5471446392
 30
0.0
 10
86.7430869073
 20
54.6281427267
 30
0.0
 10
87.0577984481
 20
54.6201769774
 30
0.0
 10
87.2472719896
 20
54.5514172301
 30
0.0
 10
87.3297358787
 20
54.5038077491
 30
0.0
  0
SPLINE
  5
2BC
100
AcDbEntity
  8
0
100
AcDbSpline
 62
7
  6
CONTINUOUS
 70
0
 71
3
 72
15
 73
11
 74
0
 42
0.0000001
 43
0.0000001
 44
0.0000000001
 40
0.0
 40
0.0
 40
0.0
 40
0.0
 40
0.1141242661
 40
0.2373486253
 40
0.3669740476
 40
0.5000015346
 40
0.6330288076
 40
0.7626536034
 40
0.8858770013
 40
1.0
 40
1.0
 40
1.0
 40
1.0
 10
84.3120037317
 20
51.3181324136
 30
0.0
 10
84.3120037317
 20
51.4578336353
 30
0.0
 10
84.3376546074
 20
51.7486398346
 30
0.0
 10
84.4396089523
 20
52.1873389954
 30
0.0
 10
84.6031312271
 20
52.6317093392
 30
0.0
 10
84.8218409864
 20
53.0650246093
 30
0.0
 10
85.0877456813
 20
53.4710911486
 30
0.0
 10
85.3908175999
 20
53.8348903783
 30
0.0
 10
85.7197617392
 20
54.1425334666
 30
0.0
 10
85.9587796809
 20
54.3101493187
 30
0.0
 10
86.0797633247
 20
54.3799988411
 30
0.0
  0
SPLINE
  5
2BD
100
AcDbEntity
  8
0
100
AcDbSpline
 62
7
  6
CONTINUOUS
 70
0
 71
3
 72
11
 73
7
 74
0
 42
0.0000001
 43
0.0000001
 44
0.0000000001
 40
0.0
 40
0.0
 40
0.0
 40
0.0
 40
0.289702809
 40
0.549088757
 40
0.7822160314
 40
1.0
 40
1.0
 40
1.0
 40
1.0
 10
73.3518942549
 20
83.4476118754
 30
0.0
 10
73.4615897582
 20
83.5109442258
 30
0.0
 10
73.6798094567
 20
83.6147576735
 30
0.0
 10
74.0152178375
 20
83.695755761
 30
0.0
 10
74.3299293783
 20
83.6877900117
 30
0.0
 10
74.5194029198
 20
83.6190302644
 30
0.0
 10
74.6018668089
 20
83.5714207834
 30
0.0
  0
SPLINE
  5
2BE
100
AcDbEntity
  8
0
100
AcDbSpline
 62
7
  6
CONTINUOUS
 70
0
 71
3
 72
15
 73
11
 74
0
 42
0.0000001
 43
0.0000001
 44
0.0000000001
 40
0.0
 40
0.0
 40
0.0
 40
0.0
 40
0.1141242661
 40
0.2373486253
 40
0.3669740476
 40
0.5000015346
 40
0.6330288076
 40
0.7626536034
 40
0.8858770013
 40
1.0
 40
1.0
 40
1.0
 40
1.0
 10
68.0486154758
 20
78.3445246786
 30
0.0
 10
68.0486154758
 20
78.4842259002
 30
0.0
 10
68.0742663515
 20
78.7750320996
 30
0.0
 10
68.1762206963
 20
79.2137312604
 30
0.0
 10
68.3397429712
 20
79.6581016042
 30
0.0
 10
68.5584527305
 20
80.0914168742
 30
0.0
 10
68.8243574254
 20
80.4974834135
 30
0.0
 10
69.127429344
 20
80.8612826433
 30
0.0
 10
69.4563734833
 20
81.1689257316
 30
0.0
 10
69.695391425
 20
81.3365415837
 30
0.0
 10
69.8163750688
 20
81.4063911061
 30
0.0
  0
SPLINE
  5
2BF
100
AcDbEntity
  8
0
100
AcDbSpline
 62
7
  6
CONTINUOUS
 70
0
 71
3
 72
11
 73
7
 74
0
 42
0.0000001
 43
0.0000001
 44
0.0000000001
 40
0.0
 40
0.0
 40
0.0
 40
0.0
 40
0.2897030037
 40
0.5490834836
 40
0.7821945523
 40
1.0
 40
1.0
 40
1.0
 40
1.0
 10
92.3825443414
 20
60.4469099206
 30
0.0
 10
92.3825443414
 20
60.5228958832
 30
0.0
 10
92.3710333415
 20
60.6674059297
 30
0.0
 10
92.3124865588
 20
60.8659408421
 30
0.0
 10
92.2139789238
 20
61.0270625473
 30
0.0
 10
92.1214243312
 20
61.1048884497
 30
0.0
 10
92.071940608
 20
61.1334361443
 30
0.0
  0
SPLINE
  5
2C0
100
AcDbEntity
  8
0
100
AcDbSpline
 62
7
  6
CONTINUOUS
 70
0
 71
3
 72
11
 73
7
 74
0
 42
0.0000001
 43
0.0000001
 44
0.0000000001
 40
0.0
 40
0.0
 40
0.0
 40
0.0
 40
0.2897016594
 40
0.5490895814
 40
0.7822189142
 40
1.0
 40
1.0
 40
1.0
 40
1.0
 10
57.6250005121
 20
30.0724024809
 30
0.0
 10
57.6250005121
 20
29.9203985831
 30
0.0
 10
57.6019546474
 20
29.6313179012
 30
0.0
 10
57.4848865637
 20
29.2341332651
 30
0.0
 10
57.2877684296
 20
28.9118406737
 30
0.0
 10
57.1026141594
 20
28.756194635
 30
0.0
 10
57.0036595036
 20
28.6990535087
 30
0.0
  0
SPLINE
  5
2C1
100
AcDbEntity
  8
0
100
AcDbSpline
 62
7
  6
CONTINUOUS
 70
0
 71
3
 72
11
 73
7
 74
0
 42
0.0000001
 43
0.0000001
 44
0.0000000001
 40
0.0
 40
0.0
 40
0.0
 40
0.0
 40
0.2897016594
 40
0.5490895814
 40
0.7822189142
 40
1.0
 40
1.0
 40
1.0
 40
1.0
 10
45.250580322
 20
37.216615685
 30
0.0
 10
45.250580322
 20
37.0646117872
 30
0.0
 10
45.2275344573
 20
36.7755311053
 30
0.0
 10
45.1104663737
 20
36.3783464692
 30
0.0
 10
44.9133482396
 20
36.0560538778
 30
0.0
 10
44.7281939693
 20
35.9004078391
 30
0.0
 10
44.6292393136
 20
35.8432667128
 30
0.0
  0
SPLINE
  5
2C2
100
AcDbEntity
  8
0
100
AcDbSpline
 62
7
  6
CONTINUOUS
 70
0
 71
3
 72
11
 73
7
 74
0
 42
0.0000001
 43
0.0000001
 44
0.0000000001
 40
0.0
 40
0.0
 40
0.0
 40
0.0
 40
0.2897016594
 40
0.5490895814
 40
0.7822189142
 40
1.0
 40
1.0
 40
1.0
 40
1.0
 10
32.8761601319
 20
44.3608288892
 30
0.0
 10
32.8761601319
 20
44.2088249913
 30
0.0
 10
32.8531142672
 20
43.9197443094
 30
0.0
 10
32.7360461836
 20
43.5225596733
 30
0.0
 10
32.5389280495
 20
43.2002670819
 30
0.0
 10
32.3537737792
 20
43.0446210432
 30
0.0
 10
32.2548191235
 20
42.987479917
 30
0.0
  0
SPLINE
  5
2C3
100
AcDbEntity
  8
0
100
AcDbSpline
 62
7
  6
CONTINUOUS
 70
0
 71
3
 72
11
 73
7
 74
0
 42
0.0000001
 43
0.0000001
 44
0.0000000001
 40
0.0
 40
0.0
 40
0.0
 40
0.0
 40
0.2897016594
 40
0.5490895814
 40
0.7822189142
 40
1.0
 40
1.0
 40
1.0
 40
1.0
 10
57.6250005121
 20
84.7780644286
 30
0.0
 10
57.6250005121
 20
84.6260605308
 30
0.0
 10
57.6019546474
 20
84.3369798489
 30
0.0
 10
57.4848865637
 20
83.9397952128
 30
0.0
 10
57.2877684296
 20
83.6175026214
 30
0.0
 10
57.1026141594
 20
83.4618565827
 30
0.0
 10
57.0036595036
 20
83.4047154564
 30
0.0
  0
SPLINE
  5
2C4
100
AcDbEntity
  8
0
100
AcDbSpline
 62
7
  6
CONTINUOUS
 70
0
 71
3
 72
11
 73
7
 74
0
 42
0.0000001
 43
0.0000001
 44
0.0000000001
 40
0.0
 40
0.0
 40
0.0
 40
0.0
 40
0.2897016594
 40
0.5490895814
 40
0.7822189142
 40
1.0
 40
1.0
 40
1.0
 40
1.0
 10
45.250580322
 20
91.9222776327
 30
0.0
 10
45.250580322
 20
91.7702737349
 30
0.0
 10
45.2275344573
 20
91.481193053
 30
0.0
 10
45.1104663737
 20
91.0840084169
 30
0.0
 10
44.9133482396
 20
90.7617158255
 30
0.0
 10
44.7281939693
 20
90.6060697868
 30
0.0
 10
44.6292393136
 20
90.5489286605
 30
0.0
  0
SPLINE
  5
2C5
100
AcDbEntity
  8
0
100
AcDbSpline
 62
7
  6
CONTINUOUS
 70
0
 71
3
 72
11
 73
7
 74
0
 42
0.0000001
 43
0.0000001
 44
0.0000000001
 40
0.0
 40
0.0
 40
0.0
 40
0.0
 40
0.2897016594
 40
0.5490895814
 40
0.7822189142
 40
1.0
 40
1.0
 40
1.0
 40
1.0
 10
32.8761601319
 20
99.0664908368
 30
0.0
 10
32.8761601319
 20
98.914486939
 30
0.0
 10
32.8531142672
 20
98.6254062571
 30
0.0
 10
32.7360461836
 20
98.228221621
 30
0.0
 10
32.5389280495
 20
97.9059290296
 30
0.0
 10
32.3537737792
 20
97.7502829909
 30
0.0
 10
32.2548191235
 20
97.6931418646
 30
0.0
  0
SPLINE
  5
2C6
100
AcDbEntity
  8
0
100
AcDbSpline
 62
7
  6
CONTINUOUS
 70
0
 71
3
 72
11
 73
7
 74
0
 42
0.0000001
 43
0.0000001
 44
0.0000000001
 40
0.0
 40
0.0
 40
0.0
 40
0.0
 40
0.2896586258
 40
0.5491345301
 40
0.7822532901
 40
1.0
 40
1.0
 40
1.0
 40
1.0
 10
75.9327717413
 20
104.3301900083
 30
0.0
 10
75.8450326106
 20
104.3808450731
 30
0.0
 10
75.6858328704
 20
104.4905349815
 30
0.0
 10
75.4955155179
 20
104.690463013
 30
0.0
 10
75.3750857856
 20
104.9116828929
 30
0.0
 10
75.3470457886
 20
105.0704446627
 30
0.0
 10
75.3470151872
 20
105.1466043829
 30
0.0
  0
SPLINE
  5
2C7
100
AcDbEntity
  8
0
100
AcDbSpline
 62
7
  6
CONTINUOUS
 70
0
 71
3
 72
11
 73
7
 74
0
 42
0.0000001
 43
0.0000001
 44
0.0000000001
 40
0.0
 40
0.0
 40
0.0
 40
0.0
 40
0.2896586258
 40
0.5491345301
 40
0.7822532901
 40
1.0
 40
1.0
 40
1.0
 40
1.0
 10
63.5583515512
 20
111.4744032124
 30
0.0
 10
63.4706124205
 20
111.5250582772
 30
0.0
 10
63.3114126803
 20
111.6347481857
 30
0.0
 10
63.1210953279
 20
111.8346762171
 30
0.0
 10
63.0006655956
 20
112.055896097
 30
0.0
 10
62.9726255985
 20
112.2146578668
 30
0.0
 10
62.9725949971
 20
112.290817587
 30
0.0
  0
SPLINE
  5
2C8
100
AcDbEntity
  8
0
100
AcDbSpline
 62
7
  6
CONTINUOUS
 70
0
 71
3
 72
11
 73
7
 74
0
 42
0.0000001
 43
0.0000001
 44
0.0000000001
 40
0.0
 40
0.0
 40
0.0
 40
0.0
 40
0.2896586258
 40
0.5491345301
 40
0.7822532901
 40
1.0
 40
1.0
 40
1.0
 40
1.0
 10
51.1839313612
 20
118.6186164165
 30
0.0
 10
51.0961922304
 20
118.6692714813
 30
0.0
 10
50.9369924903
 20
118.7789613898
 30
0.0
 10
50.7466751378
 20
118.9788894212
 30
0.0
 10
50.6262454055
 20
119.2001093011
 30
0.0
 10
50.5982054084
 20
119.3588710709
 30
0.0
 10
50.598174807
 20
119.4350307911
 30
0.0
  0
SPLINE
  5
2C9
100
AcDbEntity
  8
0
100
AcDbSpline
 62
7
  6
CONTINUOUS
 70
0
 71
3
 72
17
 73
13
 74
0
 42
0.0000001
 43
0.0000001
 44
0.0000000001
 40
0.0
 40
0.0
 40
0.0
 40
0.0
 40
0.0428592926
 40
0.087485474
 40
0.1353198781
 40
0.1872819044
 40
0.3045421965
 40
0.4382074305
 40
0.582548911
 40
0.7297129633
 40
0.8713059682
 40
1.0
 40
1.0
 40
1.0
 40
1.0
 10
32.2548191235
 20
42.987479917
 30
0.0
 10
32.1808625396
 20
42.9447738667
 30
0.0
 10
32.0178120213
 20
42.8770695289
 30
0.0
 10
31.7487116212
 20
42.8375708174
 30
0.0
 10
31.4597061025
 20
42.8588640474
 30
0.0
 10
31.0397878726
 20
42.9705484662
 30
0.0
 10
30.5029875628
 20
43.2640741379
 30
0.0
 10
29.9099085144
 20
43.7893070636
 30
0.0
 10
29.3856283163
 20
44.4603363057
 30
0.0
 10
28.9730262582
 20
45.2229687073
 30
0.0
 10
28.7052350743
 20
46.0146483156
 30
0.0
 10
28.6335017811
 20
46.5538380509
 30
0.0
 10
28.6335017811
 20
46.8102734163
 30
0.0
  0
SPLINE
  5
2CA
100
AcDbEntity
  8
0
100
AcDbSpline
 62
7
  6
CONTINUOUS
 70
0
 71
3
 72
11
 73
7
 74
0
 42
0.0000001
 43
0.0000001
 44
0.0000000001
 40
0.0
 40
0.0
 40
0.0
 40
0.0
 40
0.2177825102
 40
0.4509091639
 40
0.7102957096
 40
1.0
 40
1.0
 40
1.0
 40
1.0
 10
87.3297358787
 20
54.5038077491
 30
0.0
 10
87.412202482
 20
54.456196701
 30
0.0
 10
87.5664943207
 20
54.3264850677
 30
0.0
 10
87.7307560516
 20
54.0579102048
 30
0.0
 10
87.8283178041
 20
53.7269251564
 30
0.0
 10
87.8475229178
 20
53.4860241157
 30
0.0
 10
87.8475229178
 20
53.359353183
 30
0.0
  0
SPLINE
  5
2CB
100
AcDbEntity
  8
0
100
AcDbSpline
 62
7
  6
CONTINUOUS
 70
0
 71
3
 72
11
 73
7
 74
0
 42
0.0000001
 43
0.0000001
 44
0.0000000001
 40
0.0
 40
0.0
 40
0.0
 40
0.0
 40
0.2890626683
 40
0.5489980567
 40
0.7822658392
 40
1.0
 40
1.0
 40
1.0
 40
1.0
 10
54.9748492059
 20
61.5009967109
 30
0.0
 10
54.9748492059
 20
61.475724916
 30
0.0
 10
54.9787909061
 20
61.4275789875
 30
0.0
 10
54.9981746114
 20
61.3613657501
 30
0.0
 10
55.0310173022
 20
61.3075869272
 30
0.0
 10
55.0618844897
 20
61.2816485258
 30
0.0
 10
55.0783813429
 20
61.2721503832
 30
0.0
  0
SPLINE
  5
2CC
100
AcDbEntity
  8
0
100
AcDbSpline
 62
7
  6
CONTINUOUS
 70
0
 71
3
 72
11
 73
7
 74
0
 42
0.0000001
 43
0.0000001
 44
0.0000000001
 40
0.0
 40
0.0
 40
0.0
 40
0.0
 40
0.2342700613
 40
0.479956851
 40
0.7357472113
 40
1.0
 40
1.0
 40
1.0
 40
1.0
 10
60.9875971455
 20
73.8370246341
 30
0.0
 10
60.4564574392
 20
73.5271919248
 30
0.0
 10
59.3981940076
 20
72.8401257005
 30
0.0
 10
57.8707246982
 20
71.6553293016
 30
0.0
 10
56.3807883242
 20
70.3037109884
 30
0.0
 10
55.4369786443
 20
69.3158289606
 30
0.0
 10
54.9748492059
 20
68.7986075033
 30
0.0
  0
SPLINE
  5
2CD
100
AcDbEntity
  8
0
100
AcDbSpline
 62
7
  6
CONTINUOUS
 70
0
 71
3
 72
11
 73
7
 74
0
 42
0.0000001
 43
0.0000001
 44
0.0000000001
 40
0.0
 40
0.0
 40
0.0
 40
0.0
 40
0.237099481
 40
0.499675115
 40
0.7624273367
 40
1.0
 40
1.0
 40
1.0
 40
1.0
 10
61.6908814317
 20
75.0593782625
 30
0.0
 10
61.6908814317
 20
74.943884343
 30
0.0
 10
61.6477219437
 20
74.7003199363
 30
0.0
 10
61.497043059
 20
74.3578856041
 30
0.0
 10
61.2765699084
 20
74.0553458398
 30
0.0
 10
61.0875573515
 20
73.895334983
 30
0.0
 10
60.9875971455
 20
73.8370246341
 30
0.0
  0
SPLINE
  5
2CE
100
AcDbEntity
  8
0
100
AcDbSpline
 62
7
  6
CONTINUOUS
 70
0
 71
3
 72
13
 73
9
 74
0
 42
0.0000001
 43
0.0000001
 44
0.0000000001
 40
0.0
 40
0.0
 40
0.0
 40
0.0
 40
0.1141738511
 40
0.2375701392
 40
0.4999984383
 40
0.7624287806
 40
0.8858232052
 40
1.0
 40
1.0
 40
1.0
 40
1.0
 10
62.7513292744
 20
89.5791133289
 30
0.0
 10
62.6787813779
 20
89.5372392781
 30
0.0
 10
62.535413925
 20
89.4366334463
 30
0.0
 10
62.2668361902
 20
89.185482954
 30
0.0
 10
61.983387398
 20
88.797982401
 30
0.0
 10
61.7895239124
 20
88.3587597301
 30
0.0
 10
61.7063203437
 20
88.0005836318
 30
0.0
 10
61.6908814317
 20
87.8261211745
 30
0.0
 10
61.6908814317
 20
87.7423536675
 30
0.0
  0
SPLINE
  5
2CF
100
AcDbEntity
  8
0
100
AcDbSpline
 62
7
  6
CONTINUOUS
 70
0
 71
3
 72
17
 73
13
 74
0
 42
0.0000001
 43
0.0000001
 44
0.0000000001
 40
0.0
 40
0.0
 40
0.0
 40
0.0
 40
0.0428592926
 40
0.087485474
 40
0.1353198781
 40
0.1872819044
 40
0.3045421965
 40
0.4382074305
 40
0.582548911
 40
0.7297129633
 40
0.8713059682
 40
1.0
 40
1.0
 40
1.0
 40
1.0
 10
57.0036595036
 20
83.4047154564
 30
0.0
 10
56.9297029197
 20
83.3620094062
 30
0.0
 10
56.7666524015
 20
83.2943050684
 30
0.0
 10
56.4975520014
 20
83.2548063569
 30
0.0
 10
56.2085464827
 20
83.2760995869
 30
0.0
 10
55.7886282527
 20
83.3877840057
 30
0.0
 10
55.2518279429
 20
83.6813096774
 30
0.0
 10
54.6587488946
 20
84.2065426031
 30
0.0
 10
54.1344686965
 20
84.8775718452
 30
0.0
 10
53.7218666384
 20
85.6402042468
 30
0.0
 10
53.4540754544
 20
86.431883855
 30
0.0
 10
53.3823421612
 20
86.9710735903
 30
0.0
 10
53.3823421612
 20
87.2275089557
 30
0.0
  0
SPLINE
  5
2D0
100
AcDbEntity
  8
0
100
AcDbSpline
 62
7
  6
CONTINUOUS
 70
0
 71
3
 72
17
 73
13
 74
0
 42
0.0000001
 43
0.0000001
 44
0.0000000001
 40
0.0
 40
0.0
 40
0.0
 40
0.0
 40
0.0428519647
 40
0.0874733204
 40
0.1353003186
 40
0.1872592077
 40
0.3045149619
 40
0.4381827144
 40
0.582529717
 40
0.7296959612
 40
0.8713033871
 40
1.0
 40
1.0
 40
1.0
 40
1.0
 10
50.598174807
 20
119.4350307911
 30
0.0
 10
50.5981519356
 20
119.4919525578
 30
0.0
 10
50.613395554
 20
119.6086426696
 30
0.0
 10
50.6803097067
 20
119.7771309533
 30
0.0
 10
50.7889408384
 20
119.9368511748
 30
0.0
 10
50.9933872161
 20
120.1420233193
 30
0.0
 10
51.3417982042
 20
120.3540387878
 30
0.0
 10
51.8427365489
 20
120.5213028695
 30
0.0
 10
52.4049115652
 20
120.6002441194
 30
0.0
 10
52.9827522309
 20
120.5842109376
 30
0.0
 10
53.5290804151
 20
120.474875837
 30
0.0
 10
53.8642968939
 20
120.3365624421
 30
0.0
 10
54.01234671
 20
120.2510877746
 30
0.0
  0
SPLINE
  5
2D1
100
AcDbEntity
  8
0
100
AcDbSpline
 62
7
  6
CONTINUOUS
 70
0
 71
3
 72
11
 73
7
 74
0
 42
0.0000001
 43
0.0000001
 44
0.0000000001
 40
0.0
 40
0.0
 40
0.0
 40
0.0
 40
0.2179470069
 40
0.4527123807
 40
0.712591706
 40
1.0
 40
1.0
 40
1.0
 40
1.0
 10
54.5944477883
 20
119.4222993475
 30
0.0
 10
54.5870389067
 20
119.493137973
 30
0.0
 10
54.5476378106
 20
119.638514745
 30
0.0
 10
54.4243375725
 20
119.8390079779
 30
0.0
 10
54.2423384757
 20
120.0210466112
 30
0.0
 10
54.0936885531
 20
120.1222733518
 30
0.0
 10
54.01234671
 20
120.1692350244
 30
0.0
  0
SPLINE
  5
2D2
100
AcDbEntity
  8
0
100
AcDbSpline
 62
7
  6
CONTINUOUS
 70
0
 71
3
 72
10
 73
6
 74
0
 42
0.0000001
 43
0.0000001
 44
0.0000000001
 40
0.0
 40
0.0
 40
0.0
 40
0.0
 40
0.4620294686
 40
0.7214605962
 40
1.0
 40
1.0
 40
1.0
 40
1.0
 10
84.5529778458
 20
46.3461755609
 30
0.0
 10
84.6960316791
 20
46.3324319037
 30
0.0
 10
84.9249639071
 20
46.3596810141
 30
0.0
 10
85.2184310605
 20
46.4633249912
 30
0.0
 10
85.3683332086
 20
46.5390722296
 30
0.0
 10
85.4433645721
 20
46.5823913489
 30
0.0
  0
SPLINE
  5
2D3
100
AcDbEntity
  8
0
100
AcDbSpline
 62
7
  6
CONTINUOUS
 70
0
 71
3
 72
17
 73
13
 74
0
 42
0.0000001
 43
0.0000001
 44
0.0000000001
 40
0.0
 40
0.0
 40
0.0
 40
0.0
 40
0.0428519647
 40
0.0874733204
 40
0.1353003186
 40
0.1872592077
 40
0.3045149619
 40
0.4381827144
 40
0.582529717
 40
0.7296959612
 40
0.8713033871
 40
1.0
 40
1.0
 40
1.0
 40
1.0
 10
62.9725949971
 20
112.290817587
 30
0.0
 10
62.9725721256
 20
112.3477393537
 30
0.0
 10
62.9878157441
 20
112.4644294655
 30
0.0
 10
63.0547298967
 20
112.6329177492
 30
0.0
 10
63.1633610285
 20
112.7926379707
 30
0.0
 10
63.3678074061
 20
112.9978101152
 30
0.0
 10
63.7162183943
 20
113.2098255837
 30
0.0
 10
64.217156739
 20
113.3770896654
 30
0.0
 10
64.7793317552
 20
113.4560309153
 30
0.0
 10
65.357172421
 20
113.4399977335
 30
0.0
 10
65.9035006052
 20
113.3306626329
 30
0.0
 10
66.2387170839
 20
113.192349238
 30
0.0
 10
66.3867669001
 20
113.1068745705
 30
0.0
  0
SPLINE
  5
2D4
100
AcDbEntity
  8
0
100
AcDbSpline
 62
7
  6
CONTINUOUS
 70
0
 71
3
 72
11
 73
7
 74
0
 42
0.0000001
 43
0.0000001
 44
0.0000000001
 40
0.0
 40
0.0
 40
0.0
 40
0.0
 40
0.2179470069
 40
0.4527123807
 40
0.712591706
 40
1.0
 40
1.0
 40
1.0
 40
1.0
 10
66.9688679784
 20
112.2780861434
 30
0.0
 10
66.9614590968
 20
112.3489247689
 30
0.0
 10
66.9220580007
 20
112.4943015409
 30
0.0
 10
66.7987577626
 20
112.6947947738
 30
0.0
 10
66.6167586657
 20
112.8768334071
 30
0.0
 10
66.4681087432
 20
112.9780601477
 30
0.0
 10
66.3867669001
 20
113.0250218203
 30
0.0
  0
SPLINE
  5
2D5
100
AcDbEntity
  8
0
100
AcDbSpline
 62
7
  6
CONTINUOUS
 70
0
 71
3
 72
11
 73
7
 74
0
 42
0.0000001
 43
0.0000001
 44
0.0000000001
 40
0.0
 40
0.0
 40
0.0
 40
0.0
 40
0.2177488625
 40
0.4508835943
 40
0.7104460086
 40
1.0
 40
1.0
 40
1.0
 40
1.0
 10
61.4837872679
 20
37.2297559092
 30
0.0
 10
61.5167593621
 20
37.2107159173
 30
0.0
 10
61.5785149999
 20
37.1589190373
 30
0.0
 10
61.6442040876
 20
37.0514615597
 30
0.0
 10
61.6831553613
 20
36.9190818484
 30
0.0
 10
61.6908814317
 20
36.8227452363
 30
0.0
 10
61.6908814317
 20
36.7721150207
 30
0.0
  0
SPLINE
  5
2D6
100
AcDbEntity
  8
0
100
AcDbSpline
 62
7
  6
CONTINUOUS
 70
0
 71
3
 72
17
 73
13
 74
0
 42
0.0000001
 43
0.0000001
 44
0.0000000001
 40
0.0
 40
0.0
 40
0.0
 40
0.0
 40
0.1286891333
 40
0.2702803493
 40
0.4174326844
 40
0.5617743804
 40
0.6954465661
 40
0.8127104963
 40
0.8646756522
 40
0.91250911
 40
0.9571392634
 40
1.0
 40
1.0
 40
1.0
 40
1.0
 10
87.4939709992
 20
69.9751808989
 30
0.0
 10
87.4939709992
 20
69.80423132
 30
0.0
 10
87.4461455541
 20
69.4447838541
 30
0.0
 10
87.2676537969
 20
68.9170144344
 30
0.0
 10
86.9925981453
 20
68.4086088326
 30
0.0
 10
86.6431015129
 20
67.96125041
 30
0.0
 10
86.2477164159
 20
67.6110732938
 30
0.0
 10
85.889837593
 20
67.4153803639
 30
0.0
 10
85.609886771
 20
67.3409124694
 30
0.0
 10
85.4172115467
 20
67.3267229258
 30
0.0
 10
85.2377988585
 20
67.3530155849
 30
0.0
 10
85.1290982228
 20
67.3981811942
 30
0.0
 10
85.0798013663
 20
67.4266682207
 30
0.0
  0
SPLINE
  5
2D7
100
AcDbEntity
  8
0
100
AcDbSpline
 62
7
  6
CONTINUOUS
 70
0
 71
3
 72
17
 73
13
 74
0
 42
0.0000001
 43
0.0000001
 44
0.0000000001
 40
0.0
 40
0.0
 40
0.0
 40
0.0
 40
0.1286585904
 40
0.270314267
 40
0.4174301424
 40
0.5617701512
 40
0.6954418627
 40
0.8127138798
 40
0.8646727357
 40
0.912513532
 40
0.9571381545
 40
1.0
 40
1.0
 40
1.0
 40
1.0
 10
57.4420579176
 20
44.0515289795
 30
0.0
 10
57.4420579176
 20
43.966076094
 30
0.0
 10
57.4180994161
 20
43.7863420981
 30
0.0
 10
57.3289219908
 20
43.5224403861
 30
0.0
 10
57.1913217866
 20
43.2682623167
 30
0.0
 10
57.0166245424
 20
43.0445824635
 30
0.0
 10
56.8189260255
 20
42.8695145169
 30
0.0
 10
56.6400091247
 20
42.7716045053
 30
0.0
 10
56.5000164348
 20
42.7344440873
 30
0.0
 10
56.4036874446
 20
42.7272776151
 30
0.0
 10
56.3139842844
 20
42.7404962836
 30
0.0
 10
56.2596490219
 20
42.763076583
 30
0.0
 10
56.2349839971
 20
42.7772917331
 30
0.0
  0
SPLINE
  5
2D8
100
AcDbEntity
  8
0
100
AcDbSpline
 62
7
  6
CONTINUOUS
 70
0
 71
3
 72
17
 73
13
 74
0
 42
0.0000001
 43
0.0000001
 44
0.0000000001
 40
0.0
 40
0.0
 40
0.0
 40
0.0
 40
0.0428519647
 40
0.0874733204
 40
0.1353003186
 40
0.1872592077
 40
0.3045149619
 40
0.4381827144
 40
0.582529717
 40
0.7296959612
 40
0.8713033871
 40
1.0
 40
1.0
 40
1.0
 40
1.0
 10
75.3470151872
 20
105.1466043829
 30
0.0
 10
75.3469923157
 20
105.2035261496
 30
0.0
 10
75.3622359341
 20
105.3202162614
 30
0.0
 10
75.4291500868
 20
105.4887045451
 30
0.0
 10
75.5377812186
 20
105.6484247665
 30
0.0
 10
75.7422275962
 20
105.8535969111
 30
0.0
 10
76.0906385843
 20
106.0656123795
 30
0.0
 10
76.591576929
 20
106.2328764613
 30
0.0
 10
77.1537519453
 20
106.3118177112
 30
0.0
 10
77.7315926111
 20
106.2957845294
 30
0.0
 10
78.2779207953
 20
106.1864494288
 30
0.0
 10
78.613137274
 20
106.0481360339
 30
0.0
 10
78.7611870902
 20
105.9626613664
 30
0.0
  0
SPLINE
  5
2D9
100
AcDbEntity
  8
0
100
AcDbSpline
 62
7
  6
CONTINUOUS
 70
0
 71
3
 72
15
 73
11
 74
0
 42
0.0000001
 43
0.0000001
 44
0.0000000001
 40
0.0
 40
0.0
 40
0.0
 40
0.0
 40
0.1141242661
 40
0.2373486253
 40
0.3669740476
 40
0.5000015346
 40
0.6330288076
 40
0.7626536034
 40
0.8858770013
 40
1.0
 40
1.0
 40
1.0
 40
1.0
 10
87.8475229178
 20
49.2768410973
 30
0.0
 10
87.8475229178
 20
49.1371398757
 30
0.0
 10
87.8218720421
 20
48.8463336763
 30
0.0
 10
87.7199176972
 20
48.4076345155
 30
0.0
 10
87.5563954224
 20
47.9632641717
 30
0.0
 10
87.3376856631
 20
47.5299489017
 30
0.0
 10
87.0717809682
 20
47.1238823624
 30
0.0
 10
86.7687090495
 20
46.7600831326
 30
0.0
 10
86.4397649103
 20
46.4524400443
 30
0.0
 10
86.2007469686
 20
46.2848241922
 30
0.0
 10
86.0797633247
 20
46.2149746698
 30
0.0
  0
SPLINE
  5
2DA
100
AcDbEntity
  8
0
100
AcDbSpline
 62
7
  6
CONTINUOUS
 70
0
 71
3
 72
11
 73
7
 74
0
 42
0.0000001
 43
0.0000001
 44
0.0000000001
 40
0.0
 40
0.0
 40
0.0
 40
0.0
 40
0.2179470069
 40
0.4527123807
 40
0.712591706
 40
1.0
 40
1.0
 40
1.0
 40
1.0
 10
79.3432881685
 20
105.1338729393
 30
0.0
 10
79.3358792868
 20
105.2047115647
 30
0.0
 10
79.2964781907
 20
105.3500883368
 30
0.0
 10
79.1731779527
 20
105.5505815697
 30
0.0
 10
78.9911788558
 20
105.732620203
 30
0.0
 10
78.8425289332
 20
105.8338469436
 30
0.0
 10
78.7611870902
 20
105.8808086162
 30
0.0
  0
SPLINE
  5
2DB
100
AcDbEntity
  8
0
100
AcDbSpline
 62
7
  6
CONTINUOUS
 70
0
 71
3
 72
11
 73
7
 74
0
 42
0.0000001
 43
0.0000001
 44
0.0000000001
 40
0.0
 40
0.0
 40
0.0
 40
0.0
 40
0.289702809
 40
0.549088757
 40
0.7822160314
 40
1.0
 40
1.0
 40
1.0
 40
1.0
 10
86.0797633247
 20
46.2149746698
 30
0.0
 10
85.9700678214
 20
46.1516423195
 30
0.0
 10
85.7518481229
 20
46.0478288717
 30
0.0
 10
85.4164397422
 20
45.9668307843
 30
0.0
 10
85.1017282014
 20
45.9747965336
 30
0.0
 10
84.9122546599
 20
46.0435562808
 30
0.0
 10
84.8297907708
 20
46.0911657619
 30
0.0
  0
SPLINE
  5
2DC
100
AcDbEntity
  8
0
100
AcDbSpline
 62
7
  6
CONTINUOUS
 70
0
 71
3
 72
11
 73
7
 74
0
 42
0.0000001
 43
0.0000001
 44
0.0000000001
 40
0.0
 40
0.0
 40
0.0
 40
0.0
 40
0.289702809
 40
0.549088757
 40
0.7822160314
 40
1.0
 40
1.0
 40
1.0
 40
1.0
 10
69.8163750688
 20
77.3238790204
 30
0.0
 10
69.7066795655
 20
77.2605466701
 30
0.0
 10
69.488459867
 20
77.1567332223
 30
0.0
 10
69.1530514862
 20
77.0757351349
 30
0.0
 10
68.8383399454
 20
77.0837008842
 30
0.0
 10
68.6488664039
 20
77.1524606314
 30
0.0
 10
68.5664025148
 20
77.2000701125
 30
0.0
  0
SPLINE
  5
2DD
100
AcDbEntity
  8
0
100
AcDbSpline
 62
7
  6
CONTINUOUS
 70
0
 71
3
 72
15
 73
11
 74
0
 42
0.0000001
 43
0.0000001
 44
0.0000000001
 40
0.0
 40
0.0
 40
0.0
 40
0.0
 40
0.1141242661
 40
0.2373486253
 40
0.3669740476
 40
0.5000015346
 40
0.6330288076
 40
0.7626536034
 40
0.8858770013
 40
1.0
 40
1.0
 40
1.0
 40
1.0
 10
75.1196538479
 20
82.4269662173
 30
0.0
 10
75.1196538479
 20
82.2872649956
 30
0.0
 10
75.0940029722
 20
81.9964587963
 30
0.0
 10
74.9920486274
 20
81.5577596355
 30
0.0
 10
74.8285263525
 20
81.1133892917
 30
0.0
 10
74.6098165932
 20
80.6800740216
 30
0.0
 10
74.3439118983
 20
80.2740074823
 30
0.0
 10
74.0408399797
 20
79.9102082526
 30
0.0
 10
73.7118958404
 20
79.6025651643
 30
0.0
 10
73.4728778987
 20
79.4349493122
 30
0.0
 10
73.3518942549
 20
79.3650997898
 30
0.0
  0
SPLINE
  5
2DE
100
AcDbEntity
  8
0
100
AcDbSpline
 62
7
  6
CONTINUOUS
 70
0
 71
3
 72
17
 73
13
 74
0
 42
0.0000001
 43
0.0000001
 44
0.0000000001
 40
0.0
 40
0.0
 40
0.0
 40
0.0
 40
0.0428592926
 40
0.087485474
 40
0.1353198781
 40
0.1872819044
 40
0.3045421965
 40
0.4382074305
 40
0.582548911
 40
0.7297129633
 40
0.8713059682
 40
1.0
 40
1.0
 40
1.0
 40
1.0
 10
44.6292393136
 20
35.8432667128
 30
0.0
 10
44.5552827296
 20
35.8005606626
 30
0.0
 10
44.3922322114
 20
35.7328563248
 30
0.0
 10
44.1231318113
 20
35.6933576133
 30
0.0
 10
43.8341262926
 20
35.7146508433
 30
0.0
 10
43.4142080626
 20
35.8263352621
 30
0.0
 10
42.8774077528
 20
36.1198609338
 30
0.0
 10
42.2843287045
 20
36.6450938595
 30
0.0
 10
41.7600485064
 20
37.3161231016
 30
0.0
 10
41.3474464483
 20
38.0787555032
 30
0.0
 10
41.0796552643
 20
38.8704351115
 30
0.0
 10
41.0079219711
 20
39.4096248468
 30
0.0
 10
41.0079219711
 20
39.6660602122
 30
0.0
  0
SPLINE
  5
2DF
100
AcDbEntity
  8
0
100
AcDbSpline
 62
7
  6
CONTINUOUS
 70
0
 71
3
 72
11
 73
7
 74
0
 42
0.0000001
 43
0.0000001
 44
0.0000000001
 40
0.0
 40
0.0
 40
0.0
 40
0.0
 40
0.2897016594
 40
0.5490895814
 40
0.7822189142
 40
1.0
 40
1.0
 40
1.0
 40
1.0
 10
53.3823421612
 20
32.5218470081
 30
0.0
 10
53.3823421612
 20
32.6738509059
 30
0.0
 10
53.4053880259
 20
32.9629315878
 30
0.0
 10
53.5224561096
 20
33.3601162239
 30
0.0
 10
53.7195742437
 20
33.6824088153
 30
0.0
 10
53.9047285139
 20
33.838054854
 30
0.0
 10
54.0036831697
 20
33.8951959803
 30
0.0
  0
SPLINE
  5
2E0
100
AcDbEntity
  8
0
100
AcDbSpline
 62
7
  6
CONTINUOUS
 70
0
 71
3
 72
11
 73
7
 74
0
 42
0.0000001
 43
0.0000001
 44
0.0000000001
 40
0.0
 40
0.0
 40
0.0
 40
0.0
 40
0.2897016594
 40
0.5490895814
 40
0.7822189142
 40
1.0
 40
1.0
 40
1.0
 40
1.0
 10
41.0079219711
 20
39.6660602122
 30
0.0
 10
41.0079219711
 20
39.81806411
 30
0.0
 10
41.0309678358
 20
40.1071447919
 30
0.0
 10
41.1480359195
 20
40.504329428
 30
0.0
 10
41.3451540536
 20
40.8266220194
 30
0.0
 10
41.5303083239
 20
40.9822680581
 30
0.0
 10
41.6292629796
 20
41.0394091844
 30
0.0
  0
SPLINE
  5
2E1
100
AcDbEntity
  8
0
100
AcDbSpline
 62
7
  6
CONTINUOUS
 70
0
 71
3
 72
11
 73
7
 74
0
 42
0.0000001
 43
0.0000001
 44
0.0000000001
 40
0.0
 40
0.0
 40
0.0
 40
0.0
 40
0.2897016594
 40
0.5490895814
 40
0.7822189142
 40
1.0
 40
1.0
 40
1.0
 40
1.0
 10
28.6335017811
 20
46.8102734163
 30
0.0
 10
28.6335017811
 20
46.9622773141
 30
0.0
 10
28.6565476458
 20
47.251357996
 30
0.0
 10
28.7736157294
 20
47.6485426321
 30
0.0
 10
28.9707338635
 20
47.9708352235
 30
0.0
 10
29.1558881338
 20
48.1264812622
 30
0.0
 10
29.2548427895
 20
48.1836223885
 30
0.0
  0
SPLINE
  5
2E2
100
AcDbEntity
  8
0
100
AcDbSpline
 62
7
  6
CONTINUOUS
 70
0
 71
3
 72
15
 73
11
 74
0
 42
0.0000001
 43
0.0000001
 44
0.0000000001
 40
0.0
 40
0.0
 40
0.0
 40
0.0
 40
0.1141229605
 40
0.2373462928
 40
0.366971064
 40
0.4999983279
 40
0.633025824
 40
0.762651271
 40
0.8858756957
 40
1.0
 40
1.0
 40
1.0
 40
1.0
 10
72.7154955023
 20
79.7325164688
 30
0.0
 10
72.8364791056
 20
79.8023659678
 30
0.0
 10
73.0754969679
 20
79.9699817105
 30
0.0
 10
73.4044409886
 20
80.2776246965
 30
0.0
 10
73.7075128705
 20
80.6414237954
 30
0.0
 10
73.973417597
 20
81.0474902788
 30
0.0
 10
74.1921274206
 20
81.4808055494
 30
0.0
 10
74.3556497903
 20
81.9251759905
 30
0.0
 10
74.4576041645
 20
82.3638753051
 30
0.0
 10
74.4832550953
 20
82.6546816279
 30
0.0
 10
74.4832550953
 20
82.7943828963
 30
0.0
  0
SPLINE
  5
2E3
100
AcDbEntity
  8
0
100
AcDbSpline
 62
7
  6
CONTINUOUS
 70
0
 71
3
 72
9
 73
5
 74
0
 42
0.0000001
 43
0.0000001
 44
0.0000000001
 40
0.0
 40
0.0
 40
0.0
 40
0.0
 40
0.2726406889
 40
1.0
 40
1.0
 40
1.0
 40
1.0
 10
74.4832550953
 20
82.7943828963
 30
0.0
 10
74.4832550953
 20
82.8628800802
 30
0.0
 10
74.4723265038
 20
83.1135424513
 30
0.0
 10
74.4138779885
 20
83.3654630418
 30
0.0
 10
74.3337191517
 20
83.5296826295
 30
0.0
  0
SPLINE
  5
2E4
100
AcDbEntity
  8
0
100
AcDbSpline
 62
7
  6
CONTINUOUS
 70
0
 71
3
 72
9
 73
5
 74
0
 42
0.0000001
 43
0.0000001
 44
0.0000000001
 40
0.0
 40
0.0
 40
0.0
 40
0.0
 40
0.2554774273
 40
1.0
 40
1.0
 40
1.0
 40
1.0
 10
74.3337191517
 20
83.5296826295
 30
0.0
 10
74.3270310875
 20
83.5433843147
 30
0.0
 10
74.2998225716
 20
83.5965034923
 30
0.0
 10
74.2683890038
 20
83.6474874259
 30
0.0
 10
74.2425923516
 20
83.6836650732
 30
0.0
  0
SPLINE
  5
2E5
100
AcDbEntity
  8
0
100
AcDbSpline
 62
7
  6
CONTINUOUS
 70
0
 71
3
 72
9
 73
5
 74
0
 42
0.0000001
 43
0.0000001
 44
0.0000000001
 40
0.0
 40
0.0
 40
0.0
 40
0.0
 40
0.25509082
 40
1.0
 40
1.0
 40
1.0
 40
1.0
 10
91.7175471404
 20
60.0731002514
 30
0.0
 10
91.7231520979
 20
60.0746021218
 30
0.0
 10
91.7452079579
 20
60.0801713326
 30
0.0
 10
91.7675963226
 20
60.0844428311
 30
0.0
 10
91.7843765374
 20
60.0867991219
 30
0.0
  0
SPLINE
  5
2E6
100
AcDbEntity
  8
0
100
AcDbSpline
 62
7
  6
CONTINUOUS
 70
0
 71
3
 72
9
 73
5
 74
0
 42
0.0000001
 43
0.0000001
 44
0.0000000001
 40
0.0
 40
0.0
 40
0.0
 40
0.0
 40
0.5197634847
 40
1.0
 40
1.0
 40
1.0
 40
1.0
 10
91.7843765374
 20
60.0867991219
 30
0.0
 10
91.8284972335
 20
60.0929945843
 30
0.0
 10
91.9157191229
 20
60.0941931858
 30
0.0
 10
91.9987537319
 20
60.0653630403
 30
0.0
 10
92.03440418
 20
60.044780728
 30
0.0
  0
SPLINE
  5
2E7
100
AcDbEntity
  8
0
100
AcDbSpline
 62
7
  6
CONTINUOUS
 70
0
 71
3
 72
11
 73
7
 74
0
 42
0.0000001
 43
0.0000001
 44
0.0000000001
 40
0.0
 40
0.0
 40
0.0
 40
0.0
 40
0.2194889743
 40
0.4533519122
 40
0.7120857728
 40
1.0
 40
1.0
 40
1.0
 40
1.0
 10
91.9153291088
 20
105.821344138
 30
0.0
 10
91.8369736583
 20
105.8665533606
 30
0.0
 10
91.658184771
 20
105.9329339509
 30
0.0
 10
91.3611823459
 20
105.945964199
 30
0.0
 10
91.0440447336
 20
105.8774035054
 30
0.0
 10
90.8367682072
 20
105.7854517269
 30
0.0
 10
90.7324365603
 20
105.7289182821
 30
0.0
  0
SPLINE
  5
2E8
100
AcDbEntity
  8
0
100
AcDbSpline
 62
7
  6
CONTINUOUS
 70
0
 71
3
 72
11
 73
7
 74
0
 42
0.0000001
 43
0.0000001
 44
0.0000000001
 40
0.0
 40
0.0
 40
0.0
 40
0.0
 40
0.2897016594
 40
0.5490895814
 40
0.7822189142
 40
1.0
 40
1.0
 40
1.0
 40
1.0
 10
53.3823421612
 20
87.2275089557
 30
0.0
 10
53.3823421612
 20
87.3795128536
 30
0.0
 10
53.4053880259
 20
87.6685935355
 30
0.0
 10
53.5224561096
 20
88.0657781716
 30
0.0
 10
53.7195742437
 20
88.388070763
 30
0.0
 10
53.9047285139
 20
88.5437168017
 30
0.0
 10
54.0036831697
 20
88.6008579279
 30
0.0
  0
SPLINE
  5
2E9
100
AcDbEntity
  8
0
100
AcDbSpline
 62
7
  6
CONTINUOUS
 70
0
 71
3
 72
11
 73
7
 74
0
 42
0.0000001
 43
0.0000001
 44
0.0000000001
 40
0.0
 40
0.0
 40
0.0
 40
0.0
 40
0.2897016594
 40
0.5490895814
 40
0.7822189142
 40
1.0
 40
1.0
 40
1.0
 40
1.0
 10
41.0079219711
 20
94.3717221598
 30
0.0
 10
41.0079219711
 20
94.5237260577
 30
0.0
 10
41.0309678358
 20
94.8128067396
 30
0.0
 10
41.1480359195
 20
95.2099913757
 30
0.0
 10
41.3451540536
 20
95.5322839671
 30
0.0
 10
41.5303083239
 20
95.6879300058
 30
0.0
 10
41.6292629796
 20
95.745071132
 30
0.0
  0
SPLINE
  5
2EA
100
AcDbEntity
  8
0
100
AcDbSpline
 62
7
  6
CONTINUOUS
 70
0
 71
3
 72
11
 73
7
 74
0
 42
0.0000001
 43
0.0000001
 44
0.0000000001
 40
0.0
 40
0.0
 40
0.0
 40
0.0
 40
0.2897016594
 40
0.5490895814
 40
0.7822189142
 40
1.0
 40
1.0
 40
1.0
 40
1.0
 10
28.6335017811
 20
101.515935364
 30
0.0
 10
28.6335017811
 20
101.6679392618
 30
0.0
 10
28.6565476458
 20
101.9570199437
 30
0.0
 10
28.7736157294
 20
102.3542045798
 30
0.0
 10
28.9707338635
 20
102.6764971712
 30
0.0
 10
29.1558881338
 20
102.8321432099
 30
0.0
 10
29.2548427895
 20
102.8892843362
 30
0.0
  0
SPLINE
  5
2EB
100
AcDbEntity
  8
0
100
AcDbSpline
 62
7
  6
CONTINUOUS
 70
0
 71
3
 72
11
 73
7
 74
0
 42
0.0000001
 43
0.0000001
 44
0.0000000001
 40
0.0
 40
0.0
 40
0.0
 40
0.0
 40
0.2896586258
 40
0.5491345301
 40
0.7822532901
 40
1.0
 40
1.0
 40
1.0
 40
1.0
 10
78.7611870902
 20
105.9626613664
 30
0.0
 10
78.8489262209
 20
105.9120063016
 30
0.0
 10
79.008125961
 20
105.8023163931
 30
0.0
 10
79.1984433135
 20
105.6023883617
 30
0.0
 10
79.3188730458
 20
105.3811684818
 30
0.0
 10
79.3469130429
 20
105.222406712
 30
0.0
 10
79.3469436443
 20
105.1462469918
 30
0.0
  0
SPLINE
  5
2EC
100
AcDbEntity
  8
0
100
AcDbSpline
 62
7
  6
CONTINUOUS
 70
0
 71
3
 72
11
 73
7
 74
0
 42
0.0000001
 43
0.0000001
 44
0.0000000001
 40
0.0
 40
0.0
 40
0.0
 40
0.0
 40
0.2896586258
 40
0.5491345301
 40
0.7822532901
 40
1.0
 40
1.0
 40
1.0
 40
1.0
 10
66.3867669001
 20
113.1068745705
 30
0.0
 10
66.4745060308
 20
113.0562195057
 30
0.0
 10
66.633705771
 20
112.9465295972
 30
0.0
 10
66.8240231235
 20
112.7466015658
 30
0.0
 10
66.9444528558
 20
112.5253816859
 30
0.0
 10
66.9724928528
 20
112.3666199161
 30
0.0
 10
66.9725234542
 20
112.2904601959
 30
0.0
  0
SPLINE
  5
2ED
100
AcDbEntity
  8
0
100
AcDbSpline
 62
7
  6
CONTINUOUS
 70
0
 71
3
 72
11
 73
7
 74
0
 42
0.0000001
 43
0.0000001
 44
0.0000000001
 40
0.0
 40
0.0
 40
0.0
 40
0.0
 40
0.2896586258
 40
0.5491345301
 40
0.7822532901
 40
1.0
 40
1.0
 40
1.0
 40
1.0
 10
54.01234671
 20
120.2510877746
 30
0.0
 10
54.1000858408
 20
120.2004327098
 30
0.0
 10
54.2592855809
 20
120.0907428014
 30
0.0
 10
54.4496029334
 20
119.8908147699
 30
0.0
 10
54.5700326657
 20
119.66959489
 30
0.0
 10
54.5980726628
 20
119.5108331202
 30
0.0
 10
54.5981032641
 20
119.4346734
 30
0.0
  0
SPLINE
  5
2EE
100
AcDbEntity
  8
0
100
AcDbSpline
 62
7
  6
CONTINUOUS
 70
0
 71
3
 72
11
 73
7
 74
0
 42
0.0000001
 43
0.0000001
 44
0.0000000001
 40
0.0
 40
0.0
 40
0.0
 40
0.0
 40
0.2895438162
 40
0.549128132
 40
0.782268851
 40
1.0
 40
1.0
 40
1.0
 40
1.0
 10
61.6908814317
 20
22.4190314493
 30
0.0
 10
61.6908814317
 20
22.34329482
 30
0.0
 10
61.7024461953
 20
22.1991797208
 30
0.0
 10
61.760707219
 20
22.0011427849
 30
0.0
 10
61.858974521
 20
21.8403886297
 30
0.0
 10
61.9513666658
 20
21.7629183
 30
0.0
 10
62.0006914357
 20
21.7344464523
 30
0.0
  0
SPLINE
  5
2EF
100
AcDbEntity
  8
0
100
AcDbSpline
 62
7
  6
CONTINUOUS
 70
0
 71
3
 72
17
 73
13
 74
0
 42
0.0000001
 43
0.0000001
 44
0.0000000001
 40
0.0
 40
0.0
 40
0.0
 40
0.0
 40
0.1270716893
 40
0.2667038297
 40
0.4121603969
 40
0.5557145792
 40
0.689954596
 40
0.809159482
 40
0.8623737386
 40
0.9114170856
 40
0.9569170993
 40
1.0
 40
1.0
 40
1.0
 40
1.0
 10
78.7611870902
 20
105.8808086162
 30
0.0
 10
78.6182302232
 20
105.9633429347
 30
0.0
 10
78.2955306316
 20
106.0981196679
 30
0.0
 10
77.7691453738
 20
106.2084708047
 30
0.0
 10
77.2103017881
 20
106.2315213478
 30
0.0
 10
76.661874823
 20
106.1652464655
 30
0.0
 10
76.165735763
 20
106.0148540189
 30
0.0
 10
75.8126890823
 20
105.8206243513
 30
0.0
 10
75.595760825
 20
105.6300316115
 30
0.0
 10
75.4739426991
 20
105.4802935651
 30
0.0
 10
75.3900031118
 20
105.3210081056
 30
0.0
 10
75.3603014493
 20
105.2085023459
 30
0.0
 10
75.352902093
 20
105.1530271491
 30
0.0
  0
SPLINE
  5
2F0
100
AcDbEntity
  8
0
100
AcDbSpline
 62
7
  6
CONTINUOUS
 70
0
 71
3
 72
17
 73
13
 74
0
 42
0.0000001
 43
0.0000001
 44
0.0000000001
 40
0.0
 40
0.0
 40
0.0
 40
0.0
 40
0.0428592926
 40
0.087485474
 40
0.1353198781
 40
0.1872819044
 40
0.3045421965
 40
0.4382074305
 40
0.582548911
 40
0.7297129633
 40
0.8713059682
 40
1.0
 40
1.0
 40
1.0
 40
1.0
 10
57.0036595036
 20
28.6990535087
 30
0.0
 10
56.9297029197
 20
28.6563474585
 30
0.0
 10
56.7666524015
 20
28.5886431207
 30
0.0
 10
56.4975520014
 20
28.5491444092
 30
0.0
 10
56.2085464827
 20
28.5704376392
 30
0.0
 10
55.7886282527
 20
28.682122058
 30
0.0
 10
55.2518279429
 20
28.9756477297
 30
0.0
 10
54.6587488946
 20
29.5008806554
 30
0.0
 10
54.1344686965
 20
30.1719098975
 30
0.0
 10
53.7218666384
 20
30.9345422991
 30
0.0
 10
53.4540754544
 20
31.7262219073
 30
0.0
 10
53.3823421612
 20
32.2654116427
 30
0.0
 10
53.3823421612
 20
32.5218470081
 30
0.0
  0
SPLINE
  5
2F1
100
AcDbEntity
  8
0
100
AcDbSpline
 62
7
  6
CONTINUOUS
 70
0
 71
3
 72
17
 73
13
 74
0
 42
0.0000001
 43
0.0000001
 44
0.0000000001
 40
0.0
 40
0.0
 40
0.0
 40
0.0
 40
0.1270716893
 40
0.2667038297
 40
0.4121603969
 40
0.5557145792
 40
0.689954596
 40
0.809159482
 40
0.8623737386
 40
0.9114170856
 40
0.9569170993
 40
1.0
 40
1.0
 40
1.0
 40
1.0
 10
66.3867669001
 20
113.0250218203
 30
0.0
 10
66.2438100331
 20
113.1075561388
 30
0.0
 10
65.9211104416
 20
113.242332872
 30
0.0
 10
65.3947251837
 20
113.3526840088
 30
0.0
 10
64.8358815981
 20
113.3757345519
 30
0.0
 10
64.2874546329
 20
113.3094596696
 30
0.0
 10
63.7913155729
 20
113.159067223
 30
0.0
 10
63.4382688923
 20
112.9648375554
 30
0.0
 10
63.221340635
 20
112.7742448156
 30
0.0
 10
63.099522509
 20
112.6245067692
 30
0.0
 10
63.0155829217
 20
112.4652213097
 30
0.0
 10
62.9858812592
 20
112.35271555
 30
0.0
 10
62.9784819029
 20
112.2972403532
 30
0.0
  0
SPLINE
  5
2F2
100
AcDbEntity
  8
0
100
AcDbSpline
 62
7
  6
CONTINUOUS
 70
0
 71
3
 72
17
 73
13
 74
0
 42
0.0000001
 43
0.0000001
 44
0.0000000001
 40
0.0
 40
0.0
 40
0.0
 40
0.0
 40
0.1270716893
 40
0.2667038297
 40
0.4121603969
 40
0.5557145792
 40
0.689954596
 40
0.809159482
 40
0.8623737386
 40
0.9114170856
 40
0.9569170993
 40
1.0
 40
1.0
 40
1.0
 40
1.0
 10
54.01234671
 20
120.1692350244
 30
0.0
 10
53.869389843
 20
120.2517693429
 30
0.0
 10
53.5466902515
 20
120.3865460761
 30
0.0
 10
53.0203049936
 20
120.4968972129
 30
0.0
 10
52.461461408
 20
120.519947756
 30
0.0
 10
51.9130344428
 20
120.4536728737
 30
0.0
 10
51.4168953828
 20
120.3032804271
 30
0.0
 10
51.0638487022
 20
120.1090507595
 30
0.0
 10
50.8469204449
 20
119.9184580197
 30
0.0
 10
50.725102319
 20
119.7687199734
 30
0.0
 10
50.6411627316
 20
119.6094345138
 30
0.0
 10
50.6114610691
 20
119.4969287541
 30
0.0
 10
50.6040617128
 20
119.4414535573
 30
0.0
  0
SPLINE
  5
2F3
100
AcDbEntity
  8
0
100
AcDbSpline
 62
7
  6
CONTINUOUS
 70
0
 71
3
 72
9
 73
5
 74
0
 42
0.0000001
 43
0.0000001
 44
0.0000000001
 40
0.0
 40
0.0
 40
0.0
 40
0.0
 40
0.2726406889
 40
1.0
 40
1.0
 40
1.0
 40
1.0
 10
87.2111241651
 20
53.7267698621
 30
0.0
 10
87.2111241651
 20
53.7952670459
 30
0.0
 10
87.2001955737
 20
54.045929417
 30
0.0
 10
87.1417470583
 20
54.2978500075
 30
0.0
 10
87.0615882215
 20
54.4620695952
 30
0.0
  0
SPLINE
  5
2F4
100
AcDbEntity
  8
0
100
AcDbSpline
 62
7
  6
CONTINUOUS
 70
0
 71
3
 72
9
 73
5
 74
0
 42
0.0000001
 43
0.0000001
 44
0.0000000001
 40
0.0
 40
0.0
 40
0.0
 40
0.0
 40
0.2554774273
 40
1.0
 40
1.0
 40
1.0
 40
1.0
 10
87.0615882215
 20
54.4620695952
 30
0.0
 10
87.0549001573
 20
54.4757712804
 30
0.0
 10
87.0276916415
 20
54.528890458
 30
0.0
 10
86.9962580737
 20
54.5798743916
 30
0.0
 10
86.9704614215
 20
54.6160520389
 30
0.0
  0
SPLINE
  5
2F5
100
AcDbEntity
  8
0
100
AcDbSpline
 62
7
  6
CONTINUOUS
 70
0
 71
3
 72
15
 73
11
 74
0
 42
0.0000001
 43
0.0000001
 44
0.0000000001
 40
0.0
 40
0.0
 40
0.0
 40
0.0
 40
0.1141229605
 40
0.2373462928
 40
0.366971064
 40
0.4999983279
 40
0.633025824
 40
0.762651271
 40
0.8858756957
 40
1.0
 40
1.0
 40
1.0
 40
1.0
 10
85.4433645721
 20
46.5823913489
 30
0.0
 10
85.5643481754
 20
46.6522408479
 30
0.0
 10
85.8033660377
 20
46.8198565906
 30
0.0
 10
86.1323100585
 20
47.1274995766
 30
0.0
 10
86.4353819403
 20
47.4912986755
 30
0.0
 10
86.7012866669
 20
47.8973651589
 30
0.0
 10
86.9199964905
 20
48.3306804295
 30
0.0
 10
87.0835188602
 20
48.7750508706
 30
0.0
 10
87.1854732344
 20
49.2137501851
 30
0.0
 10
87.2111241651
 20
49.504556508
 30
0.0
 10
87.2111241651
 20
49.6442577764
 30
0.0
  0
SPLINE
  5
2F6
100
AcDbEntity
  8
0
100
AcDbSpline
 62
7
  6
CONTINUOUS
 70
0
 71
3
 72
11
 73
7
 74
0
 42
0.0000001
 43
0.0000001
 44
0.0000000001
 40
0.0
 40
0.0
 40
0.0
 40
0.0
 40
0.289553961
 40
0.5491165647
 40
0.7822512711
 40
1.0
 40
1.0
 40
1.0
 40
1.0
 10
54.9748492059
 20
35.0355032906
 30
0.0
 10
54.9748492059
 20
34.9595579762
 30
0.0
 10
54.9864383968
 20
34.8150530322
 30
0.0
 10
55.0448652222
 20
34.616483401
 30
0.0
 10
55.1433989268
 20
34.4552972244
 30
0.0
 10
55.2360323283
 20
34.3776019063
 30
0.0
 10
55.2854904528
 20
34.3490419612
 30
0.0
  0
SPLINE
  5
2F7
100
AcDbEntity
  8
0
100
AcDbSpline
 62
7
  6
CONTINUOUS
 70
0
 71
3
 72
11
 73
7
 74
0
 42
0.0000001
 43
0.0000001
 44
0.0000000001
 40
0.0
 40
0.0
 40
0.0
 40
0.0
 40
0.2177825102
 40
0.4509091639
 40
0.7102957096
 40
1.0
 40
1.0
 40
1.0
 40
1.0
 10
74.6018668089
 20
83.5714207834
 30
0.0
 10
74.6843334122
 20
83.5238097353
 30
0.0
 10
74.8386252509
 20
83.394098102
 30
0.0
 10
75.0028869817
 20
83.1255232391
 30
0.0
 10
75.1004487342
 20
82.7945381907
 30
0.0
 10
75.1196538479
 20
82.55363715
 30
0.0
 10
75.1196538479
 20
82.4269662173
 30
0.0
  0
SPLINE
  5
2F8
100
AcDbEntity
  8
0
100
AcDbSpline
 62
7
  6
CONTINUOUS
 70
0
 71
3
 72
12
 73
8
 74
0
 42
0.0000001
 43
0.0000001
 44
0.0000000001
 40
0.0
 40
0.0
 40
0.0
 40
0.0
 40
0.2895779637
 40
0.5486418849
 40
0.7816446961
 40
0.8918350775
 40
1.0
 40
1.0
 40
1.0
 40
1.0
 10
49.3192431209
 20
57.0804523713
 30
0.0
 10
49.3192431209
 20
56.827080001
 30
0.0
 10
49.3576450417
 20
56.3453180941
 30
0.0
 10
49.5524211976
 20
55.6837732901
 30
0.0
 10
49.8323819284
 20
55.2273672123
 30
0.0
 10
50.115046646
 20
54.9493170413
 30
0.0
 10
50.2726162168
 20
54.8393331126
 30
0.0
 10
50.3545789364
 20
54.7920143293
 30
0.0
  0
SPLINE
  5
2F9
100
AcDbEntity
  8
0
100
AcDbSpline
 62
7
  6
CONTINUOUS
 70
0
 71
3
 72
13
 73
9
 74
0
 42
0.0000001
 43
0.0000001
 44
0.0000000001
 40
0.0
 40
0.0
 40
0.0
 40
0.0
 40
0.114175582
 40
0.23756922
 40
0.49999856
 40
0.7624286893
 40
0.8858231943
 40
1.0
 40
1.0
 40
1.0
 40
1.0
 10
50.3796692617
 20
67.7376619083
 30
0.0
 10
50.3071266351
 20
67.6957796533
 30
0.0
 10
50.1637613939
 20
67.5951807741
 30
0.0
 10
49.8951809508
 20
67.3440425472
 30
0.0
 10
49.611745317
 20
66.9565457021
 30
0.0
 10
49.4178832531
 20
66.5173332602
 30
0.0
 10
49.3346817774
 20
66.1591644226
 30
0.0
 10
49.3192431209
 20
65.9847055416
 30
0.0
 10
49.3192431209
 20
65.9009397588
 30
0.0
  0
SPLINE
  5
2FA
100
AcDbEntity
  8
0
100
AcDbSpline
 62
7
  6
CONTINUOUS
 70
0
 71
3
 72
11
 73
7
 74
0
 42
0.0000001
 43
0.0000001
 44
0.0000000001
 40
0.0
 40
0.0
 40
0.0
 40
0.0
 40
0.2177651606
 40
0.4508956102
 40
0.7103690052
 40
1.0
 40
1.0
 40
1.0
 40
1.0
 10
87.0797252832
 20
70.8907169616
 30
0.0
 10
87.1456779586
 20
70.8526050871
 30
0.0
 10
87.2691779893
 20
70.748937531
 30
0.0
 10
87.4005696549
 20
70.5340092161
 30
0.0
 10
87.4785711593
 20
70.2692135606
 30
0.0
 10
87.4939709992
 20
70.0764916691
 30
0.0
 10
87.4939709992
 20
69.9751808989
 30
0.0
  0
SPLINE
  5
2FB
100
AcDbEntity
  8
0
100
AcDbSpline
 62
7
  6
CONTINUOUS
 70
0
 71
3
 72
17
 73
13
 74
0
 42
0.0000001
 43
0.0000001
 44
0.0000000001
 40
0.0
 40
0.0
 40
0.0
 40
0.0
 40
0.0428592926
 40
0.087485474
 40
0.1353198781
 40
0.1872819044
 40
0.3045421965
 40
0.4382074305
 40
0.582548911
 40
0.7297129633
 40
0.8713059682
 40
1.0
 40
1.0
 40
1.0
 40
1.0
 10
32.2548191235
 20
97.6931418646
 30
0.0
 10
32.1808625396
 20
97.6504358144
 30
0.0
 10
32.0178120213
 20
97.5827314766
 30
0.0
 10
31.7487116212
 20
97.5432327651
 30
0.0
 10
31.4597061025
 20
97.5645259951
 30
0.0
 10
31.0397878726
 20
97.6762104139
 30
0.0
 10
30.5029875628
 20
97.9697360856
 30
0.0
 10
29.9099085144
 20
98.4949690113
 30
0.0
 10
29.3856283163
 20
99.1659982534
 30
0.0
 10
28.9730262582
 20
99.928630655
 30
0.0
 10
28.7052350743
 20
100.7203102632
 30
0.0
 10
28.6335017811
 20
101.2594999985
 30
0.0
 10
28.6335017811
 20
101.515935364
 30
0.0
  0
SPLINE
  5
2FC
100
AcDbEntity
  8
0
100
AcDbSpline
 62
7
  6
CONTINUOUS
 70
0
 71
3
 72
10
 73
6
 74
0
 42
0.0000001
 43
0.0000001
 44
0.0000000001
 40
0.0
 40
0.0
 40
0.0
 40
0.0
 40
0.4620294686
 40
0.7214605962
 40
1.0
 40
1.0
 40
1.0
 40
1.0
 10
68.2895895899
 20
77.4550799115
 30
0.0
 10
68.4326434232
 20
77.4413362543
 30
0.0
 10
68.6615756512
 20
77.4685853647
 30
0.0
 10
68.9550428045
 20
77.5722293418
 30
0.0
 10
69.1049449527
 20
77.6479765801
 30
0.0
 10
69.1799763162
 20
77.6912956995
 30
0.0
  0
SPLINE
  5
2FD
100
AcDbEntity
  8
0
100
AcDbSpline
 62
7
  6
CONTINUOUS
 70
0
 71
3
 72
11
 73
7
 74
0
 42
0.0000001
 43
0.0000001
 44
0.0000000001
 40
0.0
 40
0.0
 40
0.0
 40
0.0
 40
0.2851045035
 40
0.5511366882
 40
0.7924787389
 40
1.0
 40
1.0
 40
1.0
 40
1.0
 10
46.2395197978
 20
57.1677597981
 30
0.0
 10
46.079590916
 20
57.1407391772
 30
0.0
 10
45.7711842202
 20
57.0834781754
 30
0.0
 10
45.3334873979
 20
56.973850814
 30
0.0
 10
44.9469963165
 20
56.8460859714
 30
0.0
 10
44.7127581062
 20
56.7424525845
 30
0.0
 10
44.6089027003
 20
56.686311175
 30
0.0
  0
SPLINE
  5
2FE
100
AcDbEntity
  8
0
100
AcDbSpline
 62
7
  6
CONTINUOUS
 70
0
 71
3
 72
11
 73
7
 74
0
 42
0.0000001
 43
0.0000001
 44
0.0000000001
 40
0.0
 40
0.0
 40
0.0
 40
0.0
 40
0.2331804377
 40
0.4794578894
 40
0.7362826709
 40
1.0
 40
1.0
 40
1.0
 40
1.0
 10
49.7191364396
 20
55.158848126
 30
0.0
 10
49.7667004094
 20
55.0045509909
 30
0.0
 10
49.8759820305
 20
54.6908307133
 30
0.0
 10
50.0652791585
 20
54.21730504
 30
0.0
 10
50.2851007745
 20
53.7337493693
 30
0.0
 10
50.4543537102
 20
53.4150443787
 30
0.0
 10
50.5471315824
 20
53.2577629474
 30
0.0
  0
SPLINE
  5
2FF
100
AcDbEntity
  8
0
100
AcDbSpline
 62
7
  6
CONTINUOUS
 70
0
 71
3
 72
11
 73
7
 74
0
 42
0.0000001
 43
0.0000001
 44
0.0000000001
 40
0.0
 40
0.0
 40
0.0
 40
0.0
 40
0.2851045035
 40
0.5511366882
 40
0.7924787389
 40
1.0
 40
1.0
 40
1.0
 40
1.0
 10
33.8650996077
 20
64.3119730022
 30
0.0
 10
33.705170726
 20
64.2849523813
 30
0.0
 10
33.3967640301
 20
64.2276913796
 30
0.0
 10
32.9590672078
 20
64.1180640181
 30
0.0
 10
32.5725761265
 20
63.9902991755
 30
0.0
 10
32.3383379161
 20
63.8866657886
 30
0.0
 10
32.2344825102
 20
63.8305243791
 30
0.0
  0
SPLINE
  5
300
100
AcDbEntity
  8
0
100
AcDbSpline
 62
7
  6
CONTINUOUS
 70
0
 71
3
 72
11
 73
7
 74
0
 42
0.0000001
 43
0.0000001
 44
0.0000000001
 40
0.0
 40
0.0
 40
0.0
 40
0.0
 40
0.2331804377
 40
0.4794578894
 40
0.7362826709
 40
1.0
 40
1.0
 40
1.0
 40
1.0
 10
37.3447162495
 20
62.3030613301
 30
0.0
 10
37.3922802193
 20
62.148764195
 30
0.0
 10
37.5015618404
 20
61.8350439174
 30
0.0
 10
37.6908589684
 20
61.3615182441
 30
0.0
 10
37.9106805844
 20
60.8779625734
 30
0.0
 10
38.0799335201
 20
60.5592575828
 30
0.0
 10
38.1727113923
 20
60.4019761515
 30
0.0
  0
SPLINE
  5
301
100
AcDbEntity
  8
0
100
AcDbSpline
 62
7
  6
CONTINUOUS
 70
0
 71
3
 72
11
 73
7
 74
0
 42
0.0000001
 43
0.0000001
 44
0.0000000001
 40
0.0
 40
0.0
 40
0.0
 40
0.0
 40
0.2851045035
 40
0.5511366882
 40
0.7924787389
 40
1.0
 40
1.0
 40
1.0
 40
1.0
 10
21.4906794176
 20
71.4561862063
 30
0.0
 10
21.3307505359
 20
71.4291655854
 30
0.0
 10
21.02234384
 20
71.3719045837
 30
0.0
 10
20.5846470177
 20
71.2622772223
 30
0.0
 10
20.1981559364
 20
71.1345123796
 30
0.0
 10
19.9639177261
 20
71.0308789927
 30
0.0
 10
19.8600623201
 20
70.9747375832
 30
0.0
  0
SPLINE
  5
302
100
AcDbEntity
  8
0
100
AcDbSpline
 62
7
  6
CONTINUOUS
 70
0
 71
3
 72
11
 73
7
 74
0
 42
0.0000001
 43
0.0000001
 44
0.0000000001
 40
0.0
 40
0.0
 40
0.0
 40
0.0
 40
0.2331804377
 40
0.4794578894
 40
0.7362826709
 40
1.0
 40
1.0
 40
1.0
 40
1.0
 10
24.9702960594
 20
69.4472745342
 30
0.0
 10
25.0178600292
 20
69.2929773991
 30
0.0
 10
25.1271416504
 20
68.9792571215
 30
0.0
 10
25.3164387783
 20
68.5057314482
 30
0.0
 10
25.5362603943
 20
68.0221757775
 30
0.0
 10
25.70551333
 20
67.7034707869
 30
0.0
 10
25.7982912022
 20
67.5461893557
 30
0.0
  0
SPLINE
  5
303
100
AcDbEntity
  8
0
100
AcDbSpline
 62
7
  6
CONTINUOUS
 70
0
 71
3
 72
17
 73
13
 74
0
 42
0.0000001
 43
0.0000001
 44
0.0000000001
 40
0.0
 40
0.0
 40
0.0
 40
0.0
 40
0.0428592926
 40
0.087485474
 40
0.1353198781
 40
0.1872819044
 40
0.3045421965
 40
0.4382074305
 40
0.582548911
 40
0.7297129633
 40
0.8713059682
 40
1.0
 40
1.0
 40
1.0
 40
1.0
 10
44.6292393136
 20
90.5489286605
 30
0.0
 10
44.5552827296
 20
90.5062226103
 30
0.0
 10
44.3922322114
 20
90.4385182725
 30
0.0
 10
44.1231318113
 20
90.399019561
 30
0.0
 10
43.8341262926
 20
90.420312791
 30
0.0
 10
43.4142080626
 20
90.5319972098
 30
0.0
 10
42.8774077528
 20
90.8255228815
 30
0.0
 10
42.2843287045
 20
91.3507558072
 30
0.0
 10
41.7600485064
 20
92.0217850493
 30
0.0
 10
41.3474464483
 20
92.7844174509
 30
0.0
 10
41.0796552643
 20
93.5760970591
 30
0.0
 10
41.0079219711
 20
94.1152867944
 30
0.0
 10
41.0079219711
 20
94.3717221598
 30
0.0
  0
SPLINE
  5
304
100
AcDbEntity
  8
0
100
AcDbSpline
 62
7
  6
CONTINUOUS
 70
0
 71
3
 72
11
 73
7
 74
0
 42
0.0000001
 43
0.0000001
 44
0.0000000001
 40
0.0
 40
0.0
 40
0.0
 40
0.0
 40
0.2176899422
 40
0.4508856506
 40
0.7106204681
 40
1.0
 40
1.0
 40
1.0
 40
1.0
 10
57.2349241636
 20
44.5092779182
 30
0.0
 10
57.2679102057
 20
44.4902671309
 30
0.0
 10
57.3296322
 20
44.4383970974
 30
0.0
 10
57.3954068329
 20
44.3309351053
 30
0.0
 10
57.4342781508
 20
44.1984832025
 30
0.0
 10
57.4420579176
 20
44.1021390461
 30
0.0
 10
57.4420579176
 20
44.0515289795
 30
0.0
  0
ELLIPSE
  5
305
100
AcDbEntity
  8
0
100
AcDbEllipse
 62
7
  6
CONTINUOUS
 10
58.135019678
 20
68.0077029845
 30
0.0
 11
0.4999995164
 21
0.8660303017
 31
0.0
 40
0.5773519923
 41
0.0
 42
6.2831853072
  0
ENDSEC
  0
SECTION
  2
OBJECTS
  0
DICTIONARY
  5
C
100
AcDbDictionary
280
0
281
1
  3
ACAD_GROUP
350
D
  3
ACAD_MLINESTYLE
350
17
  3
ACAD_LAYOUT
350
1A
  3
ACAD_PLOTSETTINGS
350
19
  3
ACAD_PLOTSTYLENAME
350
E
  0
DICTIONARY
  5
D
102
{ACAD_REACTORS
330
C
102
}
100
AcDbDictionary
280
0
281
1
  0
ACDBDICTIONARYWDFLT
  5
E
102
{ACAD_REACTORS
330
C
102
}
100
AcDbDictionary
281
1
  3
Normal
350
F
100
AcDbDictionaryWithDefault
340
F
  0
DICTIONARY
  5
17
102
{ACAD_REACTORS
330
C
102
}
100
AcDbDictionary
280
0
281
1
  3
Standard
350
18
  0
DICTIONARY
  5
19
102
{ACAD_REACTORS
330
C
102
}
100
AcDbDictionary
281
1
  0
DICTIONARY
  5
1A
102
{ACAD_REACTORS
330
C
102
}
100
AcDbDictionary
281
1
  3
Model
350
306
  3
Layout1
350
307
  0
ACDBPLACEHOLDER
  5
F
102
{ACAD_REACTORS
330
E
102
}
  0
MLINESTYLE
  5
18
102
{ACAD_REACTORS
330
17
102
}
100
AcDbMlineStyle
  2
STANDARD
 70
0
  3

 62
256
 51
90.0
 52
90.0
 71
2
 49
0.5
 62
256
  6
BYLAYER
 49
-0.5
 62
256
  6
BYLAYER
  0
LAYOUT
  5
306
102
{ACAD_REACTORS
330
1A
102
}
100
AcDbPlotSettings
  1

  2
none_device
  4

  6

 40
0.0
 41
0.0
 42
0.0
 43
0.0
 44
210.0
 45
297.0
 46
0.0
 47
0.0
 48
0.0
 49
0.0
140
0.0
141
0.0
142
1.0
143
1.0
 70
1024
 72
1
 73
0
 74
0
  7

 75
0
147
1.0
148
0.0
149
0.0
100
AcDbLayout
  1
Model
 70
0
 71
0
 10
0.0
 20
0.0
 11
210.0
 21
297.0
 12
0.0
 22
0.0
 32
0.0
 14
0.0
 24
0.0
 34
0.0
 15
0.0
 25
0.0
 35
0.0
146
0.0
 13
0.0
 23
0.0
 33
0.0
 16
1.0
 26
0.0
 36
0.0
 17
0.0
 27
1.0
 37
0.0
 76
0
330
210
345
0
346
0
  0
LAYOUT
  5
307
102
{ACAD_REACTORS
330
1A
102
}
100
AcDbPlotSettings
  1

  2
none_device
  4

  6

 40
0.0
 41
0.0
 42
0.0
 43
0.0
 44
210.0
 45
297.0
 46
0.0
 47
0.0
 48
0.0
 49
0.0
140
0.0
141
0.0
142
1.0
143
1.0
 70
0
 72
1
 73
0
 74
0
  7

 75
0
147
1.0
148
0.0
149
0.0
100
AcDbLayout
  1
Layout1
 70
0
 71
1
 10
0.0
 20
0.0
 11
210.0
 21
297.0
 12
0.0
 22
0.0
 32
0.0
 14
0.0
 24
0.0
 34
0.0
 15
0.0
 25
0.0
 35
0.0
146
0.0
 13
0.0
 23
0.0
 33
0.0
 16
1.0
 26
0.0
 36
0.0
 17
0.0
 27
1.0
 37
0.0
 76
0
330
211
345
0
346
0
  0
ENDSEC
  0
EOF
