999
DXF file: C:\Users\sesa63760\Dev\_Creo\CAD\MCADPE0010589_3D-CAD\drw0001_4.dxf
999
Pro/ENGINEER 2019471 by Parametric Technology Corporation
  0
SECTION
  2
HEADER
  9
$ACADVER
  1
AC1024
  9
$DWGCODEPAGE
  3
ANSI_1252
  9
$EXTMAX
 10
40.8608361679
 20
57.7888968661
 30
0.0
  9
$EXTMIN
 10
0.0
 20
0.0
 30
0.0
  9
$LIMMIN
 10
0.0
 20
0.0
  9
$LIMMAX
 10
40.8608361679
 20
57.7888968661
  9
$VIEWCTR
 10
20.430418084
 20
28.894448433
  9
$VIEWSIZE
 40
57.7888968661
  9
$CLAYER
  8
0
  9
$LTSCALE
 40
3.7669799439
  9
$CELTYPE
  6
BYLAYER
  9
$DIMSCALE
 40
1.0
  9
$DIMASZ
 40
0.4864385258
  9
$DIMEXO
 40
1.0
  9
$DIMDLI
 40
2.6026406885
  9
$DIMEXE
 40
1.0
  9
$DIMCEN
 40
0.6164148999
  9
$DIMLFAC
 40
1.0
  9
$DIMBLK
  1
_FILLED
  9
$DIMALT
 70
0
  9
$DIMALTF
 40
0.0393700787
  9
$DIMTXT
 40
0.6810139361
  9
$DIMTOL
 70
1
  9
$DIMLIM
 70
0
  9
$DIMTFAC
 40
1.0
  9
$DIMTP
 40
0.01
  9
$DIMTM
 40
0.01
  9
$DIMGAP
 40
0.625
  9
$DIMDSEP
 70
46
  9
$AUNITS
 70
0
  9
$PDMODE
 70
3
  9
$PDSIZE
 40
0.3125
  9
$HANDSEED
  5
2A8
  9
$TILEMODE
 70
1
  9
$MEASUREMENT
 70
1
  9
$INSUNITS
 70
4
  0
ENDSEC
  0
SECTION
  2
CLASSES
  0
CLASS
  1
ACDBDICTIONARYWDFLT
  2
AcDbDictionaryWithDefault
  3
AutoCAD 2000
 90
0
 91
1
280
0
281
0
  0
CLASS
  1
ACDBPLACEHOLDER
  2
AcDbPlaceHolder
  3
AutoCAD 2000
 90
0
 91
1
280
0
281
0
  0
CLASS
  1
LAYOUT
  2
AcDbLayout
  3
AutoCAD 2000
 90
0
 91
0
280
0
281
0
  0
ENDSEC
  0
SECTION
  2
TABLES
  0
TABLE
  2
VPORT
  5
8
100
AcDbSymbolTable
 70
2
  0
VPORT
  5
1F4
100
AcDbSymbolTableRecord
100
AcDbViewportTableRecord
  2
*ACTIVE
 70
0
 10
0.0
 20
0.0
 11
1.0
 21
1.0
 12
20.430418084
 22
28.894448433
 13
0.0
 23
0.0
 14
1.0
 24
1.0
 15
0.0
 25
0.0
 16
0.0
 26
0.0
 36
1.0
 17
0.0
 27
0.0
 37
0.0
 40
57.7888968661
 41
0.7070707071
 42
50.0
 43
0.0
 44
0.0
 50
0.0
 51
0.0
 71
0
 72
100
 73
1
 74
1
 75
0
 76
0
 77
0
 78
0
  0
ENDTAB
  0
TABLE
  2
LTYPE
  5
5
100
AcDbSymbolTable
 70
6
  0
LTYPE
  5
14
100
AcDbSymbolTableRecord
100
AcDbLinetypeTableRecord
  2
BYBLOCK
 70
0
  3

 72
65
 73
0
 40
0.0
  0
LTYPE
  5
15
100
AcDbSymbolTableRecord
100
AcDbLinetypeTableRecord
  2
BYLAYER
 70
0
  3

 72
65
 73
0
 40
0.0
  0
LTYPE
  5
16
100
AcDbSymbolTableRecord
100
AcDbLinetypeTableRecord
  2
CONTINUOUS
 70
64
  3
Solid line
 72
65
 73
0
 40
0.0
  0
LTYPE
  5
1F5
100
AcDbSymbolTableRecord
100
AcDbLinetypeTableRecord
  2
CENTER
 70
64
  3
____ _ ____ _ ____ _ ____ _ ____ _ ____ _ ____
 72
65
 73
4
 40
0.6
 49
0.375
 74
0
 49
-0.075
 74
0
 49
0.075
 74
0
 49
-0.075
 74
0
  0
LTYPE
  5
1F6
100
AcDbSymbolTableRecord
100
AcDbLinetypeTableRecord
  2
HIDDEN
 70
64
  3
- - - - - - - - - - - - - - - - - - - -
 72
65
 73
2
 40
0.2
 49
0.1
 74
0
 49
-0.1
 74
0
  0
LTYPE
  5
1F7
100
AcDbSymbolTableRecord
100
AcDbLinetypeTableRecord
  2
PHANTOM
 70
64
  3
_____ _ _ _____ _ _ _____ _ _ _____
 72
65
 73
6
 40
0.8
 49
0.45
 74
0
 49
-0.05
 74
0
 49
0.1
 74
0
 49
-0.05
 74
0
 49
0.1
 74
0
 49
-0.05
 74
0
  0
LTYPE
  5
1F8
100
AcDbSymbolTableRecord
100
AcDbLinetypeTableRecord
  2
DOT
 70
64
  3
. . . . . . . . . . . . . . . . . . . .
 72
65
 73
2
 40
0.2
 49
0.1
 74
0
 49
-0.1
 74
0
  0
LTYPE
  5
1F9
100
AcDbSymbolTableRecord
100
AcDbLinetypeTableRecord
  2
DASHED
 70
64
  3
- - - - - - - - - - - - - - - - - - - -
 72
65
 73
2
 40
0.2
 49
0.1
 74
0
 49
-0.1
 74
0
  0
ENDTAB
  0
TABLE
  2
LAYER
  5
2
100
AcDbSymbolTable
 70
36
  0
LAYER
  5
10
100
AcDbSymbolTableRecord
100
AcDbLayerTableRecord
  2
0
 70
0
 62
7
  6
CONTINUOUS
370
-3
390
F
  0
LAYER
  5
1FA
100
AcDbSymbolTableRecord
100
AcDbLayerTableRecord
  2
DEFAULT_1
 70
0
 62
7
  6
CENTER
370
-3
390
F
  0
LAYER
  5
1FB
100
AcDbSymbolTableRecord
100
AcDbLayerTableRecord
  2
DEFAULT_2
 70
0
 62
7
  6
HIDDEN
370
-3
390
F
  0
LAYER
  5
1FC
100
AcDbSymbolTableRecord
100
AcDbLayerTableRecord
  2
DEFAULT_3
 70
0
 62
7
  6
PHANTOM
370
-3
390
F
  0
LAYER
  5
1FD
100
AcDbSymbolTableRecord
100
AcDbLayerTableRecord
  2
00_COMPONENTS
 70
0
 62
7
  6
CONTINUOUS
370
-3
390
F
  0
LAYER
  5
1FE
100
AcDbSymbolTableRecord
100
AcDbLayerTableRecord
  2
01_1_DEFAULT_DATUMS
 70
0
 62
7
  6
CONTINUOUS
370
-3
390
F
  0
LAYER
  5
1FF
100
AcDbSymbolTableRecord
100
AcDbLayerTableRecord
  2
01_PLANES
 70
0
 62
7
  6
CONTINUOUS
370
-3
390
F
  0
LAYER
  5
200
100
AcDbSymbolTableRecord
100
AcDbLayerTableRecord
  2
02_COORD_SYS
 70
0
 62
7
  6
CONTINUOUS
370
-3
390
F
  0
LAYER
  5
201
100
AcDbSymbolTableRecord
100
AcDbLayerTableRecord
  2
03_AXES
 70
0
 62
7
  6
CONTINUOUS
370
-3
390
F
  0
LAYER
  5
202
100
AcDbSymbolTableRecord
100
AcDbLayerTableRecord
  2
04_POINTS
 70
0
 62
7
  6
CONTINUOUS
370
-3
390
F
  0
LAYER
  5
203
100
AcDbSymbolTableRecord
100
AcDbLayerTableRecord
  2
05_CURVES
 70
0
 62
7
  6
CONTINUOUS
370
-3
390
F
  0
LAYER
  5
204
100
AcDbSymbolTableRecord
100
AcDbLayerTableRecord
  2
06_SURFS
 70
0
 62
7
  6
CONTINUOUS
370
-3
390
F
  0
LAYER
  5
205
100
AcDbSymbolTableRecord
100
AcDbLayerTableRecord
  2
07_COSMETICS
 70
0
 62
7
  6
CONTINUOUS
370
-3
390
F
  0
LAYER
  5
206
100
AcDbSymbolTableRecord
100
AcDbLayerTableRecord
  2
10_NOTES
 70
0
 62
7
  6
CONTINUOUS
370
-3
390
F
  0
LAYER
  5
207
100
AcDbSymbolTableRecord
100
AcDbLayerTableRecord
  2
11_NOTES_PUB
 70
0
 62
7
  6
CONTINUOUS
370
-3
390
F
  0
LAYER
  5
208
100
AcDbSymbolTableRecord
100
AcDbLayerTableRecord
  2
13_REF_GTOL
 70
0
 62
7
  6
CONTINUOUS
370
-3
390
F
  0
LAYER
  5
209
100
AcDbSymbolTableRecord
100
AcDbLayerTableRecord
  2
16_MISC
 70
0
 62
7
  6
CONTINUOUS
370
-3
390
F
  0
LAYER
  5
20A
100
AcDbSymbolTableRecord
100
AcDbLayerTableRecord
  2
17_NO_PRINT
 70
0
 62
7
  6
CONTINUOUS
370
-3
390
F
  0
LAYER
  5
20B
100
AcDbSymbolTableRecord
100
AcDbLayerTableRecord
  2
18_DATUM_CAMS_JOINTS
 70
0
 62
7
  6
CONTINUOUS
370
-3
390
F
  0
LAYER
  5
20C
100
AcDbSymbolTableRecord
100
AcDbLayerTableRecord
  2
19_DATUM_FUNCTIONAL
 70
0
 62
7
  6
CONTINUOUS
370
-3
390
F
  0
LAYER
  5
20D
100
AcDbSymbolTableRecord
100
AcDbLayerTableRecord
  2
20_DATUM_KINEMATIC_SCHEME
 70
0
 62
7
  6
CONTINUOUS
370
-3
390
F
  0
ENDTAB
  0
TABLE
  2
STYLE
  5
3
100
AcDbSymbolTable
 70
1
  0
STYLE
  5
11
100
AcDbSymbolTableRecord
100
AcDbTextStyleTableRecord
  2
STANDARD
 70
0
 40
0.0
 41
1.0
 50
0.0
 71
0
 42
0.2
  3
ARIAL.TTF
  4

  0
STYLE
  5
20E
100
AcDbSymbolTableRecord
100
AcDbTextStyleTableRecord
  2
TEXTSTYLE_1
 70
0
 40
0.0
 41
0.8
 50
0.0
 71
0
 42
0.2
  3
gdt
  4

  0
ENDTAB
  0
TABLE
  2
VIEW
  5
6
100
AcDbSymbolTable
 70
0
  0
ENDTAB
  0
TABLE
  2
UCS
  5
7
100
AcDbSymbolTable
 70
0
  0
ENDTAB
  0
TABLE
  2
APPID
  5
9
100
AcDbSymbolTable
 70
1
  0
APPID
  5
20F
100
AcDbSymbolTableRecord
100
AcDbRegAppTableRecord
  2
ACAD
 70
0
  0
ENDTAB
  0
TABLE
  2
BLOCK_RECORD
  5
1
100
AcDbSymbolTable
 70
0
  0
BLOCK_RECORD
  5
210
100
AcDbSymbolTableRecord
100
AcDbBlockTableRecord
  2
*Model_Space
  0
BLOCK_RECORD
  5
211
100
AcDbSymbolTableRecord
100
AcDbBlockTableRecord
  2
*Paper_Space
  0
BLOCK_RECORD
  5
212
100
AcDbSymbolTableRecord
100
AcDbBlockTableRecord
  2
_FILLED
  0
ENDTAB
  0
TABLE
  2
DIMSTYLE
  5
A
100
AcDbSymbolTable
 70
1
100
AcDbDimStyleTable
 71
0
  0
DIMSTYLE
105
213
100
AcDbSymbolTableRecord
100
AcDbDimStyleTableRecord
  2
STANDARD
 70
0
  3

  4

 40
1.0
 41
0.4864385258
 42
1.0
 43
0.38
 44
1.0
 45
0.0
 46
0.0
 47
0.01
 48
0.01
140
0.6810139361
141
0.09
142
0.0
143
25.4
144
1.0
145
0.0
146
1.0
147
0.625
 71
1
 72
0
 73
0
 74
0
 75
0
 76
0
 77
1
 78
8
 79
2
170
0
171
1
172
0
173
0
174
0
175
0
176
0
177
0
178
0
270
2
179
2
271
2
272
2
273
2
274
2
275
0
280
0
281
0
282
0
283
1
284
8
285
0
286
0
287
3
288
0
340
11
278
46
341
212
342
212
343
212
344
212
  0
ENDTAB
  0
ENDSEC
  0
SECTION
  2
BLOCKS
  0
BLOCK
  5
20
100
AcDbEntity
  8
0
100
AcDbBlockBegin
  2
*Model_Space
 70
0
 10
0.0
 20
0.0
 30
0.0
  3
*Model_Space
  1

  0
ENDBLK
  5
21
100
AcDbEntity
  8
0
100
AcDbBlockEnd
  0
BLOCK
  5
1C
100
AcDbEntity
  8
0
100
AcDbBlockBegin
  2
*Paper_Space
 70
0
 10
0.0
 20
0.0
 30
0.0
  3
*Paper_Space
  1

  0
ENDBLK
  5
1D
100
AcDbEntity
  8
0
100
AcDbBlockEnd
  0
BLOCK
  5
214
100
AcDbEntity
  8
0
100
AcDbBlockBegin
  2
_FILLED
 70
64
 10
0.0
 20
0.0
  3
_FILLED
  1

  0
SOLID
  5
215
100
AcDbEntity
  8
0
  6
BYBLOCK
 62
0
100
AcDbTrace
 10
0.0
 20
0.0
 11
-1.0
 21
0.25
 12
-1.0
 22
-0.25
 13
-1.0
 23
-0.25
  0
ENDBLK
  5
216
100
AcDbEntity
  8
0
  6
BYBLOCK
 62
0
100
AcDbBlockEnd
  0
ENDSEC
  0
SECTION
  2
ENTITIES
  0
LINE
  5
217
100
AcDbEntity
  8
0
100
AcDbLine
 62
7
  6
BYLAYER
 10
17.8859159132
 20
4.1378830681
 11
24.0359159132
 21
4.1378830681
  0
LINE
  5
218
100
AcDbEntity
  8
0
100
AcDbLine
 62
7
  6
BYLAYER
 10
24.0359159132
 20
4.3498723145
 11
17.8859159132
 21
4.3498723145
  0
LINE
  5
219
100
AcDbEntity
  8
0
100
AcDbLine
 62
7
  6
BYLAYER
 10
17.8859159132
 20
5.0788470302
 11
24.0359159132
 21
5.0788470302
  0
LINE
  5
21A
100
AcDbEntity
  8
0
100
AcDbLine
 62
7
  6
BYLAYER
 10
24.0359159132
 20
6.1134622172
 11
17.8859159132
 21
6.1134622172
  0
LINE
  5
21B
100
AcDbEntity
  8
0
100
AcDbLine
 62
7
  6
BYLAYER
 10
17.8859159132
 20
7.4567045859
 11
24.0359159132
 21
7.4567045859
  0
LINE
  5
21C
100
AcDbEntity
  8
0
100
AcDbLine
 62
7
  6
BYLAYER
 10
17.8859159132
 20
7.5847818322
 11
24.0359159132
 21
7.5847818322
  0
LINE
  5
21D
100
AcDbEntity
  8
0
100
AcDbLine
 62
7
  6
BYLAYER
 10
17.8859159132
 20
8.227225722
 11
24.0359159132
 21
8.227225722
  0
LINE
  5
21E
100
AcDbEntity
  8
0
100
AcDbLine
 62
7
  6
BYLAYER
 10
17.8859159132
 20
10.0538057135
 11
24.0359159132
 21
10.0538057135
  0
LINE
  5
21F
100
AcDbEntity
  8
0
100
AcDbLine
 62
7
  6
BYLAYER
 10
24.0359159132
 20
10.2657949599
 11
17.8859159132
 21
10.2657949599
  0
LINE
  5
220
100
AcDbEntity
  8
0
100
AcDbLine
 62
7
  6
BYLAYER
 10
17.8859159132
 20
11.8500682845
 11
24.0359159132
 21
11.8500682845
  0
LINE
  5
221
100
AcDbEntity
  8
0
100
AcDbLine
 62
7
  6
BYLAYER
 10
24.0359159132
 20
12.5162096947
 11
17.8859159132
 21
12.5162096947
  0
LINE
  5
222
100
AcDbEntity
  8
0
100
AcDbLine
 62
7
  6
BYLAYER
 10
17.8859159132
 20
19.1024309908
 11
24.0359159132
 21
19.1024309908
  0
LINE
  5
223
100
AcDbEntity
  8
0
100
AcDbLine
 62
7
  6
BYLAYER
 10
24.0359159132
 20
19.6088689246
 11
17.8859159132
 21
19.6088689246
  0
LINE
  5
224
100
AcDbEntity
  8
0
100
AcDbLine
 62
7
  6
BYLAYER
 10
20.2140231245
 20
17.2811032825
 11
22.4008747579
 21
15.1105521095
  0
LINE
  5
225
100
AcDbEntity
  8
0
100
AcDbLine
 62
7
  6
BYLAYER
 10
22.5149558417
 20
15.1191907122
 11
20.2788269531
 21
17.3386518352
  0
LINE
  5
226
100
AcDbEntity
  8
0
100
AcDbLine
 62
7
  6
BYLAYER
 10
17.8859159132
 20
20.9627296704
 11
24.0359159132
 21
20.9627296704
  0
LINE
  5
227
100
AcDbEntity
  8
0
100
AcDbLine
 62
7
  6
BYLAYER
 10
24.0359159132
 20
21.0642692978
 11
17.8859159132
 21
21.0642692978
  0
LINE
  5
228
100
AcDbEntity
  8
0
100
AcDbLine
 62
7
  6
BYLAYER
 10
17.8859159132
 20
21.4331312536
 11
18.5359159132
 21
21.4331312536
  0
LINE
  5
229
100
AcDbEntity
  8
0
100
AcDbLine
 62
7
  6
BYLAYER
 10
23.3859159132
 20
21.4331312536
 11
24.0359159132
 21
21.4331312536
  0
LINE
  5
22A
100
AcDbEntity
  8
0
100
AcDbLine
 62
7
  6
BYLAYER
 10
20.9017073163
 20
17.5811155446
 11
22.8958495047
 21
15.6018373896
  0
LINE
  5
22B
100
AcDbEntity
  8
0
100
AcDbLine
 62
7
  6
BYLAYER
 10
23.3859159132
 20
22.8529091043
 11
18.6359159178
 21
22.8529091043
  0
LINE
  5
22C
100
AcDbEntity
  8
0
100
AcDbLine
 62
7
  6
BYLAYER
 10
18.5359159132
 20
22.9260307103
 11
18.6359159178
 21
22.9260307103
  0
LINE
  5
22D
100
AcDbEntity
  8
0
100
AcDbLine
 62
7
  6
BYLAYER
 10
19.6309159178
 20
23.2251139112
 11
22.3309159178
 21
23.2251139112
  0
LINE
  5
22E
100
AcDbEntity
  8
0
100
AcDbLine
 62
7
  6
BYLAYER
 10
21.9309159178
 20
23.4658399204
 11
20.0309159178
 21
23.4658399204
  0
LINE
  5
22F
100
AcDbEntity
  8
0
100
AcDbLine
 62
7
  6
BYLAYER
 10
20.0309159177
 20
23.4967447475
 11
21.9309159178
 21
23.4967447475
  0
LINE
  5
230
100
AcDbEntity
  8
0
100
AcDbLine
 62
7
  6
BYLAYER
 10
18.5359159132
 20
24.5596516313
 11
23.3859159132
 21
24.5596516313
  0
LINE
  5
231
100
AcDbEntity
  8
0
100
AcDbLine
 62
7
  6
BYLAYER
 10
17.8859159132
 20
4.1378830681
 11
17.8859159132
 21
53.2973485784
  0
LINE
  5
232
100
AcDbEntity
  8
0
100
AcDbLine
 62
7
  6
BYLAYER
 10
18.5359159132
 20
28.9971846626
 11
18.5359159132
 21
26.2469800891
  0
LINE
  5
233
100
AcDbEntity
  8
0
100
AcDbLine
 62
7
  6
BYLAYER
 10
18.5359159132
 20
24.5596516313
 11
18.5359159132
 21
21.4331312536
  0
LINE
  5
234
100
AcDbEntity
  8
0
100
AcDbLine
 62
7
  6
BYLAYER
 10
18.6359159178
 20
22.8529091043
 11
18.6359159178
 21
24.5596516313
  0
LINE
  5
235
100
AcDbEntity
  8
0
100
AcDbLine
 62
7
  6
BYLAYER
 10
18.6359159178
 20
27.6667579398
 11
18.6359159178
 21
28.9971846626
  0
LINE
  5
236
100
AcDbEntity
  8
0
100
AcDbLine
 62
7
  6
BYLAYER
 10
23.3859159132
 20
26.2469800891
 11
18.5359159132
 21
26.2469800891
  0
LINE
  5
237
100
AcDbEntity
  8
0
100
AcDbLine
 62
7
  6
BYLAYER
 10
22.3309159178
 20
23.2251139112
 11
22.072337274
 21
23.5363469361
  0
LINE
  5
238
100
AcDbEntity
  8
0
100
AcDbLine
 62
7
  6
BYLAYER
 10
22.5447081334
 20
14.9934403446
 11
22.5149558417
 21
15.1191907122
  0
LINE
  5
239
100
AcDbEntity
  8
0
100
AcDbLine
 62
7
  6
BYLAYER
 10
19.6309159178
 20
24.5596516313
 11
19.6309159178
 21
23.2251139112
  0
LINE
  5
23A
100
AcDbEntity
  8
0
100
AcDbLine
 62
7
  6
BYLAYER
 10
19.6309159178
 20
28.0389627466
 11
19.6309159178
 21
28.9971846626
  0
LINE
  5
23B
100
AcDbEntity
  8
0
100
AcDbLine
 62
7
  6
BYLAYER
 10
19.8309159178
 20
28.9971846626
 11
19.8309159178
 21
28.4781979862
  0
LINE
  5
23C
100
AcDbEntity
  8
0
100
AcDbLine
 62
7
  6
BYLAYER
 10
19.8309159178
 20
24.5596516313
 11
19.8309159178
 21
23.6643491508
  0
LINE
  5
23D
100
AcDbEntity
  8
0
100
AcDbLine
 62
7
  6
BYLAYER
 10
19.8359159132
 20
50.0280936996
 11
19.8359159132
 21
47.4851409972
  0
LINE
  5
23E
100
AcDbEntity
  8
0
100
AcDbLine
 62
7
  6
BYLAYER
 10
20.0309159178
 20
23.4658399204
 11
20.0309159178
 21
23.4967447475
  0
LINE
  5
23F
100
AcDbEntity
  8
0
100
AcDbLine
 62
7
  6
BYLAYER
 10
20.0309159178
 20
28.2796887559
 11
20.0309159178
 21
28.310593583
  0
LINE
  5
240
100
AcDbEntity
  8
0
100
AcDbLine
 62
7
  6
BYLAYER
 10
22.5449052542
 20
33.2399926086
 11
22.5441415762
 21
33.2383018781
  0
LINE
  5
241
100
AcDbEntity
  8
0
100
AcDbLine
 62
7
  6
BYLAYER
 10
19.6309159178
 20
28.0389627466
 11
19.8894945615
 21
28.3501957716
  0
LINE
  5
242
100
AcDbEntity
  8
0
100
AcDbLine
 62
7
  6
BYLAYER
 10
18.6359159178
 20
27.6667579397
 11
23.3859159132
 21
27.6667579397
  0
LINE
  5
243
100
AcDbEntity
  8
0
100
AcDbLine
 62
7
  6
BYLAYER
 10
18.5359159132
 20
27.7398795458
 11
18.6359159178
 21
27.7398795458
  0
LINE
  5
244
100
AcDbEntity
  8
0
100
AcDbLine
 62
7
  6
BYLAYER
 10
22.3309159178
 20
28.0389627466
 11
19.6309159178
 21
28.0389627466
  0
LINE
  5
245
100
AcDbEntity
  8
0
100
AcDbLine
 62
7
  6
BYLAYER
 10
20.0309159178
 20
28.2796887559
 11
21.9309159178
 21
28.2796887559
  0
LINE
  5
246
100
AcDbEntity
  8
0
100
AcDbLine
 62
7
  6
BYLAYER
 10
20.0309159178
 20
28.310593583
 11
21.9309159177
 21
28.310593583
  0
LINE
  5
247
100
AcDbEntity
  8
0
100
AcDbLine
 62
7
  6
BYLAYER
 10
21.9309159178
 20
28.310593583
 11
21.9309159178
 21
28.2796887559
  0
LINE
  5
248
100
AcDbEntity
  8
0
100
AcDbLine
 62
7
  6
BYLAYER
 10
21.9309159178
 20
23.4967447475
 11
21.9309159178
 21
23.4658399204
  0
LINE
  5
249
100
AcDbEntity
  8
0
100
AcDbLine
 62
7
  6
BYLAYER
 10
22.1309159178
 20
23.6643491508
 11
22.1309159178
 21
24.5596516313
  0
LINE
  5
24A
100
AcDbEntity
  8
0
100
AcDbLine
 62
7
  6
BYLAYER
 10
22.1309159178
 20
28.4781979862
 11
22.1309159178
 21
28.9971846626
  0
LINE
  5
24B
100
AcDbEntity
  8
0
100
AcDbLine
 62
7
  6
BYLAYER
 10
22.3309159178
 20
23.2251139112
 11
22.3309159178
 21
24.5596516313
  0
LINE
  5
24C
100
AcDbEntity
  8
0
100
AcDbLine
 62
7
  6
BYLAYER
 10
22.3309159178
 20
28.0389627466
 11
22.3309159178
 21
28.9971846626
  0
LINE
  5
24D
100
AcDbEntity
  8
0
100
AcDbLine
 62
7
  6
BYLAYER
 10
17.8859159132
 20
28.9971846626
 11
24.0359159132
 21
28.9971846626
  0
LINE
  5
24E
100
AcDbEntity
  8
0
100
AcDbLine
 62
7
  6
BYLAYER
 10
24.0359159132
 20
29.0228145978
 11
17.8859159132
 21
29.0228145978
  0
LINE
  5
24F
100
AcDbEntity
  8
0
100
AcDbLine
 62
7
  6
BYLAYER
 10
17.8859159132
 20
29.6936489046
 11
24.0359159132
 21
29.6936489046
  0
LINE
  5
250
100
AcDbEntity
  8
0
100
AcDbLine
 62
7
  6
BYLAYER
 10
24.0359159132
 20
30.1198992653
 11
17.8859159132
 21
30.1198992653
  0
LINE
  5
251
100
AcDbEntity
  8
0
100
AcDbLine
 62
7
  6
BYLAYER
 10
22.3309159178
 20
28.0389627466
 11
22.072337274
 21
28.3501957716
  0
LINE
  5
252
100
AcDbEntity
  8
0
100
AcDbLine
 62
7
  6
BYLAYER
 10
23.0359159132
 20
47.4851409972
 11
23.0359159132
 21
50.0280936996
  0
LINE
  5
253
100
AcDbEntity
  8
0
100
AcDbLine
 62
7
  6
BYLAYER
 10
23.3859159132
 20
21.4331312536
 11
23.3859159132
 21
24.5596516313
  0
LINE
  5
254
100
AcDbEntity
  8
0
100
AcDbLine
 62
7
  6
BYLAYER
 10
23.3859159132
 20
26.2469800891
 11
23.3859159132
 21
28.9971846626
  0
LINE
  5
255
100
AcDbEntity
  8
0
100
AcDbLine
 62
7
  6
BYLAYER
 10
24.0359159132
 20
53.2973485784
 11
24.0359159132
 21
4.1378830681
  0
LINE
  5
256
100
AcDbEntity
  8
0
100
AcDbLine
 62
7
  6
BYLAYER
 10
19.6309159178
 20
23.2251139112
 11
19.8894945615
 21
23.5363469361
  0
LINE
  5
257
100
AcDbEntity
  8
0
100
AcDbLine
 62
7
  6
BYLAYER
 10
22.5447081334
 20
33.2414638898
 11
22.5149558417
 21
33.3672142574
  0
LINE
  5
258
100
AcDbEntity
  8
0
100
AcDbLine
 62
7
  6
BYLAYER
 10
20.285307336
 20
35.4583739579
 11
22.4008747579
 21
33.3585756547
  0
LINE
  5
259
100
AcDbEntity
  8
0
100
AcDbLine
 62
7
  6
BYLAYER
 10
22.5149558417
 20
33.3672142574
 11
20.3501111646
 21
35.5159225106
  0
LINE
  5
25A
100
AcDbEntity
  8
0
100
AcDbLine
 62
7
  6
BYLAYER
 10
21.0098724325
 20
35.72178022
 11
22.8958495047
 21
33.8498609348
  0
LINE
  5
25B
100
AcDbEntity
  8
0
100
AcDbLine
 62
7
  6
BYLAYER
 10
22.5449052542
 20
14.9919690634
 11
22.5441415762
 21
14.9902783329
  0
LINE
  5
25C
100
AcDbEntity
  8
0
100
AcDbLine
 62
7
  6
BYLAYER
 10
17.8859159132
 20
36.7061205615
 11
24.0359159132
 21
36.7061205615
  0
LINE
  5
25D
100
AcDbEntity
  8
0
100
AcDbLine
 62
7
  6
BYLAYER
 10
24.0359159132
 20
37.4436513802
 11
17.8859159132
 21
37.4436513802
  0
LINE
  5
25E
100
AcDbEntity
  8
0
100
AcDbLine
 62
7
  6
BYLAYER
 10
17.8859159132
 20
39.4714287651
 11
24.0359159132
 21
39.4714287651
  0
LINE
  5
25F
100
AcDbEntity
  8
0
100
AcDbLine
 62
7
  6
BYLAYER
 10
17.8859159132
 20
39.8557672898
 11
24.0359159132
 21
39.8557672898
  0
LINE
  5
260
100
AcDbEntity
  8
0
100
AcDbLine
 62
7
  6
BYLAYER
 10
24.0359159132
 20
43.3282828888
 11
17.8859159132
 21
43.3282828888
  0
LINE
  5
261
100
AcDbEntity
  8
0
100
AcDbLine
 62
7
  6
BYLAYER
 10
17.8859159132
 20
43.7109102417
 11
24.0359159132
 21
43.7109102417
  0
LINE
  5
262
100
AcDbEntity
  8
0
100
AcDbLine
 62
7
  6
BYLAYER
 10
24.0359159132
 20
43.8003761992
 11
17.8859159132
 21
43.8003761992
  0
LINE
  5
263
100
AcDbEntity
  8
0
100
AcDbLine
 62
7
  6
BYLAYER
 10
17.8859159132
 20
45.0210282275
 11
24.0359159132
 21
45.0210282275
  0
LINE
  5
264
100
AcDbEntity
  8
0
100
AcDbLine
 62
7
  6
BYLAYER
 10
24.0359159132
 20
46.1104193643
 11
17.8859159132
 21
46.1104193643
  0
LINE
  5
265
100
AcDbEntity
  8
0
100
AcDbLine
 62
7
  6
BYLAYER
 10
17.8859159132
 20
47.0434644517
 11
24.0359159132
 21
47.0434644517
  0
LINE
  5
266
100
AcDbEntity
  8
0
100
AcDbLine
 62
7
  6
BYLAYER
 10
24.0359159132
 20
47.4203491281
 11
17.8859159132
 21
47.4203491281
  0
LINE
  5
267
100
AcDbEntity
  8
0
100
AcDbLine
 62
7
  6
BYLAYER
 10
17.8859159132
 20
47.4776871489
 11
24.0359159132
 21
47.4776871489
  0
LINE
  5
268
100
AcDbEntity
  8
0
100
AcDbLine
 62
7
  6
BYLAYER
 10
17.8859159132
 20
47.4851409972
 11
24.0359159132
 21
47.4851409972
  0
LINE
  5
269
100
AcDbEntity
  8
0
100
AcDbLine
 62
7
  6
BYLAYER
 10
19.8359159132
 20
50.0280936996
 11
23.0359159132
 21
50.0280936996
  0
LINE
  5
26A
100
AcDbEntity
  8
0
100
AcDbLine
 62
7
  6
BYLAYER
 10
17.8859159132
 20
51.6197857658
 11
24.0359159132
 21
51.6197857658
  0
LINE
  5
26B
100
AcDbEntity
  8
0
100
AcDbLine
 62
7
  6
BYLAYER
 10
24.0359159132
 20
52.4556854292
 11
17.8859159132
 21
52.4556854292
  0
LINE
  5
26C
100
AcDbEntity
  8
0
100
AcDbLine
 62
7
  6
BYLAYER
 10
17.8859159132
 20
53.2861678059
 11
24.0359159132
 21
53.2861678059
  0
LINE
  5
26D
100
AcDbEntity
  8
0
100
AcDbLine
 62
7
  6
BYLAYER
 10
24.0359159132
 20
53.2973485784
 11
17.8859159132
 21
53.2973485784
  0
ARC
  5
26E
100
AcDbEntity
  8
0
100
AcDbCircle
 62
7
  6
BYLAYER
 10
21.4362463385
 20
16.7717092411
 40
2.1880895534
100
AcDbArc
 50
269.9913477149
 51
297.5663595101
  0
ARC
  5
26F
100
AcDbEntity
  8
0
100
AcDbCircle
 62
7
  6
BYLAYER
 10
21.4362463385
 20
35.0197327864
 40
2.1880895534
100
AcDbArc
 50
269.9913477149
 51
297.5663595101
  0
ARC
  5
270
100
AcDbEntity
  8
0
100
AcDbCircle
 62
7
  6
BYLAYER
 10
21.4347271658
 20
35.0159981473
 40
2.1843084019
100
AcDbArc
 50
228.4405180692
 51
270.0311809235
  0
ARC
  5
271
100
AcDbEntity
  8
0
100
AcDbCircle
 62
7
  6
BYLAYER
 10
21.4347271658
 20
16.7679746021
 40
2.1843084019
100
AcDbArc
 50
228.4405180691
 51
270.0311809235
  0
ARC
  5
272
100
AcDbEntity
  8
0
100
AcDbCircle
 62
7
  6
BYLAYER
 10
21.4376611606
 20
16.7666705311
 40
2.18297721
100
AcDbArc
 50
302.2125167827
 51
303.8411898028
  0
ARC
  5
273
100
AcDbEntity
  8
0
100
AcDbCircle
 62
7
  6
BYLAYER
 10
21.4376613868
 20
35.0146938261
 40
2.1829768763
100
AcDbArc
 50
302.1680357851
 51
303.8411885296
  0
ARC
  5
274
100
AcDbEntity
  8
0
100
AcDbCircle
 62
7
  6
BYLAYER
 10
21.4395423906
 20
16.7636188654
 40
2.1793924564
100
AcDbArc
 50
297.5879739142
 51
302.2134384871
  0
ARC
  5
275
100
AcDbEntity
  8
0
100
AcDbCircle
 62
7
  6
BYLAYER
 10
21.4395704966
 20
35.0115927937
 40
2.1793354647
100
AcDbArc
 50
297.5879231153
 51
302.1689548868
  0
ARC
  5
276
100
AcDbEntity
  8
0
100
AcDbCircle
 62
7
  6
BYLAYER
 10
21.4470111979
 20
16.7540178164
 40
2.167261214
100
AcDbArc
 50
303.822160803
 51
320.9279105118
  0
ARC
  5
277
100
AcDbEntity
  8
0
100
AcDbCircle
 62
7
  6
BYLAYER
 10
21.4470111979
 20
35.0020413616
 40
2.167261214
100
AcDbArc
 50
303.8221608028
 51
320.9279105116
  0
ARC
  5
278
100
AcDbEntity
  8
0
100
AcDbCircle
 62
7
  6
BYLAYER
 10
21.4510980152
 20
16.7507340578
 40
2.1620186536
100
AcDbArc
 50
320.9272068055
 51
322.5782520701
  0
ARC
  5
279
100
AcDbEntity
  8
0
100
AcDbCircle
 62
7
  6
BYLAYER
 10
21.4510980152
 20
34.998757603
 40
2.1620186536
100
AcDbArc
 50
320.9272068053
 51
322.57825207
  0
ARC
  5
27A
100
AcDbEntity
  8
0
100
AcDbCircle
 62
7
  6
BYLAYER
 10
21.4174954499
 20
34.9954898543
 40
2.1574960418
100
AcDbArc
 50
198.5224666479
 51
228.4216306585
  0
ARC
  5
27B
100
AcDbEntity
  8
0
100
AcDbCircle
 62
7
  6
BYLAYER
 10
21.4169318199
 20
16.7470094977
 40
2.1567802783
100
AcDbArc
 50
196.5629401564
 51
228.4247776683
  0
ARC
  5
27C
100
AcDbEntity
  8
0
100
AcDbCircle
 62
7
  6
BYLAYER
 10
21.4575759519
 20
34.9938495427
 40
2.153891463
100
AcDbArc
 50
322.5772254749
 51
342.3907831333
  0
ARC
  5
27D
100
AcDbEntity
  8
0
100
AcDbCircle
 62
7
  6
BYLAYER
 10
21.4585826321
 20
16.7452340279
 40
2.1527322544
100
AcDbArc
 50
322.5734560812
 51
344.5805123575
  0
ARC
  5
27E
100
AcDbEntity
  8
0
100
AcDbCircle
 62
7
  6
BYLAYER
 10
21.4451932621
 20
34.8401482893
 40
1.9426256076
100
AcDbArc
 50
301.8456558157
 51
304.4523768991
  0
ARC
  5
27F
100
AcDbEntity
  8
0
100
AcDbCircle
 62
7
  6
BYLAYER
 10
21.4451932621
 20
16.5921247441
 40
1.9426256076
100
AcDbArc
 50
301.8456558157
 51
304.4523768991
  0
ARC
  5
280
100
AcDbEntity
  8
0
100
AcDbCircle
 62
7
  6
BYLAYER
 10
21.4175695722
 20
34.8339160883
 40
1.9318591377
100
AcDbArc
 50
187.0459422869
 51
225.2536644391
  0
ARC
  5
281
100
AcDbEntity
  8
0
100
AcDbCircle
 62
7
  6
BYLAYER
 10
21.4170320621
 20
16.5855758274
 40
1.93125091
100
AcDbArc
 50
184.3661723903
 51
225.2583755154
  0
ARC
  5
282
100
AcDbEntity
  8
0
100
AcDbCircle
 62
7
  6
BYLAYER
 10
21.4570447062
 20
34.8329169909
 40
1.9289503319
100
AcDbArc
 50
325.1235658871
 51
351.7661450545
  0
ARC
  5
283
100
AcDbEntity
  8
0
100
AcDbCircle
 62
7
  6
BYLAYER
 10
21.4576471284
 20
16.5846998793
 40
1.9283223015
100
AcDbArc
 50
325.1180491621
 51
355.0947155177
  0
ARC
  5
284
100
AcDbEntity
  8
0
100
AcDbCircle
 62
7
  6
BYLAYER
 10
21.4452529302
 20
16.6919912283
 40
1.9020951034
100
AcDbArc
 50
304.2206480889
 51
322.8536407306
  0
ARC
  5
285
100
AcDbEntity
  8
0
100
AcDbCircle
 62
7
  6
BYLAYER
 10
21.4452529302
 20
34.9400147735
 40
1.9020951034
100
AcDbArc
 50
304.2206480889
 51
322.8536407306
  0
ARC
  5
286
100
AcDbEntity
  8
0
100
AcDbCircle
 62
7
  6
BYLAYER
 10
21.4154869587
 20
34.8083765076
 40
1.7295385482
100
AcDbArc
 50
175.3901617072
 51
225.2800264982
  0
ARC
  5
287
100
AcDbEntity
  8
0
100
AcDbCircle
 62
7
  6
BYLAYER
 10
21.4148414197
 20
16.5600341815
 40
1.7288485065
100
AcDbArc
 50
170.3645306402
 51
225.28779387
  0
ARC
  5
288
100
AcDbEntity
  8
0
100
AcDbCircle
 62
7
  6
BYLAYER
 10
21.4591426293
 20
34.8077933364
 40
1.7267483322
100
AcDbArc
 50
326.3064036704
 51
7.3538758975
  0
ARC
  5
289
100
AcDbEntity
  8
0
100
AcDbCircle
 62
7
  6
BYLAYER
 10
21.4596838867
 20
16.5595930924
 40
1.7261970097
100
AcDbArc
 50
326.3013172003
 51
12.4405835667
  0
SPLINE
  5
28A
100
AcDbEntity
  8
0
100
AcDbSpline
 62
7
  6
BYLAYER
 70
0
 71
3
 72
17
 73
13
 74
0
 42
0.0000001
 43
0.0000001
 44
0.0000000001
 40
0.0
 40
0.0
 40
0.0
 40
0.0
 40
0.1254114709
 40
0.188199317
 40
0.2509311689
 40
0.3761435104
 40
0.50119714
 40
0.5637299767
 40
0.6262197797
 40
0.7509128339
 40
0.8755054224
 40
1.0
 40
1.0
 40
1.0
 40
1.0
 10
21.4359159132
 20
17.7129693742
 30
0.0
 10
21.5780196769
 20
17.7129693742
 30
0.0
 10
21.7920227589
 20
17.6920275181
 30
0.0
 10
22.0682642679
 20
17.6233406632
 30
0.0
 10
22.3363828891
 20
17.5281445983
 30
0.0
 10
22.6518326732
 20
17.3608703652
 30
0.0
 10
22.9285090344
 20
17.135496405
 30
0.0
 10
23.1198649409
 20
16.9259596106
 30
0.0
 10
23.2894609894
 20
16.698981065
 30
0.0
 10
23.4582721889
 20
16.3857871873
 30
0.0
 10
23.5828225905
 20
15.9782861443
 30
0.0
 10
23.6109159132
 20
15.6952463261
 30
0.0
 10
23.6109159132
 20
15.5541814943
 30
0.0
  0
SPLINE
  5
28B
100
AcDbEntity
  8
0
100
AcDbSpline
 62
7
  6
BYLAYER
 70
0
 71
3
 72
17
 73
13
 74
0
 42
0.0000001
 43
0.0000001
 44
0.0000000001
 40
0.0
 40
0.0
 40
0.0
 40
0.0
 40
0.1244985156
 40
0.249068757
 40
0.3737697028
 40
0.4362556937
 40
0.4987885411
 40
0.6238485221
 40
0.7490591044
 40
0.8117985924
 40
0.8746000395
 40
1.0
 40
1.0
 40
1.0
 40
1.0
 10
19.2609444253
 20
15.5541814967
 30
0.0
 10
19.2609432828
 20
15.6952504109
 30
0.0
 10
19.289007841
 20
15.9782742265
 30
0.0
 10
19.4135807323
 20
16.3857480542
 30
0.0
 10
19.5823070565
 20
16.6989691102
 30
0.0
 10
19.7519649864
 20
16.925906005
 30
0.0
 10
19.9432738566
 20
17.1354865375
 30
0.0
 10
20.2199840927
 20
17.3608342806
 30
0.0
 10
20.5354294883
 20
17.5281321002
 30
0.0
 10
20.8035648463
 20
17.6233510164
 30
0.0
 10
21.0798252646
 20
17.6920027835
 30
0.0
 10
21.2938255743
 20
17.7129693742
 30
0.0
 10
21.4359159132
 20
17.7129693742
 30
0.0
  0
SPLINE
  5
28C
100
AcDbEntity
  8
0
100
AcDbSpline
 62
7
  6
BYLAYER
 70
0
 71
3
 72
15
 73
11
 74
0
 42
0.0000001
 43
0.0000001
 44
0.0000000001
 40
0.0
 40
0.0
 40
0.0
 40
0.0
 40
0.1247554145
 40
0.2497141409
 40
0.3747016416
 40
0.4997783222
 40
0.6248857331
 40
0.7499570169
 40
0.8750114291
 40
1.0
 40
1.0
 40
1.0
 40
1.0
 10
20.0575772765
 20
33.4618280298
 30
0.0
 10
20.1347690525
 20
33.3852116296
 30
0.0
 10
20.3025509848
 20
33.2446120169
 30
0.0
 10
20.5856352874
 20
33.0787100099
 30
0.0
 10
20.8927616488
 20
32.9621992348
 30
0.0
 10
21.2150745972
 20
32.8982962243
 30
0.0
 10
21.5435989444
 20
32.8888711989
 30
0.0
 10
21.8691337085
 20
32.9340726284
 30
0.0
 10
22.1824548187
 20
33.0326971094
 30
0.0
 10
22.3776271958
 20
33.132446022
 30
0.0
 10
22.4701863679
 20
33.1899412161
 30
0.0
  0
SPLINE
  5
28D
100
AcDbEntity
  8
0
100
AcDbSpline
 62
7
  6
BYLAYER
 70
0
 71
3
 72
17
 73
13
 74
0
 42
0.0000001
 43
0.0000001
 44
0.0000000001
 40
0.0
 40
0.0
 40
0.0
 40
0.0
 40
0.1244985156
 40
0.249068757
 40
0.3737697028
 40
0.4362556937
 40
0.4987885411
 40
0.6238485221
 40
0.7490591044
 40
0.8117985924
 40
0.8746000395
 40
1.0
 40
1.0
 40
1.0
 40
1.0
 10
19.2609444253
 20
33.6681487641
 30
0.0
 10
19.2609432828
 20
33.8092176784
 30
0.0
 10
19.289007841
 20
34.092241494
 30
0.0
 10
19.4135807323
 20
34.4997153217
 30
0.0
 10
19.5823070565
 20
34.8129363776
 30
0.0
 10
19.7519649864
 20
35.0398732725
 30
0.0
 10
19.9432738566
 20
35.2494538049
 30
0.0
 10
20.2199840927
 20
35.474801548
 30
0.0
 10
20.5354294883
 20
35.6420993677
 30
0.0
 10
20.8035648463
 20
35.7373182839
 30
0.0
 10
21.0798252646
 20
35.805970051
 30
0.0
 10
21.2938255743
 20
35.8269366416
 30
0.0
 10
21.4359159132
 20
35.8269366416
 30
0.0
  0
SPLINE
  5
28E
100
AcDbEntity
  8
0
100
AcDbSpline
 62
7
  6
BYLAYER
 70
0
 71
3
 72
15
 73
11
 74
0
 42
0.0000001
 43
0.0000001
 44
0.0000000001
 40
0.0
 40
0.0
 40
0.0
 40
0.0
 40
0.1247554145
 40
0.2497141409
 40
0.3747016416
 40
0.4997783222
 40
0.6248857331
 40
0.7499570169
 40
0.8750114291
 40
1.0
 40
1.0
 40
1.0
 40
1.0
 10
20.0575772765
 20
15.2138044846
 30
0.0
 10
20.1347690525
 20
15.1371880844
 30
0.0
 10
20.3025509848
 20
14.9965884717
 30
0.0
 10
20.5856352874
 20
14.8306864647
 30
0.0
 10
20.8927616488
 20
14.7141756896
 30
0.0
 10
21.2150745972
 20
14.6502726791
 30
0.0
 10
21.5435989444
 20
14.6408476537
 30
0.0
 10
21.8691337085
 20
14.6860490832
 30
0.0
 10
22.1824548187
 20
14.7846735642
 30
0.0
 10
22.3776271958
 20
14.8844224768
 30
0.0
 10
22.4701863679
 20
14.9419176709
 30
0.0
  0
SPLINE
  5
28F
100
AcDbEntity
  8
0
100
AcDbSpline
 62
7
  6
BYLAYER
 70
0
 71
3
 72
16
 73
12
 74
0
 42
0.0000001
 43
0.0000001
 44
0.0000000001
 40
0.0
 40
0.0
 40
0.0
 40
0.0
 40
0.3847984007
 40
0.5565969562
 40
0.7063322105
 40
0.8287995012
 40
0.8784743032
 40
0.9198454674
 40
0.9525213336
 40
0.9763692553
 40
1.0
 40
1.0
 40
1.0
 40
1.0
 10
22.8958495047
 20
15.6018373896
 30
0.0
 10
22.9130347334
 20
15.5847802571
 30
0.0
 10
22.9382526995
 20
15.5604609721
 30
0.0
 10
22.9711245659
 20
15.5305471901
 30
0.0
 10
22.9922425783
 20
15.5122400276
 30
0.0
 10
23.0079496308
 20
15.4994712127
 30
0.0
 10
23.0187616407
 20
15.4914406471
 30
0.0
 10
23.0251156329
 20
15.487055562
 30
0.0
 10
23.0305637332
 20
15.4838012846
 30
0.0
 10
23.0346550809
 20
15.4817548533
 30
0.0
 10
23.0386610872
 20
15.4806988884
 30
0.0
 10
23.0395246423
 20
15.4819093793
 30
0.0
  0
SPLINE
  5
290
100
AcDbEntity
  8
0
100
AcDbSpline
 62
7
  6
BYLAYER
 70
0
 71
3
 72
16
 73
12
 74
0
 42
0.0000001
 43
0.0000001
 44
0.0000000001
 40
0.0
 40
0.0
 40
0.0
 40
0.0
 40
0.3847984007
 40
0.5565969562
 40
0.7063322105
 40
0.8287995012
 40
0.8784743032
 40
0.9198454674
 40
0.9525213336
 40
0.9763692553
 40
1.0
 40
1.0
 40
1.0
 40
1.0
 10
22.8958495047
 20
33.8498609348
 30
0.0
 10
22.9130347334
 20
33.8328038023
 30
0.0
 10
22.9382526995
 20
33.8084845173
 30
0.0
 10
22.9711245659
 20
33.7785707353
 30
0.0
 10
22.9922425783
 20
33.7602635728
 30
0.0
 10
23.0079496308
 20
33.7474947579
 30
0.0
 10
23.0187616407
 20
33.7394641923
 30
0.0
 10
23.0251156329
 20
33.7350791072
 30
0.0
 10
23.0305637332
 20
33.7318248298
 30
0.0
 10
23.0346550809
 20
33.7297783985
 30
0.0
 10
23.0386610872
 20
33.7287224336
 30
0.0
 10
23.0395246423
 20
33.7299329245
 30
0.0
  0
SPLINE
  5
291
100
AcDbEntity
  8
0
100
AcDbSpline
 62
7
  6
BYLAYER
 70
0
 71
3
 72
17
 73
13
 74
0
 42
0.0000001
 43
0.0000001
 44
0.0000000001
 40
0.0
 40
0.0
 40
0.0
 40
0.0
 40
0.1254114709
 40
0.188199317
 40
0.2509311689
 40
0.3761435104
 40
0.50119714
 40
0.5637299767
 40
0.6262197797
 40
0.7509128339
 40
0.8755054224
 40
1.0
 40
1.0
 40
1.0
 40
1.0
 10
21.4359159132
 20
35.8269366416
 30
0.0
 10
21.5780196769
 20
35.8269366416
 30
0.0
 10
21.7920227589
 20
35.8059947855
 30
0.0
 10
22.0682642679
 20
35.7373079307
 30
0.0
 10
22.3363828891
 20
35.6421118658
 30
0.0
 10
22.6518326732
 20
35.4748376326
 30
0.0
 10
22.9285090344
 20
35.2494636725
 30
0.0
 10
23.1198649409
 20
35.039926878
 30
0.0
 10
23.2894609894
 20
34.8129483324
 30
0.0
 10
23.4582721889
 20
34.4997544548
 30
0.0
 10
23.5828225905
 20
34.0922534118
 30
0.0
 10
23.6109159132
 20
33.8092135936
 30
0.0
 10
23.6109159132
 20
33.6681487618
 30
0.0
  0
SPLINE
  5
292
100
AcDbEntity
  8
0
100
AcDbSpline
 62
7
  6
BYLAYER
 70
0
 71
3
 72
11
 73
7
 74
0
 42
0.0000001
 43
0.0000001
 44
0.0000000001
 40
0.0
 40
0.0
 40
0.0
 40
0.0
 40
0.2494500693
 40
0.4989597669
 40
0.7493040063
 40
1.0
 40
1.0
 40
1.0
 40
1.0
 10
19.8328796577
 20
23.6676694941
 30
0.0
 10
19.8362029524
 20
23.6443081692
 30
0.0
 10
19.8513903405
 20
23.5983441789
 30
0.0
 10
19.8969938174
 20
23.5421490551
 30
0.0
 10
19.9593807311
 20
23.505292748
 30
0.0
 10
20.0072015398
 20
23.4967447475
 30
0.0
 10
20.0309159177
 20
23.4967447475
 30
0.0
  0
SPLINE
  5
293
100
AcDbEntity
  8
0
100
AcDbSpline
 62
7
  6
BYLAYER
 70
0
 71
3
 72
17
 73
13
 74
0
 42
0.0000001
 43
0.0000001
 44
0.0000000001
 40
0.0
 40
0.0
 40
0.0
 40
0.0
 40
0.1244945776
 40
0.2490871661
 40
0.3737802203
 40
0.4362700233
 40
0.49880286
 40
0.6238564896
 40
0.7490688311
 40
0.811800683
 40
0.8745885291
 40
1.0
 40
1.0
 40
1.0
 40
1.0
 10
23.6109159132
 20
33.6681487618
 30
0.0
 10
23.6109159132
 20
33.52708393
 30
0.0
 10
23.5828225905
 20
33.2440441118
 30
0.0
 10
23.4582721889
 20
32.8365430688
 30
0.0
 10
23.2894609894
 20
32.5233491912
 30
0.0
 10
23.1198649409
 20
32.2963706456
 30
0.0
 10
22.9285090344
 20
32.0868338511
 30
0.0
 10
22.6518326732
 20
31.861459891
 30
0.0
 10
22.3363828891
 20
31.6941856578
 30
0.0
 10
22.0682642679
 20
31.5989895929
 30
0.0
 10
21.7920227589
 20
31.5303027381
 30
0.0
 10
21.5780196769
 20
31.509360882
 30
0.0
 10
21.4359159132
 20
31.509360882
 30
0.0
  0
SPLINE
  5
294
100
AcDbEntity
  8
0
100
AcDbSpline
 62
7
  6
BYLAYER
 70
0
 71
3
 72
11
 73
7
 74
0
 42
0.0000001
 43
0.0000001
 44
0.0000000001
 40
0.0
 40
0.0
 40
0.0
 40
0.0
 40
0.2506959937
 40
0.5010402331
 40
0.7505499307
 40
1.0
 40
1.0
 40
1.0
 40
1.0
 10
21.9309159178
 20
23.4967447475
 30
0.0
 10
21.9546302957
 20
23.4967447475
 30
0.0
 10
22.0024511044
 20
23.505292748
 30
0.0
 10
22.0648380181
 20
23.5421490551
 30
0.0
 10
22.110441495
 20
23.5983441789
 30
0.0
 10
22.1256288831
 20
23.6443081692
 30
0.0
 10
22.1289521778
 20
23.6676694941
 30
0.0
  0
SPLINE
  5
295
100
AcDbEntity
  8
0
100
AcDbSpline
 62
7
  6
BYLAYER
 70
0
 71
3
 72
17
 73
13
 74
0
 42
0.0000001
 43
0.0000001
 44
0.0000000001
 40
0.0
 40
0.0
 40
0.0
 40
0.0
 40
0.125401373
 40
0.1882016497
 40
0.2509393957
 40
0.3761472429
 40
0.5012039988
 40
0.5637357971
 40
0.6262214464
 40
0.7509243007
 40
0.8754981773
 40
1.0
 40
1.0
 40
1.0
 40
1.0
 10
21.4359159132
 20
13.3953936145
 30
0.0
 10
21.2938238994
 20
13.3953936145
 30
0.0
 10
21.0798230468
 20
13.4163595146
 30
0.0
 10
20.8035644269
 20
13.4850121022
 30
0.0
 10
20.5354346488
 20
13.5802276079
 30
0.0
 10
20.2199950464
 20
13.7475189464
 30
0.0
 10
19.9432925206
 20
13.9728626523
 30
0.0
 10
19.7519792947
 20
14.1824324721
 30
0.0
 10
19.5823236338
 20
14.4093720812
 30
0.0
 10
19.4135846403
 20
14.7225925209
 30
0.0
 10
19.2890065655
 20
15.1300770061
 30
0.0
 10
19.2609455678
 20
15.4131087614
 30
0.0
 10
19.2609444253
 20
15.5541814967
 30
0.0
  0
SPLINE
  5
296
100
AcDbEntity
  8
0
100
AcDbSpline
 62
7
  6
BYLAYER
 70
0
 71
3
 72
15
 73
11
 74
0
 42
0.0000001
 43
0.0000001
 44
0.0000000001
 40
0.0
 40
0.0
 40
0.0
 40
0.0
 40
0.1247226847
 40
0.2496680161
 40
0.3746724908
 40
0.4997814235
 40
0.6249220372
 40
0.7500178473
 40
0.8751038194
 40
1.0
 40
1.0
 40
1.0
 40
1.0
 10
20.1984686085
 20
33.5794035625
 30
0.0
 10
20.2690194605
 20
33.5093785859
 30
0.0
 10
20.4226108649
 20
33.3810772988
 30
0.0
 10
20.6821436927
 20
33.2306156682
 30
0.0
 10
20.9638141106
 20
33.1262542186
 30
0.0
 10
21.2592019949
 20
33.0709858024
 30
0.0
 10
21.5597543085
 20
33.0665138704
 30
0.0
 10
21.8567485647
 20
33.1128624505
 30
0.0
 10
22.1413348979
 20
33.2087672053
 30
0.0
 10
22.3176453936
 20
33.3039743554
 30
0.0
 10
22.4008747579
 20
33.3585756547
 30
0.0
  0
SPLINE
  5
297
100
AcDbEntity
  8
0
100
AcDbSpline
 62
7
  6
BYLAYER
 70
0
 71
3
 72
16
 73
12
 74
0
 42
0.0000001
 43
0.0000001
 44
0.0000000001
 40
0.0
 40
0.0
 40
0.0
 40
0.0
 40
0.0105186364
 40
0.0280408737
 40
0.0880292373
 40
0.1809935231
 40
0.303803685
 40
0.452432702
 40
0.6219665982
 40
0.8068224806
 40
1.0
 40
1.0
 40
1.0
 40
1.0
 10
22.5441666771
 20
14.9902529704
 30
0.0
 10
22.5436175192
 20
14.9898854555
 30
0.0
 10
22.5416777946
 20
14.9898752008
 30
0.0
 10
22.5365508915
 20
14.9917784184
 30
0.0
 10
22.5273318134
 20
14.9974978687
 30
0.0
 10
22.513448786
 20
15.0077692876
 30
0.0
 10
22.4957010705
 20
15.0222783368
 30
0.0
 10
22.4748113688
 20
15.0404630511
 30
0.0
 10
22.4514545359
 20
15.0617552163
 30
0.0
 10
22.4264726733
 20
15.08540293
 30
0.0
 10
22.4094879327
 20
15.102003136
 30
0.0
 10
22.4008747579
 20
15.1105521095
 30
0.0
  0
SPLINE
  5
298
100
AcDbEntity
  8
0
100
AcDbSpline
 62
7
  6
BYLAYER
 70
0
 71
3
 72
15
 73
11
 74
0
 42
0.0000001
 43
0.0000001
 44
0.0000000001
 40
0.0
 40
0.0
 40
0.0
 40
0.0
 40
0.1247226847
 40
0.2496680161
 40
0.3746724908
 40
0.4997814235
 40
0.6249220372
 40
0.7500178473
 40
0.8751038194
 40
1.0
 40
1.0
 40
1.0
 40
1.0
 10
20.1984686085
 20
15.3313800173
 30
0.0
 10
20.2690194605
 20
15.2613550407
 30
0.0
 10
20.4226108649
 20
15.1330537536
 30
0.0
 10
20.6821436927
 20
14.982592123
 30
0.0
 10
20.9638141106
 20
14.8782306734
 30
0.0
 10
21.2592019949
 20
14.8229622572
 30
0.0
 10
21.5597543085
 20
14.8184903252
 30
0.0
 10
21.8567485647
 20
14.8648389053
 30
0.0
 10
22.1413348979
 20
14.9607436601
 30
0.0
 10
22.3176453936
 20
15.0559508102
 30
0.0
 10
22.4008747579
 20
15.1105521095
 30
0.0
  0
SPLINE
  5
299
100
AcDbEntity
  8
0
100
AcDbSpline
 62
7
  6
BYLAYER
 70
0
 71
3
 72
16
 73
12
 74
0
 42
0.0000001
 43
0.0000001
 44
0.0000000001
 40
0.0
 40
0.0
 40
0.0
 40
0.0
 40
0.0105186364
 40
0.0280408737
 40
0.0880292373
 40
0.1809935231
 40
0.303803685
 40
0.452432702
 40
0.6219665982
 40
0.8068224806
 40
1.0
 40
1.0
 40
1.0
 40
1.0
 10
22.5441666771
 20
33.2382765156
 30
0.0
 10
22.5436175192
 20
33.2379090007
 30
0.0
 10
22.5416777946
 20
33.237898746
 30
0.0
 10
22.5365508915
 20
33.2398019636
 30
0.0
 10
22.5273318134
 20
33.2455214139
 30
0.0
 10
22.513448786
 20
33.2557928328
 30
0.0
 10
22.4957010705
 20
33.270301882
 30
0.0
 10
22.4748113688
 20
33.2884865963
 30
0.0
 10
22.4514545359
 20
33.3097787615
 30
0.0
 10
22.4264726733
 20
33.3334264752
 30
0.0
 10
22.4094879327
 20
33.3500266812
 30
0.0
 10
22.4008747579
 20
33.3585756547
 30
0.0
  0
SPLINE
  5
29A
100
AcDbEntity
  8
0
100
AcDbSpline
 62
7
  6
BYLAYER
 70
0
 71
3
 72
11
 73
7
 74
0
 42
0.0000001
 43
0.0000001
 44
0.0000000001
 40
0.0
 40
0.0
 40
0.0
 40
0.0
 40
0.2506959937
 40
0.5010402331
 40
0.7505499307
 40
1.0
 40
1.0
 40
1.0
 40
1.0
 10
21.9309159177
 20
28.310593583
 30
0.0
 10
21.9546302957
 20
28.310593583
 30
0.0
 10
22.0024511044
 20
28.3191415834
 30
0.0
 10
22.0648380181
 20
28.3559978906
 30
0.0
 10
22.110441495
 20
28.4121930143
 30
0.0
 10
22.1256288831
 20
28.4581570047
 30
0.0
 10
22.1289521778
 20
28.4815183296
 30
0.0
  0
SPLINE
  5
29B
100
AcDbEntity
  8
0
100
AcDbSpline
 62
7
  6
BYLAYER
 70
0
 71
3
 72
11
 73
7
 74
0
 42
0.0000001
 43
0.0000001
 44
0.0000000001
 40
0.0
 40
0.0
 40
0.0
 40
0.0
 40
0.2494500693
 40
0.4989597669
 40
0.7493040063
 40
1.0
 40
1.0
 40
1.0
 40
1.0
 10
19.8328796577
 20
28.4815183296
 30
0.0
 10
19.8362029524
 20
28.4581570047
 30
0.0
 10
19.8513903405
 20
28.4121930143
 30
0.0
 10
19.8969938174
 20
28.3559978906
 30
0.0
 10
19.9593807311
 20
28.3191415834
 30
0.0
 10
20.0072015399
 20
28.310593583
 30
0.0
 10
20.0309159178
 20
28.310593583
 30
0.0
  0
SPLINE
  5
29C
100
AcDbEntity
  8
0
100
AcDbSpline
 62
7
  6
BYLAYER
 70
0
 71
3
 72
17
 73
13
 74
0
 42
0.0000001
 43
0.0000001
 44
0.0000000001
 40
0.0
 40
0.0
 40
0.0
 40
0.0
 40
0.125401373
 40
0.1882016497
 40
0.2509393957
 40
0.3761472429
 40
0.5012039988
 40
0.5637357971
 40
0.6262214464
 40
0.7509243007
 40
0.8754981773
 40
1.0
 40
1.0
 40
1.0
 40
1.0
 10
21.4359159132
 20
31.509360882
 30
0.0
 10
21.2938238994
 20
31.509360882
 30
0.0
 10
21.0798230468
 20
31.5303267821
 30
0.0
 10
20.8035644269
 20
31.5989793697
 30
0.0
 10
20.5354346488
 20
31.6941948753
 30
0.0
 10
20.2199950464
 20
31.8614862138
 30
0.0
 10
19.9432925206
 20
32.0868299198
 30
0.0
 10
19.7519792947
 20
32.2963997396
 30
0.0
 10
19.5823236338
 20
32.5233393487
 30
0.0
 10
19.4135846403
 20
32.8365597884
 30
0.0
 10
19.2890065655
 20
33.2440442736
 30
0.0
 10
19.2609455678
 20
33.5270760288
 30
0.0
 10
19.2609444253
 20
33.6681487641
 30
0.0
  0
SPLINE
  5
29D
100
AcDbEntity
  8
0
100
AcDbSpline
 62
7
  6
BYLAYER
 70
0
 71
3
 72
17
 73
13
 74
0
 42
0.0000001
 43
0.0000001
 44
0.0000000001
 40
0.0
 40
0.0
 40
0.0
 40
0.0
 40
0.1244945776
 40
0.2490871661
 40
0.3737802203
 40
0.4362700233
 40
0.49880286
 40
0.6238564896
 40
0.7490688311
 40
0.811800683
 40
0.8745885291
 40
1.0
 40
1.0
 40
1.0
 40
1.0
 10
23.6109159132
 20
15.5541814943
 30
0.0
 10
23.6109159132
 20
15.4131166626
 30
0.0
 10
23.5828225905
 20
15.1300768444
 30
0.0
 10
23.4582721889
 20
14.7225758014
 30
0.0
 10
23.2894609894
 20
14.4093819237
 30
0.0
 10
23.1198649409
 20
14.1824033781
 30
0.0
 10
22.9285090344
 20
13.9728665836
 30
0.0
 10
22.6518326732
 20
13.7474926235
 30
0.0
 10
22.3363828891
 20
13.5802183903
 30
0.0
 10
22.0682642679
 20
13.4850223255
 30
0.0
 10
21.7920227589
 20
13.4163354706
 30
0.0
 10
21.5780196769
 20
13.3953936145
 30
0.0
 10
21.4359159132
 20
13.3953936145
 30
0.0
  0
ELLIPSE
  5
29E
100
AcDbEntity
  8
0
100
AcDbEllipse
 62
7
  6
BYLAYER
 10
21.9309159178
 20
23.7065659297
 30
0.0
 11
0.0
 21
0.2407260093
 31
0.0
 40
0.8308200706
 41
-3.1415926536
 42
-2.3561944902
  0
ELLIPSE
  5
29F
100
AcDbEntity
  8
0
100
AcDbEllipse
 62
7
  6
BYLAYER
 10
20.0309159178
 20
23.7065659297
 30
0.0
 11
0.0
 21
0.2407260093
 31
0.0
 40
0.8308200706
 41
-3.926990817
 42
-3.1415926536
  0
ELLIPSE
  5
2A0
100
AcDbEntity
  8
0
100
AcDbEllipse
 62
7
  6
BYLAYER
 10
20.0309159178
 20
23.7065659297
 30
0.0
 11
0.1510215578
 21
0.1620210013
 31
0.0
 40
0.8092786196
 41
2.4266148433
 42
3.2120130067
  0
ELLIPSE
  5
2A1
100
AcDbEntity
  8
0
100
AcDbEllipse
 62
7
  6
BYLAYER
 10
20.0309159178
 20
28.5204147652
 30
0.0
 11
0.0
 21
0.2407260093
 31
0.0
 40
0.8308200706
 41
-3.926990817
 42
-3.1415926536
  0
ELLIPSE
  5
2A2
100
AcDbEntity
  8
0
100
AcDbEllipse
 62
7
  6
BYLAYER
 10
20.0309159178
 20
28.5204147652
 30
0.0
 11
0.1510215578
 21
0.1620210013
 31
0.0
 40
0.8092786196
 41
2.4266148433
 42
3.2120130067
  0
ELLIPSE
  5
2A3
100
AcDbEntity
  8
0
100
AcDbEllipse
 62
7
  6
BYLAYER
 10
21.9309159178
 20
28.5204147652
 30
0.0
 11
0.0
 21
0.2407260093
 31
0.0
 40
0.8308200706
 41
-3.1415926536
 42
-2.3561944902
  0
ELLIPSE
  5
2A4
100
AcDbEntity
  8
0
100
AcDbEllipse
 62
7
  6
BYLAYER
 10
21.9309159178
 20
28.5204147652
 30
0.0
 11
0.1510215578
 21
-0.1620210013
 31
0.0
 40
0.8092786196
 41
-0.0704203531
 42
0.7149778103
  0
ELLIPSE
  5
2A5
100
AcDbEntity
  8
0
100
AcDbEllipse
 62
7
  6
BYLAYER
 10
21.9309159178
 20
23.7065659297
 30
0.0
 11
0.1510215578
 21
-0.1620210013
 31
0.0
 40
0.8092786196
 41
-0.0704203531
 42
0.7149778103
  0
ENDSEC
  0
SECTION
  2
OBJECTS
  0
DICTIONARY
  5
C
100
AcDbDictionary
280
0
281
1
  3
ACAD_GROUP
350
D
  3
ACAD_MLINESTYLE
350
17
  3
ACAD_LAYOUT
350
1A
  3
ACAD_PLOTSETTINGS
350
19
  3
ACAD_PLOTSTYLENAME
350
E
  0
DICTIONARY
  5
D
102
{ACAD_REACTORS
330
C
102
}
100
AcDbDictionary
280
0
281
1
  0
ACDBDICTIONARYWDFLT
  5
E
102
{ACAD_REACTORS
330
C
102
}
100
AcDbDictionary
281
1
  3
Normal
350
F
100
AcDbDictionaryWithDefault
340
F
  0
DICTIONARY
  5
17
102
{ACAD_REACTORS
330
C
102
}
100
AcDbDictionary
280
0
281
1
  3
Standard
350
18
  0
DICTIONARY
  5
19
102
{ACAD_REACTORS
330
C
102
}
100
AcDbDictionary
281
1
  0
DICTIONARY
  5
1A
102
{ACAD_REACTORS
330
C
102
}
100
AcDbDictionary
281
1
  3
Model
350
2A6
  3
Layout1
350
2A7
  0
ACDBPLACEHOLDER
  5
F
102
{ACAD_REACTORS
330
E
102
}
  0
MLINESTYLE
  5
18
102
{ACAD_REACTORS
330
17
102
}
100
AcDbMlineStyle
  2
STANDARD
 70
0
  3

 62
256
 51
90.0
 52
90.0
 71
2
 49
0.5
 62
256
  6
BYLAYER
 49
-0.5
 62
256
  6
BYLAYER
  0
LAYOUT
  5
2A6
102
{ACAD_REACTORS
330
1A
102
}
100
AcDbPlotSettings
  1

  2
none_device
  4

  6

 40
0.0
 41
0.0
 42
0.0
 43
0.0
 44
210.0
 45
297.0
 46
0.0
 47
0.0
 48
0.0
 49
0.0
140
0.0
141
0.0
142
1.0
143
1.0
 70
1024
 72
1
 73
0
 74
0
  7

 75
0
147
1.0
148
0.0
149
0.0
100
AcDbLayout
  1
Model
 70
0
 71
0
 10
0.0
 20
0.0
 11
210.0
 21
297.0
 12
0.0
 22
0.0
 32
0.0
 14
0.0
 24
0.0
 34
0.0
 15
0.0
 25
0.0
 35
0.0
146
0.0
 13
0.0
 23
0.0
 33
0.0
 16
1.0
 26
0.0
 36
0.0
 17
0.0
 27
1.0
 37
0.0
 76
0
330
210
345
0
346
0
  0
LAYOUT
  5
2A7
102
{ACAD_REACTORS
330
1A
102
}
100
AcDbPlotSettings
  1

  2
none_device
  4

  6

 40
0.0
 41
0.0
 42
0.0
 43
0.0
 44
210.0
 45
297.0
 46
0.0
 47
0.0
 48
0.0
 49
0.0
140
0.0
141
0.0
142
1.0
143
1.0
 70
0
 72
1
 73
0
 74
0
  7

 75
0
147
1.0
148
0.0
149
0.0
100
AcDbLayout
  1
Layout1
 70
0
 71
1
 10
0.0
 20
0.0
 11
210.0
 21
297.0
 12
0.0
 22
0.0
 32
0.0
 14
0.0
 24
0.0
 34
0.0
 15
0.0
 25
0.0
 35
0.0
146
0.0
 13
0.0
 23
0.0
 33
0.0
 16
1.0
 26
0.0
 36
0.0
 17
0.0
 27
1.0
 37
0.0
 76
0
330
211
345
0
346
0
  0
ENDSEC
  0
EOF
