999
DXF file: C:\Users\sesa63760\Dev\_Creo\CAD\MCADID0000493_3D-CAD\drw0001_2.dxf
999
Pro/ENGINEER 2019471 by Parametric Technology Corporation
  0
SECTION
  2
HEADER
  9
$ACADVER
  1
AC1024
  9
$DWGCODEPAGE
  3
ANSI_1252
  9
$EXTMAX
 10
23667.9689977159
 20
33473.2704396268
 30
0.0
  9
$EXTMIN
 10
0.0
 20
0.0
 30
0.0
  9
$LIMMIN
 10
0.0
 20
0.0
  9
$LIMMAX
 10
23667.9689977159
 20
33473.2704396268
  9
$VIEWCTR
 10
11833.984498858
 20
16736.6352198134
  9
$VIEWSIZE
 40
33473.2704396268
  9
$CLAYER
  8
0
  9
$LTSCALE
 40
2181.9613323609
  9
$CELTYPE
  6
BYLAYER
  9
$DIMSCALE
 40
1.0
  9
$DIMASZ
 40
281.7615356871
  9
$DIMEXO
 40
1.0
  9
$DIMDLI
 40
1507.5369205402
  9
$DIMEXE
 40
1.0
  9
$DIMCEN
 40
357.0482180227
  9
$DIMLFAC
 40
1.0
  9
$DIMBLK
  1
_FILLED
  9
$DIMALT
 70
0
  9
$DIMALTF
 40
0.0393700787
  9
$DIMTXT
 40
394.4661499619
  9
$DIMTOL
 70
1
  9
$DIMLIM
 70
0
  9
$DIMTFAC
 40
1.0
  9
$DIMTP
 40
0.01
  9
$DIMTM
 40
0.01
  9
$DIMGAP
 40
0.625
  9
$DIMDSEP
 70
46
  9
$AUNITS
 70
0
  9
$PDMODE
 70
3
  9
$PDSIZE
 40
0.3125
  9
$HANDSEED
  5
2BE
  9
$TILEMODE
 70
1
  9
$MEASUREMENT
 70
1
  9
$INSUNITS
 70
4
  0
ENDSEC
  0
SECTION
  2
CLASSES
  0
CLASS
  1
ACDBDICTIONARYWDFLT
  2
AcDbDictionaryWithDefault
  3
AutoCAD 2000
 90
0
 91
1
280
0
281
0
  0
CLASS
  1
ACDBPLACEHOLDER
  2
AcDbPlaceHolder
  3
AutoCAD 2000
 90
0
 91
1
280
0
281
0
  0
CLASS
  1
LAYOUT
  2
AcDbLayout
  3
AutoCAD 2000
 90
0
 91
0
280
0
281
0
  0
ENDSEC
  0
SECTION
  2
TABLES
  0
TABLE
  2
VPORT
  5
8
100
AcDbSymbolTable
 70
2
  0
VPORT
  5
1F4
100
AcDbSymbolTableRecord
100
AcDbViewportTableRecord
  2
*ACTIVE
 70
0
 10
0.0
 20
0.0
 11
1.0
 21
1.0
 12
11833.984498858
 22
16736.6352198134
 13
0.0
 23
0.0
 14
1.0
 24
1.0
 15
0.0
 25
0.0
 16
0.0
 26
0.0
 36
1.0
 17
0.0
 27
0.0
 37
0.0
 40
33473.2704396268
 41
0.7070707071
 42
50.0
 43
0.0
 44
0.0
 50
0.0
 51
0.0
 71
0
 72
100
 73
1
 74
1
 75
0
 76
0
 77
0
 78
0
  0
ENDTAB
  0
TABLE
  2
LTYPE
  5
5
100
AcDbSymbolTable
 70
6
  0
LTYPE
  5
14
100
AcDbSymbolTableRecord
100
AcDbLinetypeTableRecord
  2
BYBLOCK
 70
0
  3

 72
65
 73
0
 40
0.0
  0
LTYPE
  5
15
100
AcDbSymbolTableRecord
100
AcDbLinetypeTableRecord
  2
BYLAYER
 70
0
  3

 72
65
 73
0
 40
0.0
  0
LTYPE
  5
16
100
AcDbSymbolTableRecord
100
AcDbLinetypeTableRecord
  2
CONTINUOUS
 70
64
  3
Solid line
 72
65
 73
0
 40
0.0
  0
LTYPE
  5
1F5
100
AcDbSymbolTableRecord
100
AcDbLinetypeTableRecord
  2
CENTER
 70
64
  3
____ _ ____ _ ____ _ ____ _ ____ _ ____ _ ____
 72
65
 73
4
 40
0.6
 49
0.375
 74
0
 49
-0.075
 74
0
 49
0.075
 74
0
 49
-0.075
 74
0
  0
LTYPE
  5
1F6
100
AcDbSymbolTableRecord
100
AcDbLinetypeTableRecord
  2
HIDDEN
 70
64
  3
- - - - - - - - - - - - - - - - - - - -
 72
65
 73
2
 40
0.2
 49
0.1
 74
0
 49
-0.1
 74
0
  0
LTYPE
  5
1F7
100
AcDbSymbolTableRecord
100
AcDbLinetypeTableRecord
  2
PHANTOM
 70
64
  3
_____ _ _ _____ _ _ _____ _ _ _____
 72
65
 73
6
 40
0.8
 49
0.45
 74
0
 49
-0.05
 74
0
 49
0.1
 74
0
 49
-0.05
 74
0
 49
0.1
 74
0
 49
-0.05
 74
0
  0
LTYPE
  5
1F8
100
AcDbSymbolTableRecord
100
AcDbLinetypeTableRecord
  2
DOT
 70
64
  3
. . . . . . . . . . . . . . . . . . . .
 72
65
 73
2
 40
0.2
 49
0.1
 74
0
 49
-0.1
 74
0
  0
LTYPE
  5
1F9
100
AcDbSymbolTableRecord
100
AcDbLinetypeTableRecord
  2
DASHED
 70
64
  3
- - - - - - - - - - - - - - - - - - - -
 72
65
 73
2
 40
0.2
 49
0.1
 74
0
 49
-0.1
 74
0
  0
ENDTAB
  0
TABLE
  2
LAYER
  5
2
100
AcDbSymbolTable
 70
36
  0
LAYER
  5
10
100
AcDbSymbolTableRecord
100
AcDbLayerTableRecord
  2
0
 70
0
 62
7
  6
CONTINUOUS
370
-3
390
F
  0
LAYER
  5
1FA
100
AcDbSymbolTableRecord
100
AcDbLayerTableRecord
  2
DEFAULT_1
 70
0
 62
7
  6
CENTER
370
-3
390
F
  0
LAYER
  5
1FB
100
AcDbSymbolTableRecord
100
AcDbLayerTableRecord
  2
DEFAULT_2
 70
0
 62
8
  6
HIDDEN
370
-3
390
F
  0
LAYER
  5
1FC
100
AcDbSymbolTableRecord
100
AcDbLayerTableRecord
  2
DEFAULT_3
 70
0
 62
7
  6
PHANTOM
370
-3
390
F
  0
LAYER
  5
1FD
100
AcDbSymbolTableRecord
100
AcDbLayerTableRecord
  2
00_COMPONENTS
 70
0
 62
7
  6
CONTINUOUS
370
-3
390
F
  0
LAYER
  5
1FE
100
AcDbSymbolTableRecord
100
AcDbLayerTableRecord
  2
01_1_DEFAULT_DATUMS
 70
0
 62
7
  6
CONTINUOUS
370
-3
390
F
  0
LAYER
  5
1FF
100
AcDbSymbolTableRecord
100
AcDbLayerTableRecord
  2
01_PLANES
 70
0
 62
7
  6
CONTINUOUS
370
-3
390
F
  0
LAYER
  5
200
100
AcDbSymbolTableRecord
100
AcDbLayerTableRecord
  2
02_COORD_SYS
 70
0
 62
7
  6
CONTINUOUS
370
-3
390
F
  0
LAYER
  5
201
100
AcDbSymbolTableRecord
100
AcDbLayerTableRecord
  2
03_AXES
 70
0
 62
7
  6
CONTINUOUS
370
-3
390
F
  0
LAYER
  5
202
100
AcDbSymbolTableRecord
100
AcDbLayerTableRecord
  2
04_POINTS
 70
0
 62
7
  6
CONTINUOUS
370
-3
390
F
  0
LAYER
  5
203
100
AcDbSymbolTableRecord
100
AcDbLayerTableRecord
  2
05_CURVES
 70
0
 62
7
  6
CONTINUOUS
370
-3
390
F
  0
LAYER
  5
204
100
AcDbSymbolTableRecord
100
AcDbLayerTableRecord
  2
06_SURFS
 70
0
 62
7
  6
CONTINUOUS
370
-3
390
F
  0
LAYER
  5
205
100
AcDbSymbolTableRecord
100
AcDbLayerTableRecord
  2
07_COSMETICS
 70
0
 62
7
  6
CONTINUOUS
370
-3
390
F
  0
LAYER
  5
206
100
AcDbSymbolTableRecord
100
AcDbLayerTableRecord
  2
10_NOTES
 70
0
 62
7
  6
CONTINUOUS
370
-3
390
F
  0
LAYER
  5
207
100
AcDbSymbolTableRecord
100
AcDbLayerTableRecord
  2
11_NOTES_PUB
 70
0
 62
7
  6
CONTINUOUS
370
-3
390
F
  0
LAYER
  5
208
100
AcDbSymbolTableRecord
100
AcDbLayerTableRecord
  2
13_REF_GTOL
 70
0
 62
7
  6
CONTINUOUS
370
-3
390
F
  0
LAYER
  5
209
100
AcDbSymbolTableRecord
100
AcDbLayerTableRecord
  2
16_MISC
 70
0
 62
7
  6
CONTINUOUS
370
-3
390
F
  0
LAYER
  5
20A
100
AcDbSymbolTableRecord
100
AcDbLayerTableRecord
  2
17_NO_PRINT
 70
0
 62
7
  6
CONTINUOUS
370
-3
390
F
  0
LAYER
  5
20B
100
AcDbSymbolTableRecord
100
AcDbLayerTableRecord
  2
18_DATUM_CAMS_JOINTS
 70
0
 62
7
  6
CONTINUOUS
370
-3
390
F
  0
LAYER
  5
20C
100
AcDbSymbolTableRecord
100
AcDbLayerTableRecord
  2
19_DATUM_FUNCTIONAL
 70
0
 62
7
  6
CONTINUOUS
370
-3
390
F
  0
LAYER
  5
20D
100
AcDbSymbolTableRecord
100
AcDbLayerTableRecord
  2
20_DATUM_KINEMATIC_SCHEME
 70
0
 62
7
  6
CONTINUOUS
370
-3
390
F
  0
ENDTAB
  0
TABLE
  2
STYLE
  5
3
100
AcDbSymbolTable
 70
1
  0
STYLE
  5
11
100
AcDbSymbolTableRecord
100
AcDbTextStyleTableRecord
  2
STANDARD
 70
0
 40
0.0
 41
0.8
 50
0.0
 71
0
 42
0.2
  3
txt
  4

  0
STYLE
  5
20E
100
AcDbSymbolTableRecord
100
AcDbTextStyleTableRecord
  2
TEXTSTYLE_1
 70
0
 40
0.0
 41
0.8
 50
0.0
 71
0
 42
0.2
  3
gdt
  4

  0
ENDTAB
  0
TABLE
  2
VIEW
  5
6
100
AcDbSymbolTable
 70
0
  0
ENDTAB
  0
TABLE
  2
UCS
  5
7
100
AcDbSymbolTable
 70
0
  0
ENDTAB
  0
TABLE
  2
APPID
  5
9
100
AcDbSymbolTable
 70
1
  0
APPID
  5
20F
100
AcDbSymbolTableRecord
100
AcDbRegAppTableRecord
  2
ACAD
 70
0
  0
ENDTAB
  0
TABLE
  2
BLOCK_RECORD
  5
1
100
AcDbSymbolTable
 70
0
  0
BLOCK_RECORD
  5
210
100
AcDbSymbolTableRecord
100
AcDbBlockTableRecord
  2
*Model_Space
  0
BLOCK_RECORD
  5
211
100
AcDbSymbolTableRecord
100
AcDbBlockTableRecord
  2
*Paper_Space
  0
BLOCK_RECORD
  5
212
100
AcDbSymbolTableRecord
100
AcDbBlockTableRecord
  2
_FILLED
  0
ENDTAB
  0
TABLE
  2
DIMSTYLE
  5
A
100
AcDbSymbolTable
 70
1
100
AcDbDimStyleTable
 71
0
  0
DIMSTYLE
105
213
100
AcDbSymbolTableRecord
100
AcDbDimStyleTableRecord
  2
STANDARD
 70
0
  3

  4

 40
1.0
 41
281.7615356871
 42
1.0
 43
0.38
 44
1.0
 45
0.0
 46
0.0
 47
0.01
 48
0.01
140
394.4661499619
141
0.09
142
0.0
143
25.4
144
1.0
145
0.0
146
1.0
147
0.625
 71
1
 72
0
 73
0
 74
0
 75
0
 76
0
 77
1
 78
8
 79
2
170
0
171
1
172
0
173
0
174
0
175
0
176
0
177
0
178
0
270
2
179
2
271
2
272
2
273
2
274
2
275
0
280
0
281
0
282
0
283
1
284
8
285
0
286
0
287
3
288
0
340
11
278
46
341
212
342
212
343
212
344
212
  0
ENDTAB
  0
ENDSEC
  0
SECTION
  2
BLOCKS
  0
BLOCK
  5
20
100
AcDbEntity
  8
0
100
AcDbBlockBegin
  2
*Model_Space
 70
0
 10
0.0
 20
0.0
 30
0.0
  3
*Model_Space
  1

  0
ENDBLK
  5
21
100
AcDbEntity
  8
0
100
AcDbBlockEnd
  0
BLOCK
  5
1C
100
AcDbEntity
  8
0
100
AcDbBlockBegin
  2
*Paper_Space
 70
0
 10
0.0
 20
0.0
 30
0.0
  3
*Paper_Space
  1

  0
ENDBLK
  5
1D
100
AcDbEntity
  8
0
100
AcDbBlockEnd
  0
BLOCK
  5
214
100
AcDbEntity
  8
0
100
AcDbBlockBegin
  2
_FILLED
 70
64
 10
0.0
 20
0.0
  3
_FILLED
  1

  0
SOLID
  5
215
100
AcDbEntity
  8
0
  6
BYBLOCK
 62
0
100
AcDbTrace
 10
0.0
 20
0.0
 11
-1.0
 21
0.25
 12
-1.0
 22
-0.25
 13
-1.0
 23
-0.25
  0
ENDBLK
  5
216
100
AcDbEntity
  8
0
  6
BYBLOCK
 62
0
100
AcDbBlockEnd
  0
ENDSEC
  0
SECTION
  2
ENTITIES
  0
LINE
  5
217
100
AcDbEntity
  8
0
100
AcDbLine
 62
7
  6
CONTINUOUS
 10
2662.5473394435
 20
17125.1787861653
 11
2660.801300969
 21
17175.1787861655
  0
LINE
  5
218
100
AcDbEntity
  8
0
100
AcDbLine
 62
7
  6
CONTINUOUS
 10
2646.830553085
 20
15512.5226067322
 11
2595.0340902661
 21
17075.8340426383
  0
LINE
  5
219
100
AcDbEntity
  8
0
100
AcDbLine
 62
7
  6
CONTINUOUS
 10
2645.034089879
 20
15415.8340426719
 11
2645.034089879
 21
15512.5226067322
  0
LINE
  5
21A
100
AcDbEntity
  8
0
100
AcDbLine
 62
7
  6
CONTINUOUS
 10
2662.547339439
 20
17125.1787862855
 11
2662.547339439
 21
17075.8340427355
  0
LINE
  5
21B
100
AcDbEntity
  8
0
100
AcDbLine
 62
7
  6
CONTINUOUS
 10
2652.6583849353
 20
18828.3189939001
 11
2600.7025498351
 21
17175.1787861656
  0
LINE
  5
21C
100
AcDbEntity
  8
0
100
AcDbLine
 62
7
  6
CONTINUOUS
 10
4710.801300972
 20
17175.1787861655
 11
4712.5473394445
 21
17125.1787862256
  0
LINE
  5
21D
100
AcDbEntity
  8
0
100
AcDbLine
 62
7
  6
CONTINUOUS
 10
4692.1127255173
 20
15512.8233394887
 11
4645.0340898806
 21
17075.8340426255
  0
LINE
  5
21E
100
AcDbEntity
  8
0
100
AcDbLine
 62
7
  6
CONTINUOUS
 10
4630.702549839
 20
15415.8340426719
 11
4630.702549839
 21
18925.1787862055
  0
LINE
  5
21F
100
AcDbEntity
  8
0
100
AcDbLine
 62
7
  6
CONTINUOUS
 10
4712.547339439
 20
17125.1787862255
 11
4712.547339439
 21
17075.8340426255
  0
LINE
  5
220
100
AcDbEntity
  8
0
100
AcDbLine
 62
7
  6
CONTINUOUS
 10
4702.6584194591
 20
18828.3200922555
 11
4650.7025498391
 21
17175.1787861655
  0
LINE
  5
221
100
AcDbEntity
  8
0
100
AcDbLine
 62
7
  6
CONTINUOUS
 10
6330.2612432371
 20
14697.1571587118
 11
6401.268552356
 21
14595.7482117045
  0
LINE
  5
222
100
AcDbEntity
  8
0
100
AcDbLine
 62
7
  6
CONTINUOUS
 10
6272.5416184917
 20
14861.7428386542
 11
6301.4479261559
 21
14758.1286565352
  0
LINE
  5
223
100
AcDbEntity
  8
0
100
AcDbLine
 62
7
  6
CONTINUOUS
 10
6270.9718315383
 20
14880.3610306194
 11
6314.8082321011
 21
14723.2301776165
  0
LINE
  5
224
100
AcDbEntity
  8
0
100
AcDbLine
 62
7
  6
CONTINUOUS
 10
6306.8268651865
 20
14761.8351008881
 11
6319.8043046233
 21
14713.7708784355
  0
LINE
  5
225
100
AcDbEntity
  8
0
100
AcDbLine
 62
7
  6
CONTINUOUS
 10
6800.702549839
 20
15415.8340426719
 11
6800.702549839
 21
15025.1787865614
  0
LINE
  5
226
100
AcDbEntity
  8
0
100
AcDbLine
 62
7
  6
CONTINUOUS
 10
6813.7692614218
 20
14918.1967601625
 11
6813.7692614218
 21
15415.8340426719
  0
LINE
  5
227
100
AcDbEntity
  8
0
100
AcDbLine
 62
7
  6
CONTINUOUS
 10
7134.2733579419
 20
14761.8351009023
 11
7137.1808006768
 21
14428.7005354496
  0
LINE
  5
228
100
AcDbEntity
  8
0
100
AcDbLine
 62
7
  6
CONTINUOUS
 10
7133.720523869
 20
14895.9991794755
 11
7133.720523869
 21
15415.8340426719
  0
LINE
  5
229
100
AcDbEntity
  8
0
100
AcDbLine
 62
7
  6
CONTINUOUS
 10
7137.180800669
 20
15415.8340426719
 11
7137.180800669
 21
14428.7005354535
  0
LINE
  5
22A
100
AcDbEntity
  8
0
100
AcDbLine
 62
7
  6
CONTINUOUS
 10
7140.702549879
 20
14885.1787861716
 11
7140.702549879
 21
15275.1787862466
  0
LINE
  5
22B
100
AcDbEntity
  8
0
100
AcDbLine
 62
7
  6
CONTINUOUS
 10
7161.1559350482
 20
15344.7254010173
 11
7161.1559350496
 21
15274.725398897
  0
LINE
  5
22C
100
AcDbEntity
  8
0
100
AcDbLine
 62
7
  6
CONTINUOUS
 10
7460.702549799
 20
15116.7254478075
 11
7460.702549799
 21
14885.1787861716
  0
LINE
  5
22D
100
AcDbEntity
  8
0
100
AcDbLine
 62
7
  6
CONTINUOUS
 10
7161.1559350496
 20
15274.725398897
 11
7161.0245133631
 21
15220.8402085977
  0
LINE
  5
22E
100
AcDbEntity
  8
0
100
AcDbLine
 62
7
  6
CONTINUOUS
 10
7161.0245133631
 20
15220.8402085977
 11
7194.8209943021
 21
15168.9487694493
  0
LINE
  5
22F
100
AcDbEntity
  8
0
100
AcDbLine
 62
7
  6
CONTINUOUS
 10
7600.702549839
 20
14825.1787876153
 11
7600.702549839
 21
15123.8928577169
  0
LINE
  5
230
100
AcDbEntity
  8
0
100
AcDbLine
 62
7
  6
CONTINUOUS
 10
8157.730254059
 20
14835.8340426715
 11
8157.730254059
 21
15415.8340426719
  0
LINE
  5
231
100
AcDbEntity
  8
0
100
AcDbLine
 62
7
  6
CONTINUOUS
 10
7300.620678076
 20
15125.260658008
 11
7309.3402437617
 21
15116.5410923224
  0
LINE
  5
232
100
AcDbEntity
  8
0
100
AcDbLine
 62
7
  6
CONTINUOUS
 10
7538.2013107664
 20
15125.5500252477
 11
7546.920876452
 21
15116.8304595621
  0
LINE
  5
233
100
AcDbEntity
  8
0
100
AcDbLine
 62
7
  6
CONTINUOUS
 10
7550.4699750919
 20
15116.8473782106
 11
7541.7504094063
 21
15125.5669438962
  0
LINE
  5
234
100
AcDbEntity
  8
0
100
AcDbLine
 62
7
  6
CONTINUOUS
 10
7891.2551360724
 20
15272.4961999861
 11
7899.974701758
 21
15263.7766343005
  0
LINE
  5
235
100
AcDbEntity
  8
0
100
AcDbLine
 62
7
  6
CONTINUOUS
 10
8355.034089839
 20
14835.8340426715
 11
8355.034089839
 21
15415.8340426719
  0
LINE
  5
236
100
AcDbEntity
  8
0
100
AcDbLine
 62
7
  6
CONTINUOUS
 10
8410.702549839
 20
14975.8340426715
 11
8410.702549839
 21
15415.8340426719
  0
LINE
  5
237
100
AcDbEntity
  8
0
100
AcDbLine
 62
7
  6
CONTINUOUS
 10
8475.702549839
 20
14975.8340426715
 11
8475.702549839
 21
15415.8340426719
  0
LINE
  5
238
100
AcDbEntity
  8
0
100
AcDbLine
 62
7
  6
CONTINUOUS
 10
8545.702549769
 20
14975.8340426715
 11
8545.702549769
 21
15415.8340426719
  0
LINE
  5
239
100
AcDbEntity
  8
0
100
AcDbLine
 62
7
  6
CONTINUOUS
 10
8585.702549799
 20
14975.8340426715
 11
8585.702549799
 21
15415.8340426719
  0
LINE
  5
23A
100
AcDbEntity
  8
0
100
AcDbLine
 62
7
  6
CONTINUOUS
 10
8605.702549909
 20
14975.8340426715
 11
8605.702549909
 21
15415.8340426719
  0
LINE
  5
23B
100
AcDbEntity
  8
0
100
AcDbLine
 62
7
  6
CONTINUOUS
 10
8995.702549769
 20
14975.8340426715
 11
8995.702549769
 21
15415.8340426719
  0
LINE
  5
23C
100
AcDbEntity
  8
0
100
AcDbLine
 62
7
  6
CONTINUOUS
 10
9015.702549879
 20
14975.8340426715
 11
9015.702549879
 21
15415.8340426719
  0
LINE
  5
23D
100
AcDbEntity
  8
0
100
AcDbLine
 62
7
  6
CONTINUOUS
 10
9055.702549909
 20
14975.8340426715
 11
9055.702549909
 21
15415.8340426719
  0
LINE
  5
23E
100
AcDbEntity
  8
0
100
AcDbLine
 62
7
  6
CONTINUOUS
 10
9125.702549839
 20
14975.8340426715
 11
9125.702549839
 21
15415.8340426719
  0
LINE
  5
23F
100
AcDbEntity
  8
0
100
AcDbLine
 62
7
  6
CONTINUOUS
 10
9190.702549879
 20
14975.8340426715
 11
9190.702549879
 21
15415.8340426719
  0
LINE
  5
240
100
AcDbEntity
  8
0
100
AcDbLine
 62
7
  6
CONTINUOUS
 10
9235.034089909
 20
14835.8340426715
 11
9235.034089909
 21
15415.8340426719
  0
LINE
  5
241
100
AcDbEntity
  8
0
100
AcDbLine
 62
7
  6
CONTINUOUS
 10
9432.337925699
 20
14835.8340426715
 11
9432.337925699
 21
15415.8340426719
  0
LINE
  5
242
100
AcDbEntity
  8
0
100
AcDbLine
 62
7
  6
CONTINUOUS
 10
8034.5929787581
 20
15415.8340426719
 11
7891.2551360724
 21
15272.4961999861
  0
LINE
  5
243
100
AcDbEntity
  8
0
100
AcDbLine
 62
7
  6
CONTINUOUS
 10
7899.974701758
 20
15263.7766343005
 11
8052.0321101294
 21
15415.8340426719
  0
LINE
  5
244
100
AcDbEntity
  8
0
100
AcDbLine
 62
7
  6
CONTINUOUS
 10
6728.9293700348
 20
14425.1787862255
 11
7200.7025498381
 21
14425.1787862255
  0
LINE
  5
245
100
AcDbEntity
  8
0
100
AcDbLine
 62
7
  6
CONTINUOUS
 10
16707.7417876814
 20
14425.8340426715
 11
17323.6385327473
 21
14425.8340426715
  0
LINE
  5
246
100
AcDbEntity
  8
0
100
AcDbLine
 62
7
  6
CONTINUOUS
 10
7036.3003615742
 20
14428.7005354562
 11
7137.1808006763
 21
14428.7005354562
  0
LINE
  5
247
100
AcDbEntity
  8
0
100
AcDbLine
 62
7
  6
CONTINUOUS
 10
16407.684575809
 20
14725.8340426715
 11
16400.7025498377
 21
14725.8340426715
  0
LINE
  5
248
100
AcDbEntity
  8
0
100
AcDbLine
 62
7
  6
CONTINUOUS
 10
7134.2733579416
 20
14761.8351008882
 11
6306.8268651865
 21
14761.8351008881
  0
LINE
  5
249
100
AcDbEntity
  8
0
100
AcDbLine
 62
7
  6
CONTINUOUS
 10
17730.7025498923
 20
14825.8340426715
 11
17723.720523929
 21
14825.8340426715
  0
LINE
  5
24A
100
AcDbEntity
  8
0
100
AcDbLine
 62
7
  6
CONTINUOUS
 10
6608.8851924471
 20
14443.6171097418
 11
7036.3003615742
 21
14428.7005354562
  0
LINE
  5
24B
100
AcDbEntity
  8
0
100
AcDbLine
 62
7
  6
CONTINUOUS
 10
7309.3402437617
 20
15116.5410923224
 11
7550.4699750884
 21
15116.8473782107
  0
LINE
  5
24C
100
AcDbEntity
  8
0
100
AcDbLine
 62
7
  6
CONTINUOUS
 10
7300.6206780765
 20
15125.2606580083
 11
7541.7504094078
 21
15125.5669438968
  0
LINE
  5
24D
100
AcDbEntity
  8
0
100
AcDbLine
 62
7
  6
CONTINUOUS
 10
8157.730254059
 20
14835.8340426715
 11
8355.034089839
 21
14835.8340426715
  0
LINE
  5
24E
100
AcDbEntity
  8
0
100
AcDbLine
 62
7
  6
CONTINUOUS
 10
9235.034089909
 20
14835.8340426715
 11
9432.337925699
 21
14835.8340426715
  0
LINE
  5
24F
100
AcDbEntity
  8
0
100
AcDbLine
 62
7
  6
CONTINUOUS
 10
7133.720523869
 20
14895.9991794755
 11
6275.2436107587
 21
14895.9991794755
  0
LINE
  5
250
100
AcDbEntity
  8
0
100
AcDbLine
 62
7
  6
CONTINUOUS
 10
17193.7205238633
 20
14915.8340426715
 11
17730.7025499006
 21
14915.8340426715
  0
LINE
  5
251
100
AcDbEntity
  8
0
100
AcDbLine
 62
7
  6
CONTINUOUS
 10
6295.218163999
 20
14918.1967601625
 11
6813.7692614181
 21
14918.1967601625
  0
LINE
  5
252
100
AcDbEntity
  8
0
100
AcDbLine
 62
7
  6
CONTINUOUS
 10
6700.702549519
 20
14925.1787862255
 11
6320.7025497667
 21
14925.1787862255
  0
LINE
  5
253
100
AcDbEntity
  8
0
100
AcDbLine
 62
7
  6
CONTINUOUS
 10
8410.702549839
 20
14975.8340426715
 11
9190.702549879
 21
14975.8340426715
  0
LINE
  5
254
100
AcDbEntity
  8
0
100
AcDbLine
 62
7
  6
CONTINUOUS
 10
2645.034089879
 20
15415.8340426719
 11
21243.292469719
 21
15415.8340426719
  0
LINE
  5
255
100
AcDbEntity
  8
0
100
AcDbLine
 62
7
  6
CONTINUOUS
 10
2645.0341024485
 20
15422.2442991471
 11
2712.7567679076
 21
15422.2442991471
  0
LINE
  5
256
100
AcDbEntity
  8
0
100
AcDbLine
 62
7
  6
CONTINUOUS
 10
19297.9463957683
 20
15512.5225980609
 11
4692.1217839949
 21
15512.5225980609
  0
LINE
  5
257
100
AcDbEntity
  8
0
100
AcDbLine
 62
7
  6
CONTINUOUS
 10
21343.2475913548
 20
15512.8233598805
 11
19400.7025498066
 21
15512.8233598805
  0
LINE
  5
258
100
AcDbEntity
  8
0
100
AcDbLine
 62
7
  6
CONTINUOUS
 10
4630.702549839
 20
15512.8233599285
 11
2646.8205883749
 21
15512.8233599285
  0
LINE
  5
259
100
AcDbEntity
  8
0
100
AcDbLine
 62
7
  6
CONTINUOUS
 10
11815.8741873384
 20
18828.3269583522
 11
11815.849797947
 21
18925.1787861255
  0
LINE
  5
25A
100
AcDbEntity
  8
0
100
AcDbLine
 62
7
  6
CONTINUOUS
 10
11765.702549839
 20
18925.1787861255
 11
11765.7025498379
 21
18828.3210346822
  0
LINE
  5
25B
100
AcDbEntity
  8
0
100
AcDbLine
 62
7
  6
CONTINUOUS
 10
11815.8843423807
 20
17504.1640597206
 11
11815.8741873384
 21
18828.3269583522
  0
LINE
  5
25C
100
AcDbEntity
  8
0
100
AcDbLine
 62
7
  6
CONTINUOUS
 10
11915.702549839
 20
17397.9307987155
 11
11915.702549839
 21
17404.2134109261
  0
LINE
  5
25D
100
AcDbEntity
  8
0
100
AcDbLine
 62
7
  6
CONTINUOUS
 10
11765.7025452394
 20
17455.1595397812
 11
11766.0333404361
 21
18828.3200922555
  0
LINE
  5
25E
100
AcDbEntity
  8
0
100
AcDbLine
 62
7
  6
CONTINUOUS
 10
12265.702549839
 20
18250.6528012355
 11
12265.702549839
 21
17404.2103143206
  0
LINE
  5
25F
100
AcDbEntity
  8
0
100
AcDbLine
 62
7
  6
CONTINUOUS
 10
12265.702549839
 20
17393.5336427455
 11
12265.702549839
 21
17401.0722249254
  0
LINE
  5
260
100
AcDbEntity
  8
0
100
AcDbLine
 62
7
  6
CONTINUOUS
 10
4630.702549839
 20
17075.8340427354
 11
2595.0340902693
 21
17075.8340427354
  0
LINE
  5
261
100
AcDbEntity
  8
0
100
AcDbLine
 62
7
  6
CONTINUOUS
 10
4645.034089879
 20
17075.8340426255
 11
19345.034089879
 21
17075.8340426255
  0
LINE
  5
262
100
AcDbEntity
  8
0
100
AcDbLine
 62
7
  6
CONTINUOUS
 10
19400.702549839
 20
17075.8340426255
 11
21395.034089879
 21
17075.8340426255
  0
LINE
  5
263
100
AcDbEntity
  8
0
100
AcDbLine
 62
7
  6
CONTINUOUS
 10
4630.702549839
 20
17125.1787862855
 11
2662.547339439
 21
17125.1787862855
  0
LINE
  5
264
100
AcDbEntity
  8
0
100
AcDbLine
 62
7
  6
CONTINUOUS
 10
4712.5473394445
 20
17125.1787862256
 11
19288.8577602327
 21
17125.1787862256
  0
LINE
  5
265
100
AcDbEntity
  8
0
100
AcDbLine
 62
7
  6
CONTINUOUS
 10
19400.7025498187
 20
17125.1787862855
 11
21338.8577602341
 21
17125.1787862855
  0
LINE
  5
266
100
AcDbEntity
  8
0
100
AcDbLine
 62
7
  6
CONTINUOUS
 10
4630.702549839
 20
17175.1787861655
 11
2600.702549839
 21
17175.1787861655
  0
LINE
  5
267
100
AcDbEntity
  8
0
100
AcDbLine
 62
7
  6
CONTINUOUS
 10
4650.7025498391
 20
17175.1787861655
 11
19350.7025498388
 21
17175.1787861655
  0
LINE
  5
268
100
AcDbEntity
  8
0
100
AcDbLine
 62
7
  6
CONTINUOUS
 10
19400.7025498199
 20
17175.1787861656
 11
21400.7025498407
 21
17175.1787861656
  0
LINE
  5
269
100
AcDbEntity
  8
0
100
AcDbLine
 62
7
  6
CONTINUOUS
 10
14355.7025499189
 20
17375.1787861453
 11
11845.7025497499
 21
17375.1787861453
  0
LINE
  5
26A
100
AcDbEntity
  8
0
100
AcDbLine
 62
7
  6
CONTINUOUS
 10
13885.7025720856
 20
17391.9631047854
 11
12315.7025499028
 21
17391.9631047854
  0
LINE
  5
26B
100
AcDbEntity
  8
0
100
AcDbLine
 62
7
  6
CONTINUOUS
 10
11915.702549839
 20
17397.9307987155
 11
12265.702549839
 21
17397.9307987154
  0
LINE
  5
26C
100
AcDbEntity
  8
0
100
AcDbLine
 62
7
  6
CONTINUOUS
 10
13935.702549839
 20
17397.930798715
 11
14285.702549769
 21
17397.9307987149
  0
LINE
  5
26D
100
AcDbEntity
  8
0
100
AcDbLine
 62
7
  6
CONTINUOUS
 10
11915.7025498297
 20
17404.2134109254
 11
12265.702549839
 21
17404.2134109253
  0
LINE
  5
26E
100
AcDbEntity
  8
0
100
AcDbLine
 62
7
  6
CONTINUOUS
 10
13935.702549839
 20
17404.2134109254
 11
14285.7025497683
 21
17404.2134109253
  0
LINE
  5
26F
100
AcDbEntity
  8
0
100
AcDbLine
 62
7
  6
CONTINUOUS
 10
13935.702549839
 20
17393.5336427053
 11
13935.702549839
 21
17401.0722249255
  0
LINE
  5
270
100
AcDbEntity
  8
0
100
AcDbLine
 62
7
  6
CONTINUOUS
 10
13935.702549839
 20
17404.2103143196
 11
13935.702549839
 21
18250.6528012355
  0
LINE
  5
271
100
AcDbEntity
  8
0
100
AcDbLine
 62
7
  6
CONTINUOUS
 10
12465.7025498206
 20
18450.5541133056
 11
13735.7025498574
 21
18450.5541133056
  0
LINE
  5
272
100
AcDbEntity
  8
0
100
AcDbLine
 62
7
  6
CONTINUOUS
 10
14435.3717556169
 20
18828.3200922555
 11
14435.702549801
 21
17455.1787861267
  0
LINE
  5
273
100
AcDbEntity
  8
0
100
AcDbLine
 62
7
  6
CONTINUOUS
 10
14285.702549769
 20
17404.2134109255
 11
14285.702549769
 21
17397.9307987149
  0
LINE
  5
274
100
AcDbEntity
  8
0
100
AcDbLine
 62
7
  6
CONTINUOUS
 10
14385.5309129862
 20
18828.3269583522
 11
14385.5207579573
 21
17504.1640597206
  0
LINE
  5
275
100
AcDbEntity
  8
0
100
AcDbLine
 62
7
  6
CONTINUOUS
 10
14435.7033641059
 20
18828.326959516
 11
14435.7032553026
 21
18925.1787860955
  0
LINE
  5
276
100
AcDbEntity
  8
0
100
AcDbLine
 62
7
  6
CONTINUOUS
 10
14385.5553022776
 20
18925.1787860955
 11
14385.5309129862
 21
18828.3269583522
  0
LINE
  5
277
100
AcDbEntity
  8
0
100
AcDbLine
 62
7
  6
CONTINUOUS
 10
14435.3950891933
 20
18725.1787860951
 11
14385.702549769
 21
18725.1787860956
  0
LINE
  5
278
100
AcDbEntity
  8
0
100
AcDbLine
 62
7
  6
CONTINUOUS
 10
11815.7025498391
 20
18725.1787861251
 11
11766.0100071195
 21
18725.1787861256
  0
LINE
  5
279
100
AcDbEntity
  8
0
100
AcDbLine
 62
7
  6
CONTINUOUS
 10
2652.6583849353
 20
18828.3189939001
 11
4630.702549839
 21
18828.3189939001
  0
LINE
  5
27A
100
AcDbEntity
  8
0
100
AcDbLine
 62
7
  6
CONTINUOUS
 10
19400.7025498381
 20
18828.3190843055
 11
21348.7467118991
 21
18828.3190843055
  0
LINE
  5
27B
100
AcDbEntity
  8
0
100
AcDbLine
 62
7
  6
CONTINUOUS
 10
4702.6584194591
 20
18828.3200922555
 11
11766.0333404361
 21
18828.3200922555
  0
LINE
  5
27C
100
AcDbEntity
  8
0
100
AcDbLine
 62
7
  6
CONTINUOUS
 10
11815.7025498391
 20
18828.3200922555
 11
14385.702549769
 21
18828.3200922555
  0
LINE
  5
27D
100
AcDbEntity
  8
0
100
AcDbLine
 62
7
  6
CONTINUOUS
 10
14435.3717556169
 20
18828.3200922555
 11
19298.7466802188
 21
18828.3200922555
  0
LINE
  5
27E
100
AcDbEntity
  8
0
100
AcDbLine
 62
7
  6
CONTINUOUS
 10
2752.609068259
 20
18925.1787862255
 11
14385.5553022734
 21
18925.1787862255
  0
LINE
  5
27F
100
AcDbEntity
  8
0
100
AcDbLine
 62
7
  6
CONTINUOUS
 10
14397.4491459798
 20
18925.1787862255
 11
21248.796031429
 21
18925.1787862255
  0
LINE
  5
280
100
AcDbEntity
  8
0
100
AcDbLine
 62
7
  6
CONTINUOUS
 10
16400.702549839
 20
14725.8217698198
 11
16400.702549839
 21
15415.8340426719
  0
LINE
  5
281
100
AcDbEntity
  8
0
100
AcDbLine
 62
7
  6
CONTINUOUS
 10
16407.684575809
 20
14725.8340426715
 11
16407.684575809
 21
15415.8340426719
  0
LINE
  5
282
100
AcDbEntity
  8
0
100
AcDbLine
 62
7
  6
CONTINUOUS
 10
17193.720523869
 20
14915.8340426715
 11
17193.720523869
 21
15415.8340426719
  0
LINE
  5
283
100
AcDbEntity
  8
0
100
AcDbLine
 62
7
  6
CONTINUOUS
 10
17200.702549839
 20
14915.8340426715
 11
17200.702549839
 21
15415.8340426719
  0
LINE
  5
284
100
AcDbEntity
  8
0
100
AcDbLine
 62
7
  6
CONTINUOUS
 10
17723.720523929
 20
14825.8036307612
 11
17723.720523929
 21
14915.8340426715
  0
LINE
  5
285
100
AcDbEntity
  8
0
100
AcDbLine
 62
7
  6
CONTINUOUS
 10
17730.7025498923
 20
14825.8340426715
 11
17730.7025498923
 21
14915.8340426715
  0
LINE
  5
286
100
AcDbEntity
  8
0
100
AcDbLine
 62
7
  6
CONTINUOUS
 10
19298.746680219
 20
18828.3200922555
 11
19350.702549839
 21
17175.1787861655
  0
LINE
  5
287
100
AcDbEntity
  8
0
100
AcDbLine
 62
7
  6
CONTINUOUS
 10
19288.857760229
 20
17125.1787862255
 11
19288.857760229
 21
17075.8340426255
  0
LINE
  5
288
100
AcDbEntity
  8
0
100
AcDbLine
 62
7
  6
CONTINUOUS
 10
19400.7025497998
 20
15415.8340426719
 11
19400.7025498391
 21
18925.1787860444
  0
LINE
  5
289
100
AcDbEntity
  8
0
100
AcDbLine
 62
7
  6
CONTINUOUS
 10
19297.9463957683
 20
15512.5225980609
 11
19345.0341199528
 21
17075.8350409867
  0
LINE
  5
28A
100
AcDbEntity
  8
0
100
AcDbLine
 62
7
  6
CONTINUOUS
 10
19290.603798709
 20
17175.1787861655
 11
19288.8577602365
 21
17125.1787862252
  0
LINE
  5
28B
100
AcDbEntity
  8
0
100
AcDbLine
 62
7
  6
CONTINUOUS
 10
21348.7466802117
 20
18828.3200924653
 11
21400.7025498383
 21
17175.1787861655
  0
LINE
  5
28C
100
AcDbEntity
  8
0
100
AcDbLine
 62
7
  6
CONTINUOUS
 10
21338.857760239
 20
17125.1787862255
 11
21338.857760239
 21
17075.8340426255
  0
LINE
  5
28D
100
AcDbEntity
  8
0
100
AcDbLine
 62
7
  6
CONTINUOUS
 10
21343.2475913548
 20
15512.8233598805
 11
21395.034089876
 21
17075.8340426255
  0
LINE
  5
28E
100
AcDbEntity
  8
0
100
AcDbLine
 62
7
  6
CONTINUOUS
 10
21338.8577602341
 20
17125.1787862855
 11
21340.6037987045
 21
17175.1787861655
  0
ARC
  5
28F
100
AcDbEntity
  8
0
100
AcDbCircle
 62
7
  6
CONTINUOUS
 10
-9511.4365806717
 20
10487.0299327651
 40
16385.7077367045
100
AcDbArc
 50
15.1226522619
 51
15.5789012857
  0
ARC
  5
290
100
AcDbEntity
  8
0
100
AcDbCircle
 62
7
  6
CONTINUOUS
 10
22506.9607232919
 20
14892.2627254485
 40
15373.2406537476
100
AcDbArc
 50
179.9860703757
 51
180.4861071416
  0
ARC
  5
291
100
AcDbEntity
  8
0
100
AcDbCircle
 62
7
  6
CONTINUOUS
 10
7545.3984035748
 20
15616.5906709334
 40
499.76902611
100
AcDbArc
 50
270.5814378553
 51
276.403900944
  0
ARC
  5
292
100
AcDbEntity
  8
0
100
AcDbCircle
 62
7
  6
CONTINUOUS
 10
6728.929857259
 20
14825.1797220685
 40
400.000935843
100
AcDbArc
 50
215.0000697833
 51
269.9999302104
  0
ARC
  5
293
100
AcDbEntity
  8
0
100
AcDbCircle
 62
7
  6
CONTINUOUS
 10
7200.702247189
 20
14825.1790888735
 40
400.000302648
100
AcDbArc
 50
270.0000433513
 51
359.999956848
  0
ARC
  5
294
100
AcDbEntity
  8
0
100
AcDbCircle
 62
7
  6
CONTINUOUS
 10
6494.092225669
 20
14811.8727174175
 40
200.000625529
100
AcDbArc
 50
209.3739540379
 51
214.9999693728
  0
ARC
  5
295
100
AcDbEntity
  8
0
100
AcDbCircle
 62
7
  6
CONTINUOUS
 10
6494.092225669
 20
14811.8727174175
 40
200.000625529
100
AcDbArc
 50
195.588081702
 51
206.3089557578
  0
ARC
  5
296
100
AcDbEntity
  8
0
100
AcDbCircle
 62
7
  6
CONTINUOUS
 10
7300.702549839
 20
14885.1787861885
 40
159.999999963
100
AcDbArc
 50
180.000000006
 51
359.9999999939
  0
ARC
  5
297
100
AcDbEntity
  8
0
100
AcDbCircle
 62
7
  6
CONTINUOUS
 10
7300.702549839
 20
15275.1787862255
 40
159.999999963
100
AcDbArc
 50
147.6124842873
 51
179.9999999924
  0
ARC
  5
298
100
AcDbEntity
  8
0
100
AcDbCircle
 62
7
  6
CONTINUOUS
 10
7300.701563569
 20
15275.1791377695
 40
149.999978012
100
AcDbArc
 50
159.1496609285
 51
201.2754326071
  0
ARC
  5
299
100
AcDbEntity
  8
0
100
AcDbCircle
 62
7
  6
CONTINUOUS
 10
6700.702549519
 20
15025.1787865415
 40
100.000000316
100
AcDbArc
 50
270.0
 51
360.0
  0
ARC
  5
29A
100
AcDbEntity
  8
0
100
AcDbCircle
 62
7
  6
CONTINUOUS
 10
21243.292469719
 20
15515.8340426719
 40
100.0
100
AcDbArc
 50
270.0
 51
358.1013838993
  0
ARC
  5
29B
100
AcDbEntity
  8
0
100
AcDbCircle
 62
7
  6
CONTINUOUS
 10
19198.796031419
 20
18825.1787862255
 40
100.0
100
AcDbArc
 50
1.8001319155
 51
90.0
  0
ARC
  5
29C
100
AcDbEntity
  8
0
100
AcDbCircle
 62
7
  6
CONTINUOUS
 10
4802.609068259
 20
18825.1787862255
 40
100.0
100
AcDbArc
 50
90.0
 51
178.1998680416
  0
ARC
  5
29D
100
AcDbEntity
  8
0
100
AcDbCircle
 62
7
  6
CONTINUOUS
 10
19198.000786179
 20
15515.8340426719
 40
100.0
100
AcDbArc
 50
270.0
 51
358.2747401438
  0
ARC
  5
29E
100
AcDbEntity
  8
0
100
AcDbCircle
 62
7
  6
CONTINUOUS
 10
4792.067393569
 20
15515.8340426719
 40
100.0
100
AcDbArc
 50
181.7252665645
 51
270.0
  0
ARC
  5
29F
100
AcDbEntity
  8
0
100
AcDbCircle
 62
7
  6
CONTINUOUS
 10
2746.775710039
 20
15515.8340426719
 40
100.0
100
AcDbArc
 50
181.8976599585
 51
269.9999996726
  0
ARC
  5
2A0
100
AcDbEntity
  8
0
100
AcDbCircle
 62
7
  6
CONTINUOUS
 10
2752.609068259
 20
18825.1787862255
 40
100.0
100
AcDbArc
 50
90.0
 51
178.1998680092
  0
ARC
  5
2A1
100
AcDbEntity
  8
0
100
AcDbCircle
 62
7
  6
CONTINUOUS
 10
21248.796031429
 20
18825.1864738755
 40
99.9923121451
100
AcDbArc
 50
1.7957295001
 51
89.9999999994
  0
ARC
  5
2A2
100
AcDbEntity
  8
0
100
AcDbCircle
 62
7
  6
CONTINUOUS
 10
6320.702549739
 20
14875.1787863405
 40
49.9999998852
100
AcDbArc
 50
170.9219249424
 51
195.5880513882
  0
ARC
  5
2A3
100
AcDbEntity
  8
0
100
AcDbCircle
 62
7
  6
CONTINUOUS
 10
6320.702549739
 20
14875.1787863405
 40
49.9999998852
100
AcDbArc
 50
89.9999999682
 51
165.5449697371
  0
SPLINE
  5
2A4
100
AcDbEntity
  8
0
100
AcDbSpline
 62
7
  6
CONTINUOUS
 70
0
 71
3
 72
9
 73
5
 74
0
 42
0.0000001
 43
0.0000001
 44
0.0000000001
 40
0.0
 40
0.0
 40
0.0
 40
0.0
 40
0.4999982514
 40
1.0
 40
1.0
 40
1.0
 40
1.0
 10
17730.702549899
 20
14825.8127795827
 30
0.0
 10
17730.702549899
 20
14723.755234537
 30
0.0
 10
17645.3050240141
 20
14511.1292439206
 30
0.0
 10
17432.6692300003
 20
14425.8340426715
 30
0.0
 10
17330.610971121
 20
14425.8340426715
 30
0.0
  0
SPLINE
  5
2A5
100
AcDbEntity
  8
0
100
AcDbSpline
 62
7
  6
CONTINUOUS
 70
0
 71
3
 72
9
 73
5
 74
0
 42
0.0000001
 43
0.0000001
 44
0.0000000001
 40
0.0
 40
0.0
 40
0.0
 40
0.0
 40
0.5000020157
 40
1.0
 40
1.0
 40
1.0
 40
1.0
 10
16700.7697553141
 20
14425.8340426715
 30
0.0
 10
16624.2275886386
 20
14425.8340426715
 30
0.0
 10
16464.7680917368
 20
14489.8276532662
 30
0.0
 10
16400.702549839
 20
14649.2802202755
 30
0.0
 10
16400.702549839
 20
14725.8217698198
 30
0.0
  0
SPLINE
  5
2A6
100
AcDbEntity
  8
0
100
AcDbSpline
 62
7
  6
CONTINUOUS
 70
0
 71
3
 72
9
 73
5
 74
0
 42
0.0000001
 43
0.0000001
 44
0.0000000001
 40
0.0
 40
0.0
 40
0.0
 40
0.0
 40
0.5021153427
 40
1.0
 40
1.0
 40
1.0
 40
1.0
 10
7198.5223923366
 20
15421.1147401802
 30
0.0
 10
7190.1831879888
 20
15409.5173270036
 30
0.0
 10
7175.4890819324
 20
15384.9836537375
 30
0.0
 10
7165.1114051117
 20
15358.325866267
 30
0.0
 10
7161.1559350482
 20
15344.7254010173
 30
0.0
  0
SPLINE
  5
2A7
100
AcDbEntity
  8
0
100
AcDbSpline
 62
7
  6
CONTINUOUS
 70
0
 71
3
 72
8
 73
4
 74
0
 42
0.0000001
 43
0.0000001
 44
0.0000000001
 40
0.0
 40
0.0
 40
0.0
 40
0.0
 40
1.0
 40
1.0
 40
1.0
 40
1.0
 10
7899.9747013202
 20
15263.7766338549
 30
0.0
 10
7821.8279043587
 20
15185.582937539
 30
0.0
 10
7711.002142939
 20
15132.2563526483
 30
0.0
 10
7601.1409375133
 20
15119.9400398364
 30
0.0
  0
SPLINE
  5
2A8
100
AcDbEntity
  8
0
100
AcDbSpline
 62
7
  6
CONTINUOUS
 70
0
 71
3
 72
8
 73
4
 74
0
 42
0.0000001
 43
0.0000001
 44
0.0000000001
 40
0.0
 40
0.0
 40
0.0
 40
0.0
 40
1.0
 40
1.0
 40
1.0
 40
1.0
 10
7309.3402437563
 20
15116.5410923223
 30
0.0
 10
7271.2016539217
 20
15116.4640769368
 30
0.0
 10
7230.5715989229
 20
15133.3228195645
 30
0.0
 10
7203.6300033739
 20
15160.3174189357
 30
0.0
  0
SPLINE
  5
2A9
100
AcDbEntity
  8
0
100
AcDbSpline
 62
7
  6
CONTINUOUS
 70
0
 71
3
 72
8
 73
4
 74
0
 42
0.0000001
 43
0.0000001
 44
0.0000000001
 40
0.0
 40
0.0
 40
0.0
 40
0.0
 40
1.0
 40
1.0
 40
1.0
 40
1.0
 10
11845.7025497499
 20
17375.1787861453
 30
0.0
 10
11807.9947243662
 20
17375.1883159913
 30
0.0
 10
11765.6934614017
 20
17417.4517142875
 30
0.0
 10
11765.7025452394
 20
17455.1595397812
 30
0.0
  0
SPLINE
  5
2AA
100
AcDbEntity
  8
0
100
AcDbSpline
 62
7
  6
CONTINUOUS
 70
0
 71
3
 72
8
 73
4
 74
0
 42
0.0000001
 43
0.0000001
 44
0.0000000001
 40
0.0
 40
0.0
 40
0.0
 40
0.0
 40
1.0
 40
1.0
 40
1.0
 40
1.0
 10
14435.702549801
 20
17455.1787861267
 30
0.0
 10
14435.7116348304
 20
17417.4664255899
 30
0.0
 10
14393.4149103457
 20
17375.1883170379
 30
0.0
 10
14355.7025499189
 20
17375.1787861453
 30
0.0
  0
SPLINE
  5
2AB
100
AcDbEntity
  8
0
100
AcDbSpline
 62
7
  6
CONTINUOUS
 70
0
 71
3
 72
10
 73
6
 74
0
 42
0.0000001
 43
0.0000001
 44
0.0000000001
 40
0.0
 40
0.0
 40
0.0
 40
0.0
 40
0.4001620454
 40
0.8003240884
 40
1.0
 40
1.0
 40
1.0
 40
1.0
 10
12315.7025499028
 20
17391.9631047855
 30
0.0
 10
12305.2308554331
 20
17391.9631047851
 30
0.0
 10
12284.3106022813
 20
17392.1770343453
 30
0.0
 10
12268.180245606
 20
17392.8742463202
 30
0.0
 10
12265.7025498388
 20
17393.3695137955
 30
0.0
 10
12265.702549839
 20
17393.5336427455
 30
0.0
  0
SPLINE
  5
2AC
100
AcDbEntity
  8
0
100
AcDbSpline
 62
7
  6
CONTINUOUS
 70
0
 71
3
 72
9
 73
5
 74
0
 42
0.0000001
 43
0.0000001
 44
0.0000000001
 40
0.0
 40
0.0
 40
0.0
 40
0.0
 40
0.4133974723
 40
1.0
 40
1.0
 40
1.0
 40
1.0
 10
13935.702549839
 20
17393.5336427053
 30
0.0
 10
13935.7025498378
 20
17393.306665972
 30
0.0
 10
13931.5562534533
 20
17392.7582106015
 30
0.0
 10
13921.5127695626
 20
17392.4070237586
 30
0.0
 10
13914.9606868531
 20
17392.2596799586
 30
0.0
  0
SPLINE
  5
2AD
100
AcDbEntity
  8
0
100
AcDbSpline
 62
7
  6
CONTINUOUS
 70
0
 71
3
 72
9
 73
5
 74
0
 42
0.0000001
 43
0.0000001
 44
0.0000000001
 40
0.0
 40
0.0
 40
0.0
 40
0.0
 40
0.1412511721
 40
1.0
 40
1.0
 40
1.0
 40
1.0
 10
13914.9606868531
 20
17392.2596799586
 30
0.0
 10
13913.6750970182
 20
17392.2307695038
 30
0.0
 10
13904.3936155116
 20
17392.042084385
 30
0.0
 10
13894.3557432632
 20
17391.9631048617
 30
0.0
 10
13885.7025720856
 20
17391.9631047455
 30
0.0
  0
SPLINE
  5
2AE
100
AcDbEntity
  8
0
100
AcDbSpline
 62
7
  6
CONTINUOUS
 70
0
 71
3
 72
8
 73
4
 74
0
 42
0.0000001
 43
0.0000001
 44
0.0000000001
 40
0.0
 40
0.0
 40
0.0
 40
0.0
 40
1.0
 40
1.0
 40
1.0
 40
1.0
 10
7192.7218357781
 20
15167.1503567408
 30
0.0
 10
7214.5587483914
 20
15141.6520375214
 30
0.0
 10
7261.6385419636
 20
15124.7169344275
 30
0.0
 10
7290.296184029
 20
15142.2027740343
 30
0.0
  0
SPLINE
  5
2AF
100
AcDbEntity
  8
0
100
AcDbSpline
 62
7
  6
CONTINUOUS
 70
0
 71
3
 72
9
 73
5
 74
0
 42
0.0000001
 43
0.0000001
 44
0.0000000001
 40
0.0
 40
0.0
 40
0.0
 40
0.0
 40
0.5000016114
 40
1.0
 40
1.0
 40
1.0
 40
1.0
 10
17323.6385327473
 20
14425.8340426715
 30
0.0
 10
17425.6938326703
 20
14425.8340426715
 30
0.0
 10
17638.3194390534
 20
14511.1331399866
 30
0.0
 10
17723.720523929
 20
14723.7489886263
 30
0.0
 10
17723.720523929
 20
14825.8036307612
 30
0.0
  0
SPLINE
  5
2B0
100
AcDbEntity
  8
0
100
AcDbSpline
 62
7
  6
CONTINUOUS
 70
0
 71
3
 72
9
 73
5
 74
0
 42
0.0000001
 43
0.0000001
 44
0.0000000001
 40
0.0
 40
0.0
 40
0.0
 40
0.0
 40
0.4813463401
 40
1.0
 40
1.0
 40
1.0
 40
1.0
 10
11915.7025498282
 20
17397.9307987156
 30
0.0
 10
11906.4598193011
 20
17397.9307987156
 30
0.0
 10
11887.2664632558
 20
17400.8842696553
 30
0.0
 10
11869.1248345179
 20
17407.6588376962
 30
0.0
 10
11860.2936477937
 20
17412.2625102114
 30
0.0
  0
SPLINE
  5
2B1
100
AcDbEntity
  8
0
100
AcDbSpline
 62
7
  6
CONTINUOUS
 70
0
 71
3
 72
9
 73
5
 74
0
 42
0.0000001
 43
0.0000001
 44
0.0000000001
 40
0.0
 40
0.0
 40
0.0
 40
0.0
 40
0.5084517792
 40
1.0
 40
1.0
 40
1.0
 40
1.0
 10
11860.2936477937
 20
17412.2625102114
 30
0.0
 10
11857.0596242383
 20
17413.9483974903
 30
0.0
 10
11850.8491416011
 20
17417.5628263276
 30
0.0
 10
11845.0621489158
 20
17421.8348101875
 30
0.0
 10
11842.3712115163
 20
17424.1130299389
 30
0.0
  0
SPLINE
  5
2B2
100
AcDbEntity
  8
0
100
AcDbSpline
 62
7
  6
CONTINUOUS
 70
0
 71
3
 72
9
 73
5
 74
0
 42
0.0000001
 43
0.0000001
 44
0.0000000001
 40
0.0
 40
0.0
 40
0.0
 40
0.0
 40
0.4803603868
 40
1.0
 40
1.0
 40
1.0
 40
1.0
 10
11842.3712115163
 20
17424.1130299389
 30
0.0
 10
11833.9977314793
 20
17431.2022426467
 30
0.0
 10
11818.1644423992
 20
17451.1740357827
 30
0.0
 10
11826.0658926085
 20
17476.3845249817
 30
0.0
 10
11832.7823168916
 20
17486.1698372928
 30
0.0
  0
SPLINE
  5
2B3
100
AcDbEntity
  8
0
100
AcDbSpline
 62
7
  6
CONTINUOUS
 70
0
 71
3
 72
9
 73
5
 74
0
 42
0.0000001
 43
0.0000001
 44
0.0000000001
 40
0.0
 40
0.0
 40
0.0
 40
0.0
 40
0.4910907557
 40
1.0
 40
1.0
 40
1.0
 40
1.0
 10
14385.702549769
 20
17497.8814475153
 30
0.0
 10
14385.702549769
 20
17484.9741029982
 30
0.0
 10
14380.313302655
 20
17458.7907534093
 30
0.0
 10
14368.1550828555
 20
17434.7905100059
 30
0.0
 10
14359.5073909175
 20
17424.5862990779
 30
0.0
  0
SPLINE
  5
2B4
100
AcDbEntity
  8
0
100
AcDbSpline
 62
7
  6
CONTINUOUS
 70
0
 71
3
 72
9
 73
5
 74
0
 42
0.0000001
 43
0.0000001
 44
0.0000000001
 40
0.0
 40
0.0
 40
0.0
 40
0.0
 40
0.5134518819
 40
1.0
 40
1.0
 40
1.0
 40
1.0
 10
14359.5073909175
 20
17424.5862990779
 30
0.0
 10
14357.0052783688
 20
17421.6338252391
 30
0.0
 10
14351.702394873
 20
17416.225762517
 30
0.0
 10
14345.4411501924
 20
17411.9060416106
 30
0.0
 10
14342.1902129691
 20
17410.2088076383
 30
0.0
  0
SPLINE
  5
2B5
100
AcDbEntity
  8
0
100
AcDbSpline
 62
7
  6
CONTINUOUS
 70
0
 71
3
 72
9
 73
5
 74
0
 42
0.0000001
 43
0.0000001
 44
0.0000000001
 40
0.0
 40
0.0
 40
0.0
 40
0.0
 40
0.4558208436
 40
1.0
 40
1.0
 40
1.0
 40
1.0
 10
14342.1902129691
 20
17410.2088076383
 30
0.0
 10
14335.8662065595
 20
17406.9072001994
 30
0.0
 10
14319.5645173192
 20
17403.273274445
 30
0.0
 10
14304.4440884706
 20
17410.1856741695
 30
0.0
 10
14297.4199426647
 20
17415.0021366872
 30
0.0
  0
SPLINE
  5
2B6
100
AcDbEntity
  8
0
100
AcDbSpline
 62
7
  6
CONTINUOUS
 70
0
 71
3
 72
9
 73
5
 74
0
 42
0.0000001
 43
0.0000001
 44
0.0000000001
 40
0.0
 40
0.0
 40
0.0
 40
0.0
 40
0.5408948525
 40
1.0
 40
1.0
 40
1.0
 40
1.0
 10
14285.7025497683
 20
17404.2134109253
 30
0.0
 10
14310.9919628696
 20
17404.2134109248
 30
0.0
 10
14363.3138253832
 20
17412.6531559746
 30
0.0
 10
14380.770039022
 20
17474.7548336793
 30
0.0
 10
14368.6227827122
 20
17492.4524495081
 30
0.0
  0
SPLINE
  5
2B7
100
AcDbEntity
  8
0
100
AcDbSpline
 62
7
  6
CONTINUOUS
 70
0
 71
3
 72
9
 73
5
 74
0
 42
0.0000001
 43
0.0000001
 44
0.0000000001
 40
0.0
 40
0.0
 40
0.0
 40
0.0
 40
0.5406834108
 40
1.0
 40
1.0
 40
1.0
 40
1.0
 10
11815.7025498388
 20
17504.1640597268
 30
0.0
 10
11815.7025498388
 20
17478.8844518474
 30
0.0
 10
11824.1813515147
 20
17426.5657865884
 30
0.0
 10
11886.273738823
 20
17409.1400150322
 30
0.0
 10
11903.985156939
 20
17421.284748903
 30
0.0
  0
SPLINE
  5
2B8
100
AcDbEntity
  8
0
100
AcDbSpline
 62
7
  6
CONTINUOUS
 70
0
 71
3
 72
9
 73
5
 74
0
 42
0.0000001
 43
0.0000001
 44
0.0000000001
 40
0.0
 40
0.0
 40
0.0
 40
0.0
 40
0.4999983457
 40
1.0
 40
1.0
 40
1.0
 40
1.0
 10
16407.684575809
 20
14725.8130683229
 30
0.0
 10
16407.684575809
 20
14649.2744605603
 30
0.0
 10
16471.7540802913
 20
14489.832669037
 30
0.0
 10
16631.2026734427
 20
14425.8340426715
 30
0.0
 10
16707.7417876814
 20
14425.8340426715
 30
0.0
  0
SPLINE
  5
2B9
100
AcDbEntity
  8
0
100
AcDbSpline
 62
7
  6
CONTINUOUS
 70
0
 71
3
 72
8
 73
4
 74
0
 42
0.0000001
 43
0.0000001
 44
0.0000000001
 40
0.0
 40
0.0
 40
0.0
 40
0.0
 40
1.0
 40
1.0
 40
1.0
 40
1.0
 10
7541.7504094078
 20
15125.5669438968
 30
0.0
 10
7668.1217490334
 20
15126.8283592524
 30
0.0
 10
7801.9194640573
 20
15183.1069136715
 30
0.0
 10
7891.2551356424
 20
15272.4961995502
 30
0.0
  0
ELLIPSE
  5
2BA
100
AcDbEntity
  8
0
100
AcDbEllipse
 62
7
  6
CONTINUOUS
 10
12465.702549839
 20
18250.6528012355
 30
0.0
 11
200.0
 21
0.0
 31
0.0
 40
0.9995065604
 41
1.5707963269
 42
3.1415926536
  0
ELLIPSE
  5
2BB
100
AcDbEntity
  8
0
100
AcDbEllipse
 62
7
  6
CONTINUOUS
 10
13735.702549839
 20
18250.6528012355
 30
0.0
 11
200.0
 21
0.0
 31
0.0
 40
0.9995065604
 41
-0.0
 42
1.5707963267
  0
ENDSEC
  0
SECTION
  2
OBJECTS
  0
DICTIONARY
  5
C
100
AcDbDictionary
280
0
281
1
  3
ACAD_GROUP
350
D
  3
ACAD_MLINESTYLE
350
17
  3
ACAD_LAYOUT
350
1A
  3
ACAD_PLOTSETTINGS
350
19
  3
ACAD_PLOTSTYLENAME
350
E
  0
DICTIONARY
  5
D
102
{ACAD_REACTORS
330
C
102
}
100
AcDbDictionary
280
0
281
1
  0
ACDBDICTIONARYWDFLT
  5
E
102
{ACAD_REACTORS
330
C
102
}
100
AcDbDictionary
281
1
  3
Normal
350
F
100
AcDbDictionaryWithDefault
340
F
  0
DICTIONARY
  5
17
102
{ACAD_REACTORS
330
C
102
}
100
AcDbDictionary
280
0
281
1
  3
Standard
350
18
  0
DICTIONARY
  5
19
102
{ACAD_REACTORS
330
C
102
}
100
AcDbDictionary
281
1
  0
DICTIONARY
  5
1A
102
{ACAD_REACTORS
330
C
102
}
100
AcDbDictionary
281
1
  3
Model
350
2BC
  3
Layout1
350
2BD
  0
ACDBPLACEHOLDER
  5
F
102
{ACAD_REACTORS
330
E
102
}
  0
MLINESTYLE
  5
18
102
{ACAD_REACTORS
330
17
102
}
100
AcDbMlineStyle
  2
STANDARD
 70
0
  3

 62
256
 51
90.0
 52
90.0
 71
2
 49
0.5
 62
256
  6
BYLAYER
 49
-0.5
 62
256
  6
BYLAYER
  0
LAYOUT
  5
2BC
102
{ACAD_REACTORS
330
1A
102
}
100
AcDbPlotSettings
  1

  2
none_device
  4

  6

 40
0.0
 41
0.0
 42
0.0
 43
0.0
 44
210.0
 45
297.0
 46
0.0
 47
0.0
 48
0.0
 49
0.0
140
0.0
141
0.0
142
1.0
143
1.0
 70
1024
 72
1
 73
0
 74
0
  7

 75
0
147
1.0
148
0.0
149
0.0
100
AcDbLayout
  1
Model
 70
0
 71
0
 10
0.0
 20
0.0
 11
210.0
 21
297.0
 12
0.0
 22
0.0
 32
0.0
 14
0.0
 24
0.0
 34
0.0
 15
0.0
 25
0.0
 35
0.0
146
0.0
 13
0.0
 23
0.0
 33
0.0
 16
1.0
 26
0.0
 36
0.0
 17
0.0
 27
1.0
 37
0.0
 76
0
330
210
345
0
346
0
  0
LAYOUT
  5
2BD
102
{ACAD_REACTORS
330
1A
102
}
100
AcDbPlotSettings
  1

  2
none_device
  4

  6

 40
0.0
 41
0.0
 42
0.0
 43
0.0
 44
210.0
 45
297.0
 46
0.0
 47
0.0
 48
0.0
 49
0.0
140
0.0
141
0.0
142
1.0
143
1.0
 70
0
 72
1
 73
0
 74
0
  7

 75
0
147
1.0
148
0.0
149
0.0
100
AcDbLayout
  1
Layout1
 70
0
 71
1
 10
0.0
 20
0.0
 11
210.0
 21
297.0
 12
0.0
 22
0.0
 32
0.0
 14
0.0
 24
0.0
 34
0.0
 15
0.0
 25
0.0
 35
0.0
146
0.0
 13
0.0
 23
0.0
 33
0.0
 16
1.0
 26
0.0
 36
0.0
 17
0.0
 27
1.0
 37
0.0
 76
0
330
211
345
0
346
0
  0
ENDSEC
  0
EOF
