999
DXF file: C:\Users\sesa63760\Dev\_Creo\CAD\MCADID0001889_3D-CAD\drw0001_2.dxf
999
Pro/ENGINEER 2019471 by Parametric Technology Corporation
  0
SECTION
  2
HEADER
  9
$ACADVER
  1
AC1024
  9
$DWGCODEPAGE
  3
ANSI_1252
  9
$EXTMAX
 10
100.152812523
 20
141.6446919968
 30
0.0
  9
$EXTMIN
 10
0.0
 20
0.0
 30
0.0
  9
$LIMMIN
 10
0.0
 20
0.0
  9
$LIMMAX
 10
100.152812523
 20
141.6446919968
  9
$VIEWCTR
 10
50.0764062615
 20
70.8223459984
  9
$VIEWSIZE
 40
141.6446919968
  9
$CLAYER
  8
0
  9
$LTSCALE
 40
9.2331354783
  9
$CELTYPE
  6
BYLAYER
  9
$DIMSCALE
 40
1.0
  9
$DIMASZ
 40
1.1922953872
  9
$DIMEXO
 40
1.0
  9
$DIMDLI
 40
6.3792572396
  9
$DIMEXE
 40
1.0
  9
$DIMCEN
 40
1.5108767146
  9
$DIMLFAC
 40
1.0
  9
$DIMBLK
  1
_FILLED
  9
$DIMALT
 70
0
  9
$DIMALTF
 40
0.0393700787
  9
$DIMTXT
 40
1.669213542
  9
$DIMTOL
 70
1
  9
$DIMLIM
 70
0
  9
$DIMTFAC
 40
1.0
  9
$DIMTP
 40
0.01
  9
$DIMTM
 40
0.01
  9
$DIMGAP
 40
0.625
  9
$DIMDSEP
 70
46
  9
$AUNITS
 70
0
  9
$PDMODE
 70
3
  9
$PDSIZE
 40
0.3125
  9
$HANDSEED
  5
326
  9
$TILEMODE
 70
1
  9
$MEASUREMENT
 70
1
  9
$INSUNITS
 70
4
  0
ENDSEC
  0
SECTION
  2
CLASSES
  0
CLASS
  1
ACDBDICTIONARYWDFLT
  2
AcDbDictionaryWithDefault
  3
AutoCAD 2000
 90
0
 91
1
280
0
281
0
  0
CLASS
  1
ACDBPLACEHOLDER
  2
AcDbPlaceHolder
  3
AutoCAD 2000
 90
0
 91
1
280
0
281
0
  0
CLASS
  1
LAYOUT
  2
AcDbLayout
  3
AutoCAD 2000
 90
0
 91
0
280
0
281
0
  0
ENDSEC
  0
SECTION
  2
TABLES
  0
TABLE
  2
VPORT
  5
8
100
AcDbSymbolTable
 70
2
  0
VPORT
  5
1F4
100
AcDbSymbolTableRecord
100
AcDbViewportTableRecord
  2
*ACTIVE
 70
0
 10
0.0
 20
0.0
 11
1.0
 21
1.0
 12
50.0764062615
 22
70.8223459984
 13
0.0
 23
0.0
 14
1.0
 24
1.0
 15
0.0
 25
0.0
 16
0.0
 26
0.0
 36
1.0
 17
0.0
 27
0.0
 37
0.0
 40
141.6446919968
 41
0.7070707071
 42
50.0
 43
0.0
 44
0.0
 50
0.0
 51
0.0
 71
0
 72
100
 73
1
 74
1
 75
0
 76
0
 77
0
 78
0
  0
ENDTAB
  0
TABLE
  2
LTYPE
  5
5
100
AcDbSymbolTable
 70
6
  0
LTYPE
  5
14
100
AcDbSymbolTableRecord
100
AcDbLinetypeTableRecord
  2
BYBLOCK
 70
0
  3

 72
65
 73
0
 40
0.0
  0
LTYPE
  5
15
100
AcDbSymbolTableRecord
100
AcDbLinetypeTableRecord
  2
BYLAYER
 70
0
  3

 72
65
 73
0
 40
0.0
  0
LTYPE
  5
16
100
AcDbSymbolTableRecord
100
AcDbLinetypeTableRecord
  2
CONTINUOUS
 70
64
  3
Solid line
 72
65
 73
0
 40
0.0
  0
LTYPE
  5
1F5
100
AcDbSymbolTableRecord
100
AcDbLinetypeTableRecord
  2
CENTER
 70
64
  3
____ _ ____ _ ____ _ ____ _ ____ _ ____ _ ____
 72
65
 73
4
 40
0.6
 49
0.375
 74
0
 49
-0.075
 74
0
 49
0.075
 74
0
 49
-0.075
 74
0
  0
LTYPE
  5
1F6
100
AcDbSymbolTableRecord
100
AcDbLinetypeTableRecord
  2
HIDDEN
 70
64
  3
- - - - - - - - - - - - - - - - - - - -
 72
65
 73
2
 40
0.2
 49
0.1
 74
0
 49
-0.1
 74
0
  0
LTYPE
  5
1F7
100
AcDbSymbolTableRecord
100
AcDbLinetypeTableRecord
  2
PHANTOM
 70
64
  3
_____ _ _ _____ _ _ _____ _ _ _____
 72
65
 73
6
 40
0.8
 49
0.45
 74
0
 49
-0.05
 74
0
 49
0.1
 74
0
 49
-0.05
 74
0
 49
0.1
 74
0
 49
-0.05
 74
0
  0
LTYPE
  5
1F8
100
AcDbSymbolTableRecord
100
AcDbLinetypeTableRecord
  2
DOT
 70
64
  3
. . . . . . . . . . . . . . . . . . . .
 72
65
 73
2
 40
0.2
 49
0.1
 74
0
 49
-0.1
 74
0
  0
LTYPE
  5
1F9
100
AcDbSymbolTableRecord
100
AcDbLinetypeTableRecord
  2
DASHED
 70
64
  3
- - - - - - - - - - - - - - - - - - - -
 72
65
 73
2
 40
0.2
 49
0.1
 74
0
 49
-0.1
 74
0
  0
ENDTAB
  0
TABLE
  2
LAYER
  5
2
100
AcDbSymbolTable
 70
36
  0
LAYER
  5
10
100
AcDbSymbolTableRecord
100
AcDbLayerTableRecord
  2
0
 70
0
 62
7
  6
CONTINUOUS
370
-3
390
F
  0
LAYER
  5
1FA
100
AcDbSymbolTableRecord
100
AcDbLayerTableRecord
  2
DEFAULT_1
 70
0
 62
7
  6
CENTER
370
-3
390
F
  0
LAYER
  5
1FB
100
AcDbSymbolTableRecord
100
AcDbLayerTableRecord
  2
DEFAULT_2
 70
0
 62
8
  6
HIDDEN
370
-3
390
F
  0
LAYER
  5
1FC
100
AcDbSymbolTableRecord
100
AcDbLayerTableRecord
  2
DEFAULT_3
 70
0
 62
7
  6
PHANTOM
370
-3
390
F
  0
LAYER
  5
1FD
100
AcDbSymbolTableRecord
100
AcDbLayerTableRecord
  2
00_COMPONENTS
 70
0
 62
7
  6
CONTINUOUS
370
-3
390
F
  0
LAYER
  5
1FE
100
AcDbSymbolTableRecord
100
AcDbLayerTableRecord
  2
01_1_DEFAULT_DATUMS
 70
0
 62
7
  6
CONTINUOUS
370
-3
390
F
  0
LAYER
  5
1FF
100
AcDbSymbolTableRecord
100
AcDbLayerTableRecord
  2
01_PLANES
 70
0
 62
7
  6
CONTINUOUS
370
-3
390
F
  0
LAYER
  5
200
100
AcDbSymbolTableRecord
100
AcDbLayerTableRecord
  2
02_COORD_SYS
 70
0
 62
7
  6
CONTINUOUS
370
-3
390
F
  0
LAYER
  5
201
100
AcDbSymbolTableRecord
100
AcDbLayerTableRecord
  2
03_AXES
 70
0
 62
7
  6
CONTINUOUS
370
-3
390
F
  0
LAYER
  5
202
100
AcDbSymbolTableRecord
100
AcDbLayerTableRecord
  2
04_POINTS
 70
0
 62
7
  6
CONTINUOUS
370
-3
390
F
  0
LAYER
  5
203
100
AcDbSymbolTableRecord
100
AcDbLayerTableRecord
  2
05_CURVES
 70
0
 62
7
  6
CONTINUOUS
370
-3
390
F
  0
LAYER
  5
204
100
AcDbSymbolTableRecord
100
AcDbLayerTableRecord
  2
06_SURFS
 70
0
 62
7
  6
CONTINUOUS
370
-3
390
F
  0
LAYER
  5
205
100
AcDbSymbolTableRecord
100
AcDbLayerTableRecord
  2
07_COSMETICS
 70
0
 62
7
  6
CONTINUOUS
370
-3
390
F
  0
LAYER
  5
206
100
AcDbSymbolTableRecord
100
AcDbLayerTableRecord
  2
10_NOTES
 70
0
 62
7
  6
CONTINUOUS
370
-3
390
F
  0
LAYER
  5
207
100
AcDbSymbolTableRecord
100
AcDbLayerTableRecord
  2
11_NOTES_PUB
 70
0
 62
7
  6
CONTINUOUS
370
-3
390
F
  0
LAYER
  5
208
100
AcDbSymbolTableRecord
100
AcDbLayerTableRecord
  2
13_REF_GTOL
 70
0
 62
7
  6
CONTINUOUS
370
-3
390
F
  0
LAYER
  5
209
100
AcDbSymbolTableRecord
100
AcDbLayerTableRecord
  2
16_MISC
 70
0
 62
7
  6
CONTINUOUS
370
-3
390
F
  0
LAYER
  5
20A
100
AcDbSymbolTableRecord
100
AcDbLayerTableRecord
  2
17_NO_PRINT
 70
0
 62
7
  6
CONTINUOUS
370
-3
390
F
  0
LAYER
  5
20B
100
AcDbSymbolTableRecord
100
AcDbLayerTableRecord
  2
18_DATUM_CAMS_JOINTS
 70
0
 62
7
  6
CONTINUOUS
370
-3
390
F
  0
LAYER
  5
20C
100
AcDbSymbolTableRecord
100
AcDbLayerTableRecord
  2
19_DATUM_FUNCTIONAL
 70
0
 62
7
  6
CONTINUOUS
370
-3
390
F
  0
LAYER
  5
20D
100
AcDbSymbolTableRecord
100
AcDbLayerTableRecord
  2
20_DATUM_KINEMATIC_SCHEME
 70
0
 62
7
  6
CONTINUOUS
370
-3
390
F
  0
ENDTAB
  0
TABLE
  2
STYLE
  5
3
100
AcDbSymbolTable
 70
1
  0
STYLE
  5
11
100
AcDbSymbolTableRecord
100
AcDbTextStyleTableRecord
  2
STANDARD
 70
0
 40
0.0
 41
0.8
 50
0.0
 71
0
 42
0.2
  3
txt
  4

  0
STYLE
  5
20E
100
AcDbSymbolTableRecord
100
AcDbTextStyleTableRecord
  2
TEXTSTYLE_1
 70
0
 40
0.0
 41
0.8
 50
0.0
 71
0
 42
0.2
  3
gdt
  4

  0
ENDTAB
  0
TABLE
  2
VIEW
  5
6
100
AcDbSymbolTable
 70
0
  0
ENDTAB
  0
TABLE
  2
UCS
  5
7
100
AcDbSymbolTable
 70
0
  0
ENDTAB
  0
TABLE
  2
APPID
  5
9
100
AcDbSymbolTable
 70
1
  0
APPID
  5
20F
100
AcDbSymbolTableRecord
100
AcDbRegAppTableRecord
  2
ACAD
 70
0
  0
ENDTAB
  0
TABLE
  2
BLOCK_RECORD
  5
1
100
AcDbSymbolTable
 70
0
  0
BLOCK_RECORD
  5
210
100
AcDbSymbolTableRecord
100
AcDbBlockTableRecord
  2
*Model_Space
  0
BLOCK_RECORD
  5
211
100
AcDbSymbolTableRecord
100
AcDbBlockTableRecord
  2
*Paper_Space
  0
BLOCK_RECORD
  5
212
100
AcDbSymbolTableRecord
100
AcDbBlockTableRecord
  2
_FILLED
  0
ENDTAB
  0
TABLE
  2
DIMSTYLE
  5
A
100
AcDbSymbolTable
 70
1
100
AcDbDimStyleTable
 71
0
  0
DIMSTYLE
105
213
100
AcDbSymbolTableRecord
100
AcDbDimStyleTableRecord
  2
STANDARD
 70
0
  3

  4

 40
1.0
 41
1.1922953872
 42
1.0
 43
0.38
 44
1.0
 45
0.0
 46
0.0
 47
0.01
 48
0.01
140
1.669213542
141
0.09
142
0.0
143
25.4
144
1.0
145
0.0
146
1.0
147
0.625
 71
1
 72
0
 73
0
 74
0
 75
0
 76
0
 77
1
 78
8
 79
2
170
0
171
1
172
0
173
0
174
0
175
0
176
0
177
0
178
0
270
2
179
2
271
2
272
2
273
2
274
2
275
0
280
0
281
0
282
0
283
1
284
8
285
0
286
0
287
3
288
0
340
11
278
46
341
212
342
212
343
212
344
212
  0
ENDTAB
  0
ENDSEC
  0
SECTION
  2
BLOCKS
  0
BLOCK
  5
20
100
AcDbEntity
  8
0
100
AcDbBlockBegin
  2
*Model_Space
 70
0
 10
0.0
 20
0.0
 30
0.0
  3
*Model_Space
  1

  0
ENDBLK
  5
21
100
AcDbEntity
  8
0
100
AcDbBlockEnd
  0
BLOCK
  5
1C
100
AcDbEntity
  8
0
100
AcDbBlockBegin
  2
*Paper_Space
 70
0
 10
0.0
 20
0.0
 30
0.0
  3
*Paper_Space
  1

  0
ENDBLK
  5
1D
100
AcDbEntity
  8
0
100
AcDbBlockEnd
  0
BLOCK
  5
214
100
AcDbEntity
  8
0
100
AcDbBlockBegin
  2
_FILLED
 70
64
 10
0.0
 20
0.0
  3
_FILLED
  1

  0
SOLID
  5
215
100
AcDbEntity
  8
0
  6
BYBLOCK
 62
0
100
AcDbTrace
 10
0.0
 20
0.0
 11
-1.0
 21
0.25
 12
-1.0
 22
-0.25
 13
-1.0
 23
-0.25
  0
ENDBLK
  5
216
100
AcDbEntity
  8
0
  6
BYBLOCK
 62
0
100
AcDbBlockEnd
  0
ENDSEC
  0
SECTION
  2
ENTITIES
  0
LINE
  5
217
100
AcDbEntity
  8
0
100
AcDbLine
 62
7
  6
CONTINUOUS
 10
10.9810842966
 20
56.9945307514
 11
10.9810842966
 21
34.5945307514
  0
LINE
  5
218
100
AcDbEntity
  8
0
100
AcDbLine
 62
7
  6
CONTINUOUS
 10
11.1810842966
 20
34.5945307514
 11
11.1810842966
 21
56.7945307514
  0
LINE
  5
219
100
AcDbEntity
  8
0
100
AcDbLine
 62
7
  6
CONTINUOUS
 10
12.1810842966
 20
58.3945307514
 11
12.1810842966
 21
56.9945307514
  0
LINE
  5
21A
100
AcDbEntity
  8
0
100
AcDbLine
 62
7
  6
CONTINUOUS
 10
12.3810842966
 20
56.7945307514
 11
12.3810842966
 21
58.5945307514
  0
LINE
  5
21B
100
AcDbEntity
  8
0
100
AcDbLine
 62
7
  6
CONTINUOUS
 10
65.9587019546
 20
36.9209381362
 11
65.2587019546
 21
36.8225595519
  0
LINE
  5
21C
100
AcDbEntity
  8
0
100
AcDbLine
 62
7
  6
CONTINUOUS
 10
67.1677928637
 20
34.5333708039
 11
90.5587019546
 21
34.5333708039
  0
LINE
  5
21D
100
AcDbEntity
  8
0
100
AcDbLine
 62
7
  6
CONTINUOUS
 10
87.3810842966
 20
34.5945307514
 11
67.3810842966
 21
34.5945307514
  0
LINE
  5
21E
100
AcDbEntity
  8
0
100
AcDbLine
 62
7
  6
CONTINUOUS
 10
31.3810842966
 20
34.5945307514
 11
10.9810842966
 21
34.5945307514
  0
LINE
  5
21F
100
AcDbEntity
  8
0
100
AcDbLine
 62
7
  6
CONTINUOUS
 10
32.7810842967
 20
38.0945307514
 11
33.7810842967
 21
37.7945307513
  0
LINE
  5
220
100
AcDbEntity
  8
0
100
AcDbLine
 62
7
  6
CONTINUOUS
 10
32.7810842966
 20
36.2945307513
 11
31.5310842966
 21
36.8302450371
  0
LINE
  5
221
100
AcDbEntity
  8
0
100
AcDbLine
 62
7
  6
CONTINUOUS
 10
10.9810842966
 20
56.9945307514
 11
11.1810842966
 21
56.7945307514
  0
LINE
  5
222
100
AcDbEntity
  8
0
100
AcDbLine
 62
7
  6
CONTINUOUS
 10
12.1810842966
 20
56.9945307514
 11
12.3810842966
 21
56.7945307514
  0
LINE
  5
223
100
AcDbEntity
  8
0
100
AcDbLine
 62
7
  6
CONTINUOUS
 10
18.4810842966
 20
36.3945307514
 11
18.4810842966
 21
38.7945307514
  0
LINE
  5
224
100
AcDbEntity
  8
0
100
AcDbLine
 62
7
  6
CONTINUOUS
 10
18.6810842966
 20
36.3945307514
 11
18.6810842966
 21
38.7945307514
  0
LINE
  5
225
100
AcDbEntity
  8
0
100
AcDbLine
 62
7
  6
CONTINUOUS
 10
79.8810842966
 20
36.3945307514
 11
75.8810842966
 21
36.3945307514
  0
LINE
  5
226
100
AcDbEntity
  8
0
100
AcDbLine
 62
7
  6
CONTINUOUS
 10
22.4810842966
 20
36.3945307514
 11
18.4810842966
 21
36.3945307514
  0
LINE
  5
227
100
AcDbEntity
  8
0
100
AcDbLine
 62
7
  6
CONTINUOUS
 10
79.6810842966
 20
37.8945307514
 11
76.0810842966
 21
37.8945307514
  0
LINE
  5
228
100
AcDbEntity
  8
0
100
AcDbLine
 62
7
  6
CONTINUOUS
 10
22.2810842966
 20
37.8945307514
 11
18.6810842966
 21
37.8945307514
  0
LINE
  5
229
100
AcDbEntity
  8
0
100
AcDbLine
 62
7
  6
CONTINUOUS
 10
66.7587019546
 20
38.0333708039
 11
65.9587019546
 21
38.0333708039
  0
LINE
  5
22A
100
AcDbEntity
  8
0
100
AcDbLine
 62
7
  6
CONTINUOUS
 10
87.3810842966
 20
38.0333708039
 11
88.5587019546
 21
38.0333708039
  0
LINE
  5
22B
100
AcDbEntity
  8
0
100
AcDbLine
 62
7
  6
CONTINUOUS
 10
67.3810842966
 20
38.0945307514
 11
31.3810842966
 21
38.0945307514
  0
LINE
  5
22C
100
AcDbEntity
  8
0
100
AcDbLine
 62
7
  6
CONTINUOUS
 10
18.4810842966
 20
38.7945307514
 11
22.4810842966
 21
38.7945307514
  0
LINE
  5
22D
100
AcDbEntity
  8
0
100
AcDbLine
 62
7
  6
CONTINUOUS
 10
75.8810842966
 20
38.7945307514
 11
79.8810842966
 21
38.7945307514
  0
LINE
  5
22E
100
AcDbEntity
  8
0
100
AcDbLine
 62
7
  6
CONTINUOUS
 10
19.3810842966
 20
75.4945307514
 11
19.3810842966
 21
58.5945307514
  0
LINE
  5
22F
100
AcDbEntity
  8
0
100
AcDbLine
 62
7
  6
CONTINUOUS
 10
19.5810842966
 20
58.3945307514
 11
19.5810842966
 21
75.2945307514
  0
LINE
  5
230
100
AcDbEntity
  8
0
100
AcDbLine
 62
7
  6
CONTINUOUS
 10
20.5810842966
 20
76.8945307514
 11
20.5810842966
 21
75.4945307514
  0
LINE
  5
231
100
AcDbEntity
  8
0
100
AcDbLine
 62
7
  6
CONTINUOUS
 10
20.7810842966
 20
75.2945307514
 11
20.7810842966
 21
77.0945307514
  0
LINE
  5
232
100
AcDbEntity
  8
0
100
AcDbLine
 62
7
  6
CONTINUOUS
 10
22.2810842966
 20
38.7945307514
 11
22.2810842966
 21
36.3945307514
  0
LINE
  5
233
100
AcDbEntity
  8
0
100
AcDbLine
 62
7
  6
CONTINUOUS
 10
22.4810842966
 20
38.7945307514
 11
22.4810842966
 21
36.3945307514
  0
LINE
  5
234
100
AcDbEntity
  8
0
100
AcDbLine
 62
7
  6
CONTINUOUS
 10
89.5587019546
 20
39.0333708039
 11
90.5587019546
 21
39.0333708039
  0
LINE
  5
235
100
AcDbEntity
  8
0
100
AcDbLine
 62
7
  6
CONTINUOUS
 10
19.3810842966
 20
58.5945307514
 11
19.5810842966
 21
58.3945307514
  0
LINE
  5
236
100
AcDbEntity
  8
0
100
AcDbLine
 62
7
  6
CONTINUOUS
 10
27.7810842966
 20
93.9945307514
 11
27.7810842966
 21
77.0945307514
  0
LINE
  5
237
100
AcDbEntity
  8
0
100
AcDbLine
 62
7
  6
CONTINUOUS
 10
27.9810842966
 20
76.8945307514
 11
27.9810842966
 21
93.7945307514
  0
LINE
  5
238
100
AcDbEntity
  8
0
100
AcDbLine
 62
7
  6
CONTINUOUS
 10
28.9810842966
 20
95.3945307514
 11
28.9810842966
 21
93.9945307514
  0
LINE
  5
239
100
AcDbEntity
  8
0
100
AcDbLine
 62
7
  6
CONTINUOUS
 10
29.1810842966
 20
93.7945307514
 11
29.1810842966
 21
95.5945307514
  0
LINE
  5
23A
100
AcDbEntity
  8
0
100
AcDbLine
 62
7
  6
CONTINUOUS
 10
31.3810842966
 20
38.0945307514
 11
31.3810842966
 21
34.5945307514
  0
LINE
  5
23B
100
AcDbEntity
  8
0
100
AcDbLine
 62
7
  6
CONTINUOUS
 10
31.5310842966
 20
36.8302450371
 11
31.5310842966
 21
38.0945307514
  0
LINE
  5
23C
100
AcDbEntity
  8
0
100
AcDbLine
 62
7
  6
CONTINUOUS
 10
32.7810842966
 20
36.2945307514
 11
32.7810842966
 21
35.2945307514
  0
LINE
  5
23D
100
AcDbEntity
  8
0
100
AcDbLine
 62
7
  6
CONTINUOUS
 10
59.6075561592
 20
104.8886217694
 11
59.7489775155
 21
105.0300431256
  0
LINE
  5
23E
100
AcDbEntity
  8
0
100
AcDbLine
 62
7
  6
CONTINUOUS
 10
59.7975056558
 20
104.9815149852
 11
59.6560842996
 21
104.840093629
  0
LINE
  5
23F
100
AcDbEntity
  8
0
100
AcDbLine
 62
7
  6
CONTINUOUS
 10
65.3404292219
 20
35.8734374746
 11
67.1677928637
 21
34.5333708039
  0
LINE
  5
240
100
AcDbEntity
  8
0
100
AcDbLine
 62
7
  6
CONTINUOUS
 10
19.3810842966
 20
75.4945307514
 11
19.5810842966
 21
75.2945307514
  0
LINE
  5
241
100
AcDbEntity
  8
0
100
AcDbLine
 62
7
  6
CONTINUOUS
 10
20.5810842966
 20
75.4945307514
 11
20.7810842966
 21
75.2945307514
  0
LINE
  5
242
100
AcDbEntity
  8
0
100
AcDbLine
 62
7
  6
CONTINUOUS
 10
36.7810842966
 20
95.5945307514
 11
36.7810842966
 21
62.3445307514
  0
LINE
  5
243
100
AcDbEntity
  8
0
100
AcDbLine
 62
7
  6
CONTINUOUS
 10
37.5060837463
 20
103.1445263483
 11
37.5810842509
 21
103.7445303857
  0
LINE
  5
244
100
AcDbEntity
  8
0
100
AcDbLine
 62
7
  6
CONTINUOUS
 10
38.5658304483
 20
103.7445307514
 11
38.4908304483
 21
103.1445307514
  0
LINE
  5
245
100
AcDbEntity
  8
0
100
AcDbLine
 62
7
  6
CONTINUOUS
 10
36.9810842966
 20
62.5445307514
 11
36.9810842966
 21
102.7445307514
  0
LINE
  5
246
100
AcDbEntity
  8
0
100
AcDbLine
 62
7
  6
CONTINUOUS
 10
38.4810842836
 20
96.294530353
 11
38.4810842966
 21
102.9445307514
  0
LINE
  5
247
100
AcDbEntity
  8
0
100
AcDbLine
 62
7
  6
CONTINUOUS
 10
40.0810842966
 20
89.7945307514
 11
40.0810842966
 21
94.7945307514
  0
LINE
  5
248
100
AcDbEntity
  8
0
100
AcDbLine
 62
7
  6
CONTINUOUS
 10
37.5056479066
 20
102.9445307514
 11
37.5060842901
 21
103.1445277491
  0
LINE
  5
249
100
AcDbEntity
  8
0
100
AcDbLine
 62
7
  6
CONTINUOUS
 10
11.1810842966
 20
56.7945307514
 11
12.3810842966
 21
56.7945307514
  0
LINE
  5
24A
100
AcDbEntity
  8
0
100
AcDbLine
 62
7
  6
CONTINUOUS
 10
12.1810842966
 20
56.9945307514
 11
10.9810842966
 21
56.9945307514
  0
LINE
  5
24B
100
AcDbEntity
  8
0
100
AcDbLine
 62
7
  6
CONTINUOUS
 10
12.1810842966
 20
58.3945307514
 11
19.5810842966
 21
58.3945307514
  0
LINE
  5
24C
100
AcDbEntity
  8
0
100
AcDbLine
 62
7
  6
CONTINUOUS
 10
19.3810842966
 20
58.5945307514
 11
12.3810842966
 21
58.5945307514
  0
LINE
  5
24D
100
AcDbEntity
  8
0
100
AcDbLine
 62
7
  6
CONTINUOUS
 10
27.7810842966
 20
77.0945307514
 11
27.9810842966
 21
76.8945307514
  0
LINE
  5
24E
100
AcDbEntity
  8
0
100
AcDbLine
 62
7
  6
CONTINUOUS
 10
42.3565206867
 20
102.9445307514
 11
42.356143795
 21
103.1445277825
  0
LINE
  5
24F
100
AcDbEntity
  8
0
100
AcDbLine
 62
7
  6
CONTINUOUS
 10
42.3810842966
 20
62.9945307514
 11
42.3810842966
 21
64.4945307514
  0
LINE
  5
250
100
AcDbEntity
  8
0
100
AcDbLine
 62
7
  6
CONTINUOUS
 10
42.6810842966
 20
64.8445307514
 11
42.6810842966
 21
66.7445307514
  0
LINE
  5
251
100
AcDbEntity
  8
0
100
AcDbLine
 62
7
  6
CONTINUOUS
 10
42.9310842966
 20
103.7445307514
 11
42.9310842966
 21
102.9445307514
  0
LINE
  5
252
100
AcDbEntity
  8
0
100
AcDbLine
 62
7
  6
CONTINUOUS
 10
85.9810842966
 20
61.7945307514
 11
87.1810842966
 21
61.7945307514
  0
LINE
  5
253
100
AcDbEntity
  8
0
100
AcDbLine
 62
7
  6
CONTINUOUS
 10
87.3810842966
 20
61.9945307514
 11
86.1810842966
 21
61.9945307514
  0
LINE
  5
254
100
AcDbEntity
  8
0
100
AcDbLine
 62
7
  6
CONTINUOUS
 10
36.7810842966
 20
62.3445307514
 11
66.5810842966
 21
62.3445307514
  0
LINE
  5
255
100
AcDbEntity
  8
0
100
AcDbLine
 62
7
  6
CONTINUOUS
 10
66.3810842966
 20
62.5445307514
 11
36.9810842966
 21
62.5445307514
  0
LINE
  5
256
100
AcDbEntity
  8
0
100
AcDbLine
 62
7
  6
CONTINUOUS
 10
42.6810842966
 20
62.6945307514
 11
62.8223487956
 21
62.6945307514
  0
LINE
  5
257
100
AcDbEntity
  8
0
100
AcDbLine
 62
7
  6
CONTINUOUS
 10
67.8810842966
 20
63.3945307514
 11
86.1810842966
 21
63.3945307514
  0
LINE
  5
258
100
AcDbEntity
  8
0
100
AcDbLine
 62
7
  6
CONTINUOUS
 10
85.9810842966
 20
63.5945307514
 11
68.0810842966
 21
63.5945307514
  0
LINE
  5
259
100
AcDbEntity
  8
0
100
AcDbLine
 62
7
  6
CONTINUOUS
 10
44.4310842966
 20
102.7445307514
 11
44.4310842966
 21
103.9445307514
  0
LINE
  5
25A
100
AcDbEntity
  8
0
100
AcDbLine
 62
7
  6
CONTINUOUS
 10
45.6810842966
 20
66.7445307514
 11
45.6810842966
 21
64.8445307514
  0
LINE
  5
25B
100
AcDbEntity
  8
0
100
AcDbLine
 62
7
  6
CONTINUOUS
 10
46.0810842966
 20
94.7945307514
 11
46.0810842966
 21
89.7945307514
  0
LINE
  5
25C
100
AcDbEntity
  8
0
100
AcDbLine
 62
7
  6
CONTINUOUS
 10
47.6041003317
 20
67.3154291203
 11
47.6041003317
 21
62.6945307514
  0
LINE
  5
25D
100
AcDbEntity
  8
0
100
AcDbLine
 62
7
  6
CONTINUOUS
 10
36.7810842966
 20
62.3445307514
 11
36.9810842966
 21
62.5445307514
  0
LINE
  5
25E
100
AcDbEntity
  8
0
100
AcDbLine
 62
7
  6
CONTINUOUS
 10
63.993259588
 20
84.1620084181
 11
69.2058384456
 21
87.6457542421
  0
LINE
  5
25F
100
AcDbEntity
  8
0
100
AcDbLine
 62
7
  6
CONTINUOUS
 10
42.6810842966
 20
64.7945307514
 11
46.6810842966
 21
64.7945307514
  0
LINE
  5
260
100
AcDbEntity
  8
0
100
AcDbLine
 62
7
  6
CONTINUOUS
 10
42.6810842966
 20
64.8445307514
 11
45.6810842966
 21
64.8445307514
  0
LINE
  5
261
100
AcDbEntity
  8
0
100
AcDbLine
 62
7
  6
CONTINUOUS
 10
71.4310842966
 20
65.0945307514
 11
73.9310842966
 21
65.0945307514
  0
LINE
  5
262
100
AcDbEntity
  8
0
100
AcDbLine
 62
7
  6
CONTINUOUS
 10
45.6810842966
 20
65.4445307514
 11
42.6810842966
 21
65.4445307514
  0
LINE
  5
263
100
AcDbEntity
  8
0
100
AcDbLine
 62
7
  6
CONTINUOUS
 10
73.7810842966
 20
65.6945307514
 11
71.5810842966
 21
65.6945307514
  0
LINE
  5
264
100
AcDbEntity
  8
0
100
AcDbLine
 62
7
  6
CONTINUOUS
 10
45.6810842966
 20
65.7445307514
 11
42.6810842966
 21
65.7445307514
  0
LINE
  5
265
100
AcDbEntity
  8
0
100
AcDbLine
 62
7
  6
CONTINUOUS
 10
62.2924944944
 20
66.1373878942
 11
64.0696740989
 21
66.1373878942
  0
LINE
  5
266
100
AcDbEntity
  8
0
100
AcDbLine
 62
7
  6
CONTINUOUS
 10
42.6810842966
 20
66.7445307514
 11
45.6810842966
 21
66.7445307514
  0
LINE
  5
267
100
AcDbEntity
  8
0
100
AcDbLine
 62
7
  6
CONTINUOUS
 10
71.4310842966
 20
66.7445307514
 11
71.5810842966
 21
66.7445307514
  0
LINE
  5
268
100
AcDbEntity
  8
0
100
AcDbLine
 62
7
  6
CONTINUOUS
 10
73.7810842966
 20
66.7445307514
 11
73.9310842966
 21
66.7445307514
  0
LINE
  5
269
100
AcDbEntity
  8
0
100
AcDbLine
 62
7
  6
CONTINUOUS
 10
73.9310842966
 20
66.8945307514
 11
71.4310842966
 21
66.8945307514
  0
LINE
  5
26A
100
AcDbEntity
  8
0
100
AcDbLine
 62
7
  6
CONTINUOUS
 10
41.371338145
 20
103.1445307514
 11
41.296338145
 21
103.7445307514
  0
LINE
  5
26B
100
AcDbEntity
  8
0
100
AcDbLine
 62
7
  6
CONTINUOUS
 10
42.2810843564
 20
103.7445302734
 11
42.356084883
 21
103.1445260605
  0
LINE
  5
26C
100
AcDbEntity
  8
0
100
AcDbLine
 62
7
  6
CONTINUOUS
 10
48.1185960871
 20
62.6945307514
 11
48.1185960871
 21
68.7205959445
  0
LINE
  5
26D
100
AcDbEntity
  8
0
100
AcDbLine
 62
7
  6
CONTINUOUS
 10
48.8810842966
 20
70.8030681992
 11
48.8810842966
 21
62.6945307514
  0
LINE
  5
26E
100
AcDbEntity
  8
0
100
AcDbLine
 62
7
  6
CONTINUOUS
 10
50.2810842966
 20
77.0445307514
 11
50.2810842966
 21
75.0445307514
  0
LINE
  5
26F
100
AcDbEntity
  8
0
100
AcDbLine
 62
7
  6
CONTINUOUS
 10
50.4310842966
 20
75.0445307514
 11
50.4310842966
 21
76.5476037802
  0
LINE
  5
270
100
AcDbEntity
  8
0
100
AcDbLine
 62
7
  6
CONTINUOUS
 10
50.6310842966
 20
75.1214677289
 11
50.6310842966
 21
76.9445307514
  0
LINE
  5
271
100
AcDbEntity
  8
0
100
AcDbLine
 62
7
  6
CONTINUOUS
 10
46.6810842966
 20
64.7945307514
 11
49.5982048068
 21
72.7616343082
  0
LINE
  5
272
100
AcDbEntity
  8
0
100
AcDbLine
 62
7
  6
CONTINUOUS
 10
50.4310842966
 20
76.5476037802
 11
50.6310842966
 21
76.9445307514
  0
LINE
  5
273
100
AcDbEntity
  8
0
100
AcDbLine
 62
7
  6
CONTINUOUS
 10
36.9810842966
 20
69.2445307514
 11
48.3104325507
 21
69.2445307514
  0
LINE
  5
274
100
AcDbEntity
  8
0
100
AcDbLine
 62
7
  6
CONTINUOUS
 10
65.3668397793
 20
69.2445307514
 11
66.7903483712
 21
69.2445307514
  0
LINE
  5
275
100
AcDbEntity
  8
0
100
AcDbLine
 62
7
  6
CONTINUOUS
 10
66.9880073421
 20
69.2445307514
 11
68.0810842966
 21
69.2445307514
  0
LINE
  5
276
100
AcDbEntity
  8
0
100
AcDbLine
 62
7
  6
CONTINUOUS
 10
36.9810842966
 20
69.4445307514
 11
48.3836616857
 21
69.4445307514
  0
LINE
  5
277
100
AcDbEntity
  8
0
100
AcDbLine
 62
7
  6
CONTINUOUS
 10
65.3220714571
 20
69.4445307514
 11
67.8810842966
 21
69.4445307514
  0
LINE
  5
278
100
AcDbEntity
  8
0
100
AcDbLine
 62
7
  6
CONTINUOUS
 10
27.7810842966
 20
93.9945307514
 11
27.9810842966
 21
93.7945307514
  0
LINE
  5
279
100
AcDbEntity
  8
0
100
AcDbLine
 62
7
  6
CONTINUOUS
 10
65.7810842966
 20
73.1445307514
 11
65.5810828433
 21
73.1445307514
  0
LINE
  5
27A
100
AcDbEntity
  8
0
100
AcDbLine
 62
7
  6
CONTINUOUS
 10
37.1810842966
 20
73.1445307514
 11
36.9810842966
 21
73.1445307514
  0
LINE
  5
27B
100
AcDbEntity
  8
0
100
AcDbLine
 62
7
  6
CONTINUOUS
 10
66.7903405219
 20
69.2741807744
 11
66.9880073421
 21
69.2445307514
  0
LINE
  5
27C
100
AcDbEntity
  8
0
100
AcDbLine
 62
7
  6
CONTINUOUS
 10
28.9810842966
 20
93.9945307514
 11
29.1810842966
 21
93.7945307514
  0
LINE
  5
27D
100
AcDbEntity
  8
0
100
AcDbLine
 62
7
  6
CONTINUOUS
 10
56.9560842966
 20
104.8926638652
 11
56.9560842966
 21
103.9445307514
  0
LINE
  5
27E
100
AcDbEntity
  8
0
100
AcDbLine
 62
7
  6
CONTINUOUS
 10
57.4560849036
 20
103.9445307514
 11
57.4560850712
 21
105.0762363691
  0
LINE
  5
27F
100
AcDbEntity
  8
0
100
AcDbLine
 62
7
  6
CONTINUOUS
 10
57.7310842966
 20
105.1229363444
 11
57.7310842966
 21
105.3229363444
  0
LINE
  5
280
100
AcDbEntity
  8
0
100
AcDbLine
 62
7
  6
CONTINUOUS
 10
50.6310842966
 20
75.7445307514
 11
50.4310842966
 21
75.6904609231
  0
LINE
  5
281
100
AcDbEntity
  8
0
100
AcDbLine
 62
7
  6
CONTINUOUS
 10
50.5974096205
 20
75.0445307514
 11
50.2810842966
 21
75.0445307514
  0
LINE
  5
282
100
AcDbEntity
  8
0
100
AcDbLine
 62
7
  6
CONTINUOUS
 10
19.5810842966
 20
75.2945307514
 11
20.7810842966
 21
75.2945307514
  0
LINE
  5
283
100
AcDbEntity
  8
0
100
AcDbLine
 62
7
  6
CONTINUOUS
 10
20.5810842966
 20
75.4945307514
 11
19.3810842966
 21
75.4945307514
  0
LINE
  5
284
100
AcDbEntity
  8
0
100
AcDbLine
 62
7
  6
CONTINUOUS
 10
50.6310842966
 20
75.7445307514
 11
50.903793807
 21
75.7445307514
  0
LINE
  5
285
100
AcDbEntity
  8
0
100
AcDbLine
 62
7
  6
CONTINUOUS
 10
20.5810842966
 20
76.8945307514
 11
27.9810842966
 21
76.8945307514
  0
LINE
  5
286
100
AcDbEntity
  8
0
100
AcDbLine
 62
7
  6
CONTINUOUS
 10
50.6310842966
 20
76.9445307514
 11
51.4290238411
 21
76.9445307514
  0
LINE
  5
287
100
AcDbEntity
  8
0
100
AcDbLine
 62
7
  6
CONTINUOUS
 10
51.4727930106
 20
77.0445307514
 11
50.2810842966
 21
77.0445307514
  0
LINE
  5
288
100
AcDbEntity
  8
0
100
AcDbLine
 62
7
  6
CONTINUOUS
 10
27.7810842966
 20
77.0945307514
 11
20.7810842966
 21
77.0945307514
  0
LINE
  5
289
100
AcDbEntity
  8
0
100
AcDbLine
 62
7
  6
CONTINUOUS
 10
66.3810842966
 20
62.5445307514
 11
66.5810842966
 21
62.3445307514
  0
LINE
  5
28A
100
AcDbEntity
  8
0
100
AcDbLine
 62
7
  6
CONTINUOUS
 10
59.0418707343
 20
105.3229363444
 11
59.0418707343
 21
105.1229363444
  0
LINE
  5
28B
100
AcDbEntity
  8
0
100
AcDbLine
 62
7
  6
CONTINUOUS
 10
59.6560843137
 20
104.8400936149
 11
59.6560843211
 21
103.9445307514
  0
LINE
  5
28C
100
AcDbEntity
  8
0
100
AcDbLine
 62
7
  6
CONTINUOUS
 10
60.1560842966
 20
103.9445307514
 11
60.1560842966
 21
104.5400936538
  0
LINE
  5
28D
100
AcDbEntity
  8
0
100
AcDbLine
 62
7
  6
CONTINUOUS
 10
64.2769582316
 20
88.8886958818
 11
65.3863921939
 21
93.7886958819
  0
LINE
  5
28E
100
AcDbEntity
  8
0
100
AcDbLine
 62
7
  6
CONTINUOUS
 10
64.2810842966
 20
103.9445307514
 11
64.2810756307
 21
98.0142971908
  0
LINE
  5
28F
100
AcDbEntity
  8
0
100
AcDbLine
 62
7
  6
CONTINUOUS
 10
65.2587019546
 20
36.0347184738
 11
65.2587019546
 21
36.8225595519
  0
LINE
  5
290
100
AcDbEntity
  8
0
100
AcDbLine
 62
7
  6
CONTINUOUS
 10
66.7189862549
 20
89.7884338473
 11
67.0626615013
 21
91.4428358262
  0
LINE
  5
291
100
AcDbEntity
  8
0
100
AcDbLine
 62
7
  6
CONTINUOUS
 10
65.8723487956
 20
66.9861972181
 11
62.7326851367
 21
81.0124707275
  0
LINE
  5
292
100
AcDbEntity
  8
0
100
AcDbLine
 62
7
  6
CONTINUOUS
 10
65.5723487956
 20
91.5445307514
 11
65.5723487956
 21
90.0445307513
  0
LINE
  5
293
100
AcDbEntity
  8
0
100
AcDbLine
 62
7
  6
CONTINUOUS
 10
65.7810842966
 20
93.9445307514
 11
65.7810842966
 21
91.949803636
  0
LINE
  5
294
100
AcDbEntity
  8
0
100
AcDbLine
 62
7
  6
CONTINUOUS
 10
65.7810842966
 20
89.6392484792
 11
65.7810842966
 21
88.6445307514
  0
LINE
  5
295
100
AcDbEntity
  8
0
100
AcDbLine
 62
7
  6
CONTINUOUS
 10
65.7810842966
 20
69.4445307514
 11
65.7810842966
 21
85.3568731929
  0
LINE
  5
296
100
AcDbEntity
  8
0
100
AcDbLine
 62
7
  6
CONTINUOUS
 10
65.7810842966
 20
98.6580606793
 11
65.7810842966
 21
103.7445307514
  0
LINE
  5
297
100
AcDbEntity
  8
0
100
AcDbLine
 62
7
  6
CONTINUOUS
 10
65.8723487956
 20
65.7445307513
 11
65.8723487956
 21
66.9861972181
  0
LINE
  5
298
100
AcDbEntity
  8
0
100
AcDbLine
 62
7
  6
CONTINUOUS
 10
65.9587019546
 20
36.9209381362
 11
65.9587019546
 21
38.0333708039
  0
LINE
  5
299
100
AcDbEntity
  8
0
100
AcDbLine
 62
7
  6
CONTINUOUS
 10
66.0723487956
 20
92.0445307514
 11
66.0723487956
 21
93.9445307514
  0
LINE
  5
29A
100
AcDbEntity
  8
0
100
AcDbLine
 62
7
  6
CONTINUOUS
 10
66.3810842966
 20
62.5445307514
 11
66.3810842966
 21
66.5467842792
  0
LINE
  5
29B
100
AcDbEntity
  8
0
100
AcDbLine
 62
7
  6
CONTINUOUS
 10
66.5810842966
 20
62.3445307514
 11
66.5810842966
 21
66.5317104485
  0
LINE
  5
29C
100
AcDbEntity
  8
0
100
AcDbLine
 62
7
  6
CONTINUOUS
 10
66.7587019546
 20
38.0945307514
 11
66.7587019546
 21
34.8333708039
  0
LINE
  5
29D
100
AcDbEntity
  8
0
100
AcDbLine
 62
7
  6
CONTINUOUS
 10
66.9880073421
 20
69.2445307514
 11
66.9880073421
 21
69.4445307514
  0
LINE
  5
29E
100
AcDbEntity
  8
0
100
AcDbLine
 62
7
  6
CONTINUOUS
 10
67.2716755606
 20
90.0445307514
 11
67.2716755606
 21
93.9445307514
  0
LINE
  5
29F
100
AcDbEntity
  8
0
100
AcDbLine
 62
7
  6
CONTINUOUS
 10
67.3810842966
 20
34.5945307514
 11
67.3810842966
 21
38.0945307514
  0
LINE
  5
2A0
100
AcDbEntity
  8
0
100
AcDbLine
 62
7
  6
CONTINUOUS
 10
67.5810842966
 20
88.6445307514
 11
67.5810842966
 21
89.4445307514
  0
LINE
  5
2A1
100
AcDbEntity
  8
0
100
AcDbLine
 62
7
  6
CONTINUOUS
 10
67.8810842966
 20
69.4445307514
 11
67.8810842966
 21
63.3945307514
  0
LINE
  5
2A2
100
AcDbEntity
  8
0
100
AcDbLine
 62
7
  6
CONTINUOUS
 10
68.0810842966
 20
63.5945307514
 11
68.0810842966
 21
69.2445307514
  0
LINE
  5
2A3
100
AcDbEntity
  8
0
100
AcDbLine
 62
7
  6
CONTINUOUS
 10
68.1216755606
 20
93.7445307514
 11
68.1216755606
 21
88.8445307514
  0
LINE
  5
2A4
100
AcDbEntity
  8
0
100
AcDbLine
 62
7
  6
CONTINUOUS
 10
68.3810842966
 20
86.0945307514
 11
68.3810842966
 21
63.5945307514
  0
LINE
  5
2A5
100
AcDbEntity
  8
0
100
AcDbLine
 62
7
  6
CONTINUOUS
 10
68.8810842966
 20
63.5945307514
 11
68.8810842966
 21
86.5945307514
  0
LINE
  5
2A6
100
AcDbEntity
  8
0
100
AcDbLine
 62
7
  6
CONTINUOUS
 10
66.3811079114
 20
66.5459633712
 11
66.790353128
 21
69.2742648149
  0
LINE
  5
2A7
100
AcDbEntity
  8
0
100
AcDbLine
 62
7
  6
CONTINUOUS
 10
66.9880073421
 20
69.2445307514
 11
66.5810842966
 21
66.5317104485
  0
LINE
  5
2A8
100
AcDbEntity
  8
0
100
AcDbLine
 62
7
  6
CONTINUOUS
 10
68.0810842966
 20
63.5945307514
 11
67.8810842966
 21
63.3945307514
  0
LINE
  5
2A9
100
AcDbEntity
  8
0
100
AcDbLine
 62
7
  6
CONTINUOUS
 10
68.3810842966
 20
86.0945307514
 11
76.9810842966
 21
86.0945307514
  0
LINE
  5
2AA
100
AcDbEntity
  8
0
100
AcDbLine
 62
7
  6
CONTINUOUS
 10
76.4810842966
 20
86.5945307514
 11
68.8810842966
 21
86.5945307514
  0
LINE
  5
2AB
100
AcDbEntity
  8
0
100
AcDbLine
 62
7
  6
CONTINUOUS
 10
71.1810842966
 20
87.8824701496
 11
74.1810842966
 21
87.8824701496
  0
LINE
  5
2AC
100
AcDbEntity
  8
0
100
AcDbLine
 62
7
  6
CONTINUOUS
 10
67.9216755606
 20
88.6445307514
 11
64.4720208914
 21
88.6445307514
  0
LINE
  5
2AD
100
AcDbEntity
  8
0
100
AcDbLine
 62
7
  6
CONTINUOUS
 10
57.4560849454
 20
105.076236346
 11
57.3900615213
 21
105.2650243421
  0
LINE
  5
2AE
100
AcDbEntity
  8
0
100
AcDbLine
 62
7
  6
CONTINUOUS
 10
69.8723487956
 20
106.5912060448
 11
69.8723487956
 21
88.8928689134
  0
LINE
  5
2AF
100
AcDbEntity
  8
0
100
AcDbLine
 62
7
  6
CONTINUOUS
 10
71.1810842966
 20
87.8824701496
 11
71.1810842966
 21
86.5945307514
  0
LINE
  5
2B0
100
AcDbEntity
  8
0
100
AcDbLine
 62
7
  6
CONTINUOUS
 10
71.4310842966
 20
66.8945307514
 11
71.4310842966
 21
65.0945307514
  0
LINE
  5
2B1
100
AcDbEntity
  8
0
100
AcDbLine
 62
7
  6
CONTINUOUS
 10
71.5810842966
 20
65.0945307514
 11
71.5810842966
 21
66.7445307514
  0
LINE
  5
2B2
100
AcDbEntity
  8
0
100
AcDbLine
 62
7
  6
CONTINUOUS
 10
45.5810842966
 20
89.2945307514
 11
40.5810842966
 21
89.2945307514
  0
LINE
  5
2B3
100
AcDbEntity
  8
0
100
AcDbLine
 62
7
  6
CONTINUOUS
 10
67.5810842966
 20
89.4445307514
 11
65.7810842966
 21
89.4445307514
  0
LINE
  5
2B4
100
AcDbEntity
  8
0
100
AcDbLine
 62
7
  6
CONTINUOUS
 10
66.0723487956
 20
89.5445307514
 11
66.4242706075
 21
89.5445307514
  0
LINE
  5
2B5
100
AcDbEntity
  8
0
100
AcDbLine
 62
7
  6
CONTINUOUS
 10
66.5723487956
 20
89.5445307514
 11
66.7716755606
 21
89.5445307514
  0
LINE
  5
2B6
100
AcDbEntity
  8
0
100
AcDbLine
 62
7
  6
CONTINUOUS
 10
66.7716755606
 20
92.0445307514
 11
66.0723487956
 21
92.0445307514
  0
LINE
  5
2B7
100
AcDbEntity
  8
0
100
AcDbLine
 62
7
  6
CONTINUOUS
 10
73.7810842966
 20
66.7445307514
 11
73.7810842966
 21
65.0945307514
  0
LINE
  5
2B8
100
AcDbEntity
  8
0
100
AcDbLine
 62
7
  6
CONTINUOUS
 10
73.9310842966
 20
65.0945307514
 11
73.9310842966
 21
66.8945307514
  0
LINE
  5
2B9
100
AcDbEntity
  8
0
100
AcDbLine
 62
7
  6
CONTINUOUS
 10
74.1810842966
 20
87.8824701496
 11
74.1810842966
 21
86.5945307514
  0
LINE
  5
2BA
100
AcDbEntity
  8
0
100
AcDbLine
 62
7
  6
CONTINUOUS
 10
75.8810842966
 20
36.3945307514
 11
75.8810842966
 21
38.7945307514
  0
LINE
  5
2BB
100
AcDbEntity
  8
0
100
AcDbLine
 62
7
  6
CONTINUOUS
 10
76.0810842966
 20
36.3945307514
 11
76.0810842966
 21
38.7945307514
  0
LINE
  5
2BC
100
AcDbEntity
  8
0
100
AcDbLine
 62
7
  6
CONTINUOUS
 10
31.3810842966
 20
34.5945307514
 11
32.7810842966
 21
35.2945307514
  0
LINE
  5
2BD
100
AcDbEntity
  8
0
100
AcDbLine
 62
7
  6
CONTINUOUS
 10
27.9810842966
 20
93.7945307514
 11
29.1810842966
 21
93.7945307514
  0
LINE
  5
2BE
100
AcDbEntity
  8
0
100
AcDbLine
 62
7
  6
CONTINUOUS
 10
65.5814548537
 20
93.9445307514
 11
67.9216755606
 21
93.9445307514
  0
LINE
  5
2BF
100
AcDbEntity
  8
0
100
AcDbLine
 62
7
  6
CONTINUOUS
 10
28.9810842966
 20
93.9945307514
 11
27.7810842966
 21
93.9945307514
  0
LINE
  5
2C0
100
AcDbEntity
  8
0
100
AcDbLine
 62
7
  6
CONTINUOUS
 10
40.5810842966
 20
95.2945307514
 11
45.5810842966
 21
95.2945307514
  0
LINE
  5
2C1
100
AcDbEntity
  8
0
100
AcDbLine
 62
7
  6
CONTINUOUS
 10
28.9810842966
 20
95.3945307514
 11
36.9810842966
 21
95.3945307514
  0
LINE
  5
2C2
100
AcDbEntity
  8
0
100
AcDbLine
 62
7
  6
CONTINUOUS
 10
36.7810842966
 20
95.5945307514
 11
29.1810842966
 21
95.5945307514
  0
LINE
  5
2C3
100
AcDbEntity
  8
0
100
AcDbLine
 62
7
  6
CONTINUOUS
 10
76.4810842966
 20
86.5945307514
 11
76.4810842966
 21
63.5945307514
  0
LINE
  5
2C4
100
AcDbEntity
  8
0
100
AcDbLine
 62
7
  6
CONTINUOUS
 10
76.9810842966
 20
63.5945307514
 11
76.9810842966
 21
86.0945307514
  0
LINE
  5
2C5
100
AcDbEntity
  8
0
100
AcDbLine
 62
7
  6
CONTINUOUS
 10
77.9587019546
 20
34.5945307514
 11
77.9587019546
 21
34.5333708039
  0
LINE
  5
2C6
100
AcDbEntity
  8
0
100
AcDbLine
 62
7
  6
CONTINUOUS
 10
79.6810842966
 20
38.7945307514
 11
79.6810842966
 21
36.3945307514
  0
LINE
  5
2C7
100
AcDbEntity
  8
0
100
AcDbLine
 62
7
  6
CONTINUOUS
 10
38.4810842966
 20
96.2945306599
 11
36.9810842967
 21
96.2945306599
  0
LINE
  5
2C8
100
AcDbEntity
  8
0
100
AcDbLine
 62
7
  6
CONTINUOUS
 10
79.8810842966
 20
38.7945307514
 11
79.8810842966
 21
36.3945307514
  0
LINE
  5
2C9
100
AcDbEntity
  8
0
100
AcDbLine
 62
7
  6
CONTINUOUS
 10
85.9810842966
 20
61.7945307514
 11
86.1810842966
 21
61.9945307514
  0
LINE
  5
2CA
100
AcDbEntity
  8
0
100
AcDbLine
 62
7
  6
CONTINUOUS
 10
87.1810842966
 20
61.7945307514
 11
87.3810842966
 21
61.9945307514
  0
LINE
  5
2CB
100
AcDbEntity
  8
0
100
AcDbLine
 62
7
  6
CONTINUOUS
 10
36.9810842967
 20
102.7445307514
 11
44.4310842966
 21
102.7445307514
  0
LINE
  5
2CC
100
AcDbEntity
  8
0
100
AcDbLine
 62
7
  6
CONTINUOUS
 10
37.1810842966
 20
102.9445307514
 11
43.6827528193
 21
102.9445307514
  0
LINE
  5
2CD
100
AcDbEntity
  8
0
100
AcDbLine
 62
7
  6
CONTINUOUS
 10
37.5060722815
 20
103.1445307514
 11
42.3560970674
 21
103.1445307514
  0
LINE
  5
2CE
100
AcDbEntity
  8
0
100
AcDbLine
 62
7
  6
CONTINUOUS
 10
59.6560843137
 20
104.8400936149
 11
59.6075561592
 21
104.8886217694
  0
LINE
  5
2CF
100
AcDbEntity
  8
0
100
AcDbLine
 62
7
  6
CONTINUOUS
 10
60.0975056525
 20
104.6815149885
 11
59.7489775155
 21
105.0300431256
  0
LINE
  5
2D0
100
AcDbEntity
  8
0
100
AcDbLine
 62
7
  6
CONTINUOUS
 10
83.6587019546
 20
34.5945307514
 11
83.6587019546
 21
34.5333708039
  0
LINE
  5
2D1
100
AcDbEntity
  8
0
100
AcDbLine
 62
7
  6
CONTINUOUS
 10
85.9810842966
 20
63.5945307514
 11
85.9810842966
 21
61.7945307514
  0
LINE
  5
2D2
100
AcDbEntity
  8
0
100
AcDbLine
 62
7
  6
CONTINUOUS
 10
86.1810842966
 20
61.9945307514
 11
86.1810842966
 21
63.3945307514
  0
LINE
  5
2D3
100
AcDbEntity
  8
0
100
AcDbLine
 62
7
  6
CONTINUOUS
 10
57.6671524068
 20
105.3209561574
 11
57.6810842966
 21
105.3229363444
  0
LINE
  5
2D4
100
AcDbEntity
  8
0
100
AcDbLine
 62
7
  6
CONTINUOUS
 10
37.5810842448
 20
103.7445307514
 11
42.2810843619
 21
103.7445307514
  0
LINE
  5
2D5
100
AcDbEntity
  8
0
100
AcDbLine
 62
7
  6
CONTINUOUS
 10
42.9310842966
 20
103.7445307514
 11
65.7810842966
 21
103.7445307514
  0
LINE
  5
2D6
100
AcDbEntity
  8
0
100
AcDbLine
 62
7
  6
CONTINUOUS
 10
43.1310842966
 20
103.9445307514
 11
65.5810842966
 21
103.9445307514
  0
LINE
  5
2D7
100
AcDbEntity
  8
0
100
AcDbLine
 62
7
  6
CONTINUOUS
 10
57.7310842967
 20
105.1229363444
 11
59.0418707343
 21
105.1229363444
  0
LINE
  5
2D8
100
AcDbEntity
  8
0
100
AcDbLine
 62
7
  6
CONTINUOUS
 10
57.6810844306
 20
105.3229363444
 11
59.0810841627
 21
105.3229363444
  0
LINE
  5
2D9
100
AcDbEntity
  8
0
100
AcDbLine
 62
7
  6
CONTINUOUS
 10
69.8723487956
 20
106.5912060448
 11
68.6772213752
 21
106.5912060448
  0
LINE
  5
2DA
100
AcDbEntity
  8
0
100
AcDbLine
 62
7
  6
CONTINUOUS
 10
59.0922900334
 20
105.3216644827
 11
59.0810842966
 21
105.3229363444
  0
LINE
  5
2DB
100
AcDbEntity
  8
0
100
AcDbLine
 62
7
  6
CONTINUOUS
 10
87.1810842966
 20
61.7945307514
 11
87.1810842966
 21
34.5945307514
  0
LINE
  5
2DC
100
AcDbEntity
  8
0
100
AcDbLine
 62
7
  6
CONTINUOUS
 10
87.3810842966
 20
34.5945307514
 11
87.3810842966
 21
61.9945307514
  0
LINE
  5
2DD
100
AcDbEntity
  8
0
100
AcDbLine
 62
7
  6
CONTINUOUS
 10
90.5587019546
 20
39.0333708039
 11
90.5587019546
 21
34.5333708039
  0
LINE
  5
2DE
100
AcDbEntity
  8
0
100
AcDbLine
 62
7
  6
CONTINUOUS
 10
89.5587019546
 20
39.0333708039
 11
88.5587019546
 21
38.0333708039
  0
ARC
  5
2DF
100
AcDbEntity
  8
0
100
AcDbCircle
 62
7
  6
CONTINUOUS
 10
34.0535842966
 20
38.7028640847
 40
0.9483278412
100
AcDbArc
 50
253.300755769
 51
320.0977327023
  0
ARC
  5
2E0
100
AcDbEntity
  8
0
100
AcDbCircle
 62
7
  6
CONTINUOUS
 10
42.6810842966
 20
62.9945307514
 40
0.3
100
AcDbArc
 50
180.0
 51
270.0
  0
ARC
  5
2E1
100
AcDbEntity
  8
0
100
AcDbCircle
 62
7
  6
CONTINUOUS
 10
42.6810842966
 20
64.4945307514
 40
0.3
100
AcDbArc
 50
89.9999999996
 51
180.0
  0
ARC
  5
2E2
100
AcDbEntity
  8
0
100
AcDbCircle
 62
7
  6
CONTINUOUS
 10
12.3810842966
 20
58.3945307514
 40
0.2
100
AcDbArc
 50
90.0
 51
180.0
  0
ARC
  5
2E3
100
AcDbEntity
  8
0
100
AcDbCircle
 62
7
  6
CONTINUOUS
 10
45.5810842966
 20
94.7945307514
 40
0.5
100
AcDbArc
 50
0.0
 51
90.0
  0
ARC
  5
2E4
100
AcDbEntity
  8
0
100
AcDbCircle
 62
7
  6
CONTINUOUS
 10
40.5810842966
 20
94.7945307514
 40
0.5
100
AcDbArc
 50
90.0
 51
180.0
  0
ARC
  5
2E5
100
AcDbEntity
  8
0
100
AcDbCircle
 62
7
  6
CONTINUOUS
 10
40.5810842966
 20
89.7945307514
 40
0.5
100
AcDbArc
 50
180.0
 51
270.0
  0
ARC
  5
2E6
100
AcDbEntity
  8
0
100
AcDbCircle
 62
7
  6
CONTINUOUS
 10
45.5810842966
 20
89.7945307514
 40
0.5
100
AcDbArc
 50
270.0
 51
360.0
  0
ARC
  5
2E7
100
AcDbEntity
  8
0
100
AcDbCircle
 62
7
  6
CONTINUOUS
 10
36.7810842966
 20
95.3945307514
 40
0.2
100
AcDbArc
 50
0.0
 51
90.0
  0
ARC
  5
2E8
100
AcDbEntity
  8
0
100
AcDbCircle
 62
7
  6
CONTINUOUS
 10
29.1810842966
 20
95.3945307514
 40
0.2
100
AcDbArc
 50
90.0
 51
180.0
  0
ARC
  5
2E9
100
AcDbEntity
  8
0
100
AcDbCircle
 62
7
  6
CONTINUOUS
 10
20.7810842966
 20
76.8945307514
 40
0.2
100
AcDbArc
 50
90.0
 51
180.0
  0
ARC
  5
2EA
100
AcDbEntity
  8
0
100
AcDbCircle
 62
7
  6
CONTINUOUS
 10
37.1810842966
 20
102.7445307514
 40
0.2
100
AcDbArc
 50
90.0
 51
180.0
  0
ARC
  5
2EB
100
AcDbEntity
  8
0
100
AcDbCircle
 62
7
  6
CONTINUOUS
 10
43.1310842966
 20
103.7445307514
 40
0.2
100
AcDbArc
 50
90.0
 51
180.0
  0
ARC
  5
2EC
100
AcDbEntity
  8
0
100
AcDbCircle
 62
7
  6
CONTINUOUS
 10
62.8223487956
 20
65.7445307514
 40
3.05
100
AcDbArc
 50
270.0
 51
359.9999999999
  0
CIRCLE
  5
2ED
100
AcDbEntity
  8
0
100
AcDbCircle
 62
7
  6
CONTINUOUS
 10
63.1810842966
 20
65.9945307514
 40
1.1
  0
CIRCLE
  5
2EE
100
AcDbEntity
  8
0
100
AcDbCircle
 62
7
  6
CONTINUOUS
 10
63.1810842966
 20
65.9945307514
 40
1.0
  0
ARC
  5
2EF
100
AcDbEntity
  8
0
100
AcDbCircle
 62
7
  6
CONTINUOUS
 10
63.1810842966
 20
65.9945307514
 40
0.9
100
AcDbArc
 50
170.8668022161
 51
9.1331977839
  0
ARC
  5
2F0
100
AcDbEntity
  8
0
100
AcDbCircle
 62
7
  6
CONTINUOUS
 10
85.9810842966
 20
63.3945307514
 40
0.2
100
AcDbArc
 50
0.0
 51
90.0
  0
ARC
  5
2F1
100
AcDbEntity
  8
0
100
AcDbCircle
 62
7
  6
CONTINUOUS
 10
65.4587019546
 20
36.0347184738
 40
0.2
100
AcDbArc
 50
180.0
 51
233.7461622693
  0
ARC
  5
2F2
100
AcDbEntity
  8
0
100
AcDbCircle
 62
7
  6
CONTINUOUS
 10
67.8810842966
 20
69.2445307514
 40
0.2
100
AcDbArc
 50
0.0
 51
90.0
  0
ARC
  5
2F3
100
AcDbEntity
  8
0
100
AcDbCircle
 62
7
  6
CONTINUOUS
 10
65.6602388883
 20
81.6677790757
 40
3.0
100
AcDbArc
 50
123.7561699068
 51
192.6171951598
  0
ARC
  5
2F4
100
AcDbEntity
  8
0
100
AcDbCircle
 62
7
  6
CONTINUOUS
 10
66.7716755606
 20
91.5445307514
 40
0.5
100
AcDbArc
 50
0.0
 51
90.0
  0
ARC
  5
2F5
100
AcDbEntity
  8
0
100
AcDbCircle
 62
7
  6
CONTINUOUS
 10
66.7716755606
 20
90.0445307514
 40
0.5
100
AcDbArc
 50
270.0
 51
360.0
  0
ARC
  5
2F6
100
AcDbEntity
  8
0
100
AcDbCircle
 62
7
  6
CONTINUOUS
 10
66.5723487956
 20
90.0445307514
 40
0.5
100
AcDbArc
 50
260.3831454777
 51
269.9999999999
  0
ARC
  5
2F7
100
AcDbEntity
  8
0
100
AcDbCircle
 62
7
  6
CONTINUOUS
 10
66.0723487956
 20
91.5445307514
 40
0.5
100
AcDbArc
 50
90.0
 51
179.9999999986
  0
ARC
  5
2F8
100
AcDbEntity
  8
0
100
AcDbCircle
 62
7
  6
CONTINUOUS
 10
66.0723487956
 20
90.0445307514
 40
0.5
100
AcDbArc
 50
180.0000000014
 51
270.0
  0
ARC
  5
2F9
100
AcDbEntity
  8
0
100
AcDbCircle
 62
7
  6
CONTINUOUS
 10
66.5731125843
 20
91.5445307514
 40
0.5
100
AcDbArc
 50
348.2647413635
 51
90.0
  0
ARC
  5
2FA
100
AcDbEntity
  8
0
100
AcDbCircle
 62
7
  6
CONTINUOUS
 10
66.4242706075
 20
89.8445307514
 40
0.3
100
AcDbArc
 50
270.0
 51
349.2230957379
  0
ARC
  5
2FB
100
AcDbEntity
  8
0
100
AcDbCircle
 62
7
  6
CONTINUOUS
 10
65.5814548537
 20
93.7445307514
 40
0.2
100
AcDbArc
 50
90.0
 51
167.2424678379
  0
ARC
  5
2FC
100
AcDbEntity
  8
0
100
AcDbCircle
 62
7
  6
CONTINUOUS
 10
64.4720208914
 20
88.8445307514
 40
0.2
100
AcDbArc
 50
167.242467847
 51
270.0
  0
ARC
  5
2FD
100
AcDbEntity
  8
0
100
AcDbCircle
 62
7
  6
CONTINUOUS
 10
62.5504685731
 20
103.6942332686
 40
6.0
100
AcDbArc
 50
280.7351943108
 51
323.7217261722
  0
ARC
  5
2FE
100
AcDbEntity
  8
0
100
AcDbCircle
 62
7
  6
CONTINUOUS
 10
57.7310842966
 20
104.2899006301
 40
1.0330357143
100
AcDbArc
 50
89.9999033934
 51
133.6495853891
  0
ARC
  5
2FF
100
AcDbEntity
  8
0
100
AcDbCircle
 62
7
  6
CONTINUOUS
 10
59.0418707343
 20
104.3229363444
 40
1.0
100
AcDbArc
 50
44.9999999995
 51
90.0000000011
  0
ARC
  5
300
100
AcDbEntity
  8
0
100
AcDbCircle
 62
7
  6
CONTINUOUS
 10
63.8543596701
 20
96.816743319
 40
1.0
100
AcDbArc
 50
100.7351943104
 51
147.1886690218
  0
ARC
  5
301
100
AcDbEntity
  8
0
100
AcDbCircle
 62
7
  6
CONTINUOUS
 10
57.7310842966
 20
104.2899006301
 40
0.8330357143
100
AcDbArc
 50
89.9999999948
 51
109.2758756848
  0
ARC
  5
302
100
AcDbEntity
  8
0
100
AcDbCircle
 62
7
  6
CONTINUOUS
 10
59.0418707343
 20
104.3229363444
 40
0.8
100
AcDbArc
 50
44.9999999998
 51
90.0
  0
ARC
  5
303
100
AcDbEntity
  8
0
100
AcDbCircle
 62
7
  6
CONTINUOUS
 10
57.1560842966
 20
104.8926638517
 40
0.2
100
AcDbArc
 50
133.6494163973
 51
180.0
  0
ARC
  5
304
100
AcDbEntity
  8
0
100
AcDbCircle
 62
7
  6
CONTINUOUS
 10
59.9560842966
 20
104.5400936319
 40
0.2
100
AcDbArc
 50
0.0
 51
45.0000001425
  0
ARC
  5
305
100
AcDbEntity
  8
0
100
AcDbCircle
 62
7
  6
CONTINUOUS
 10
65.5810842966
 20
103.7445307514
 40
0.2
100
AcDbArc
 50
0.0
 51
90.0
  0
ARC
  5
306
100
AcDbEntity
  8
0
100
AcDbCircle
 62
7
  6
CONTINUOUS
 10
68.3723487956
 20
88.8928689134
 40
1.5
100
AcDbArc
 50
303.7561699021
 51
360.0
  0
ARC
  5
307
100
AcDbEntity
  8
0
100
AcDbCircle
 62
7
  6
CONTINUOUS
 10
72.6810842966
 20
87.8824701496
 40
1.5
100
AcDbArc
 50
0.0
 51
180.0
  0
ARC
  5
308
100
AcDbEntity
  8
0
100
AcDbCircle
 62
7
  6
CONTINUOUS
 10
68.8810842966
 20
86.0945307514
 40
0.5
100
AcDbArc
 50
90.0
 51
180.0
  0
ARC
  5
309
100
AcDbEntity
  8
0
100
AcDbCircle
 62
7
  6
CONTINUOUS
 10
76.4810842966
 20
86.0945307514
 40
0.5
100
AcDbArc
 50
0.0
 51
90.0
  0
ARC
  5
30A
100
AcDbEntity
  8
0
100
AcDbCircle
 62
7
  6
CONTINUOUS
 10
67.9216755606
 20
88.8445307514
 40
0.2
100
AcDbArc
 50
270.0
 51
360.0
  0
ARC
  5
30B
100
AcDbEntity
  8
0
100
AcDbCircle
 62
7
  6
CONTINUOUS
 10
67.9216755606
 20
93.7445307514
 40
0.2
100
AcDbArc
 50
0.0
 51
90.0
  0
ARC
  5
30C
100
AcDbEntity
  8
0
100
AcDbCircle
 62
7
  6
CONTINUOUS
 10
67.772367403
 20
100.3414429441
 40
0.4326661531
100
AcDbArc
 50
123.6900674462
 51
207.1529720811
  0
ARC
  5
30D
100
AcDbEntity
  8
0
100
AcDbCircle
 62
7
  6
CONTINUOUS
 10
67.9631763984
 20
101.3230701275
 40
0.4326661531
100
AcDbArc
 50
123.6900674302
 51
213.6900675261
  0
ARC
  5
30E
100
AcDbEntity
  8
0
100
AcDbCircle
 62
7
  6
CONTINUOUS
 10
68.1539853937
 20
102.304697311
 40
0.4326661531
100
AcDbArc
 50
123.6900676685
 51
213.6900675259
  0
ARC
  5
30F
100
AcDbEntity
  8
0
100
AcDbCircle
 62
7
  6
CONTINUOUS
 10
68.3447943891
 20
103.2863244944
 40
0.4326661531
100
AcDbArc
 50
123.6900674332
 51
213.6900675259
  0
ARC
  5
310
100
AcDbEntity
  8
0
100
AcDbCircle
 62
7
  6
CONTINUOUS
 10
68.5356033845
 20
104.2679516779
 40
0.4326661531
100
AcDbArc
 50
123.6900674317
 51
213.6900675261
  0
ARC
  5
311
100
AcDbEntity
  8
0
100
AcDbCircle
 62
7
  6
CONTINUOUS
 10
68.7264123799
 20
105.2495788613
 40
0.4326661531
100
AcDbArc
 50
123.6900674321
 51
213.6900675258
  0
ARC
  5
312
100
AcDbEntity
  8
0
100
AcDbCircle
 62
7
  6
CONTINUOUS
 10
68.9172213752
 20
106.2312060448
 40
0.4326661531
100
AcDbArc
 50
123.690067526
 51
213.6900675259
  0
ARC
  5
313
100
AcDbEntity
  8
0
100
AcDbCircle
 62
7
  6
CONTINUOUS
 10
67.3715640684
 20
100.9286619076
 40
0.2783633772
100
AcDbArc
 50
305.2871224184
 51
33.6900675263
  0
ARC
  5
314
100
AcDbEntity
  8
0
100
AcDbCircle
 62
7
  6
CONTINUOUS
 10
67.5623730638
 20
101.910289091
 40
0.2783633772
100
AcDbArc
 50
305.2871224434
 51
33.690067525
  0
ARC
  5
315
100
AcDbEntity
  8
0
100
AcDbCircle
 62
7
  6
CONTINUOUS
 10
67.7531820592
 20
102.8919162745
 40
0.2783633772
100
AcDbArc
 50
305.2871220703
 51
33.6900675261
  0
ARC
  5
316
100
AcDbEntity
  8
0
100
AcDbCircle
 62
7
  6
CONTINUOUS
 10
67.9439910545
 20
103.8735434579
 40
0.2783633772
100
AcDbArc
 50
305.2871224387
 51
33.6900675263
  0
ARC
  5
317
100
AcDbEntity
  8
0
100
AcDbCircle
 62
7
  6
CONTINUOUS
 10
68.1348000499
 20
104.8551706414
 40
0.2783633772
100
AcDbArc
 50
305.287122441
 51
33.6900675268
  0
ARC
  5
318
100
AcDbEntity
  8
0
100
AcDbCircle
 62
7
  6
CONTINUOUS
 10
68.3256090453
 20
105.8367978248
 40
0.2783633772
100
AcDbArc
 50
305.2871224404
 51
33.6900675262
  0
SPLINE
  5
319
100
AcDbEntity
  8
0
100
AcDbSpline
 62
7
  6
CONTINUOUS
 70
0
 71
3
 72
30
 73
26
 74
0
 42
0.0000001
 43
0.0000001
 44
0.0000000001
 40
0.0
 40
0.0
 40
0.0
 40
0.0
 40
0.0003580959
 40
0.0007952992
 40
0.0014038099
 40
0.0031323004
 40
0.0055386486
 40
0.0086179271
 40
0.0123652106
 40
0.0218441061
 40
0.0339299025
 40
0.0485371715
 40
0.0655647174
 40
0.0849118485
 40
0.1064784378
 40
0.130163167
 40
0.1834751411
 40
0.2440358075
 40
0.3110914328
 40
0.3839493483
 40
0.4619360459
 40
0.5443932372
 40
0.6306718189
 40
0.8120352108
 40
1.0
 40
1.0
 40
1.0
 40
1.0
 10
56.9560842966
 20
104.8926638679
 30
0.0
 10
56.956101662
 20
104.8927252911
 30
0.0
 10
56.9562794803
 20
104.8927571135
 30
0.0
 10
56.9564667423
 20
104.8929046494
 30
0.0
 10
56.9569101703
 20
104.8931416717
 30
0.0
 10
56.957630934
 20
104.8935724107
 30
0.0
 10
56.9587527719
 20
104.8942068365
 30
0.0
 10
56.9601811635
 20
104.8950220712
 30
0.0
 10
56.9627117225
 20
104.8964527392
 30
0.0
 10
56.9666448551
 20
104.8986628012
 30
0.0
 10
56.972277757
 20
104.9018004591
 30
0.0
 10
56.9791051041
 20
104.9055582858
 30
0.0
 10
56.9870936344
 20
104.909890533
 30
0.0
 10
56.996206863
 20
104.9147505004
 30
0.0
 10
57.0064082099
 20
104.9200912432
 30
0.0
 10
57.0220399953
 20
104.9281112508
 30
0.0
 10
57.0440106897
 20
104.9390007182
 30
0.0
 10
57.0731942794
 20
104.9527327445
 30
0.0
 10
57.105857939
 20
104.9672331918
 30
0.0
 10
57.1417172401
 20
104.9821666066
 30
0.0
 10
57.1804924256
 20
104.9972077196
 30
0.0
 10
57.2218774624
 20
105.0121004441
 30
0.0
 10
57.2811234055
 20
105.0317238215
 30
0.0
 10
57.3591814845
 20
105.0542692465
 30
0.0
 10
57.4232951259
 20
105.0693511878
 30
0.0
 10
57.4560848303
 20
105.0762362713
 30
0.0
  0
SPLINE
  5
31A
100
AcDbEntity
  8
0
100
AcDbSpline
 62
7
  6
CONTINUOUS
 70
0
 71
3
 72
30
 73
26
 74
0
 42
0.0000001
 43
0.0000001
 44
0.0000000001
 40
0.0
 40
0.0
 40
0.0
 40
0.0
 40
0.1817796537
 40
0.2713121285
 40
0.3590683075
 40
0.4444455758
 40
0.5268189473
 40
0.6054348603
 40
0.6794968293
 40
0.7481554808
 40
0.8105007277
 40
0.8655829706
 40
0.890071625
 40
0.9123461101
 40
0.9322812992
 40
0.9497974347
 40
0.9648286926
 40
0.9773095138
 40
0.9871721358
 40
0.9910919034
 40
0.9943177851
 40
0.9968348815
 40
0.9986283065
 40
0.9996840346
 40
1.0
 40
1.0
 40
1.0
 40
1.0
 10
59.6560843261
 20
104.8400936075
 30
0.0
 10
59.68624377
 20
104.8216876909
 30
0.0
 10
59.7315257113
 20
104.7946575255
 30
0.0
 10
59.7914624754
 20
104.7589025231
 30
0.0
 10
59.8352429109
 20
104.7326385225
 30
0.0
 10
59.8778118337
 20
104.707060178
 30
0.0
 10
59.9188679792
 20
104.6824135193
 30
0.0
 10
59.9580467431
 20
104.6589126544
 30
0.0
 10
59.9949415974
 20
104.6367864853
 30
0.0
 10
60.0291206693
 20
104.6162808234
 30
0.0
 10
60.0601253283
 20
104.5976547232
 30
0.0
 10
60.0837550109
 20
104.5834238275
 30
0.0
 10
60.1007295614
 20
104.5732390643
 30
0.0
 10
60.1118605807
 20
104.5665932247
 30
0.0
 10
60.1218513464
 20
104.5606811428
 30
0.0
 10
60.1306419191
 20
104.5555063504
 30
0.0
 10
60.1381808228
 20
104.5510586451
 30
0.0
 10
60.1444177024
 20
104.5473394998
 30
0.0
 10
60.1487679976
 20
104.5446547657
 30
0.0
 10
60.1515511491
 20
104.5428909318
 30
0.0
 10
60.1531507378
 20
104.5418632713
 30
0.0
 10
60.1543353538
 20
104.541107905
 30
0.0
 10
60.1553230128
 20
104.5404661335
 30
0.0
 10
60.1556670862
 20
104.5402897687
 30
0.0
 10
60.1560842966
 20
104.54003224
 30
0.0
 10
60.1560842966
 20
104.5400936538
 30
0.0
  0
SPLINE
  5
31B
100
AcDbEntity
  8
0
100
AcDbSpline
 62
7
  6
CONTINUOUS
 70
0
 71
3
 72
10
 73
6
 74
0
 42
0.0000001
 43
0.0000001
 44
0.0000000001
 40
0.0
 40
0.0
 40
0.0
 40
0.0
 40
0.0617509776
 40
0.6280188817
 40
1.0
 40
1.0
 40
1.0
 40
1.0
 10
63.0138999668
 20
97.35861791
 30
0.0
 10
62.6997709415
 20
96.8722147578
 30
0.0
 10
59.4985683524
 20
91.9287836209
 30
0.0
 10
54.401265258
 20
84.0573146558
 30
0.0
 10
50.961818528
 20
75.9685364217
 30
0.0
 10
49.5982048068
 20
72.7616343082
 30
0.0
  0
SPLINE
  5
31C
100
AcDbEntity
  8
0
100
AcDbSpline
 62
7
  6
CONTINUOUS
 70
0
 71
3
 72
9
 73
5
 74
0
 42
0.0000001
 43
0.0000001
 44
0.0000000001
 40
0.0
 40
0.0
 40
0.0
 40
0.0
 40
0.4999034549
 40
1.0
 40
1.0
 40
1.0
 40
1.0
 10
66.9880073421
 20
69.4445307514
 30
0.0
 10
66.9416304625
 20
69.4445307514
 30
0.0
 10
66.8456828987
 20
69.4098640558
 30
0.0
 10
66.7972536155
 20
69.3201109127
 30
0.0
 10
66.7903483712
 20
69.2742328742
 30
0.0
  0
SPLINE
  5
31D
100
AcDbEntity
  8
0
100
AcDbSpline
 62
7
  6
CONTINUOUS
 70
0
 71
3
 72
12
 73
8
 74
0
 42
0.0000001
 43
0.0000001
 44
0.0000000001
 40
0.0
 40
0.0
 40
0.0
 40
0.0
 40
0.1427594444
 40
0.2778212143
 40
0.5249519335
 40
0.762208242
 40
1.0
 40
1.0
 40
1.0
 40
1.0
 10
64.0696740989
 20
66.1373878942
 30
0.0
 10
64.0784021998
 20
66.1373878942
 30
0.0
 10
64.095605453
 20
66.1406496338
 30
0.0
 10
64.1230892137
 20
66.1584688695
 30
0.0
 10
64.1431393685
 20
66.1927666207
 30
0.0
 10
64.1485353975
 20
66.2372992195
 30
0.0
 10
64.1435529258
 20
66.26631283
 30
0.0
 10
64.1393991441
 20
66.2802450371
 30
0.0
  0
SPLINE
  5
31E
100
AcDbEntity
  8
0
100
AcDbSpline
 62
7
  6
CONTINUOUS
 70
0
 71
3
 72
12
 73
8
 74
0
 42
0.0000001
 43
0.0000001
 44
0.0000000001
 40
0.0
 40
0.0
 40
0.0
 40
0.0
 40
0.1427592499
 40
0.2778215534
 40
0.5249522289
 40
0.7622085007
 40
1.0
 40
1.0
 40
1.0
 40
1.0
 10
62.2924944944
 20
66.1373878942
 30
0.0
 10
62.2837664054
 20
66.1373878942
 30
0.0
 10
62.2665631465
 20
66.1406496785
 30
0.0
 10
62.2390793229
 20
66.1584688525
 30
0.0
 10
62.2190292121
 20
66.1927666851
 30
0.0
 10
62.2136331997
 20
66.2372992514
 30
0.0
 10
62.2186156721
 20
66.2663128451
 30
0.0
 10
62.2227694491
 20
66.2802450371
 30
0.0
  0
SPLINE
  5
31F
100
AcDbEntity
  8
0
100
AcDbSpline
 62
7
  6
CONTINUOUS
 70
0
 71
3
 72
16
 73
12
 74
0
 42
0.0000001
 43
0.0000001
 44
0.0000000001
 40
0.0
 40
0.0
 40
0.0
 40
0.0
 40
0.3860680179
 40
0.5602102304
 40
0.7123562585
 40
0.8367692058
 40
0.9285227001
 40
0.9607176826
 40
0.9834003364
 40
0.9964464274
 40
1.0
 40
1.0
 40
1.0
 40
1.0
 10
66.5810842966
 20
66.5317104485
 30
0.0
 10
66.5553544844
 20
66.5338956056
 30
0.0
 10
66.5179890785
 20
66.5368539964
 30
0.0
 10
66.4704464257
 20
66.5396774169
 30
0.0
 10
66.44031275
 20
66.5415839107
 30
0.0
 10
66.4159214355
 20
66.5440503713
 30
0.0
 10
66.3991556501
 20
66.5459856196
 30
0.0
 10
66.3897549391
 20
66.5469244348
 30
0.0
 10
66.3846225498
 20
66.5470659608
 30
0.0
 10
66.3829871527
 20
66.5472660326
 30
0.0
 10
66.3809584833
 20
66.5469633642
 30
0.0
 10
66.3811147584
 20
66.5467842792
 30
0.0
  0
SPLINE
  5
320
100
AcDbEntity
  8
0
100
AcDbSpline
 62
7
  6
CONTINUOUS
 70
0
 71
3
 72
10
 73
6
 74
0
 42
0.0000001
 43
0.0000001
 44
0.0000000001
 40
0.0
 40
0.0
 40
0.0
 40
0.0
 40
0.2346063783
 40
0.4830292235
 40
1.0
 40
1.0
 40
1.0
 40
1.0
 10
43.6827528193
 20
102.9445307514
 30
0.0
 10
43.7435627189
 20
102.9445307514
 30
0.0
 10
43.8685428219
 20
102.926854872
 30
0.0
 10
44.1188307356
 20
102.8593028661
 30
0.0
 10
44.3052144701
 20
102.7904919136
 30
0.0
 10
44.4310842966
 20
102.7445307514
 30
0.0
  0
SPLINE
  5
321
100
AcDbEntity
  8
0
100
AcDbSpline
 62
7
  6
CONTINUOUS
 70
0
 71
3
 72
38
 73
34
 74
0
 42
0.0000001
 43
0.0000001
 44
0.0000000001
 40
0.0
 40
0.0
 40
0.0
 40
0.0
 40
0.0312504794
 40
0.06249825
 40
0.093743972
 40
0.1250036064
 40
0.1562535975
 40
0.1718727262
 40
0.1874991455
 40
0.2031311246
 40
0.2187597672
 40
0.2500062142
 40
0.312503973
 40
0.3437527977
 40
0.3593782118
 40
0.3750035719
 40
0.3906285952
 40
0.4062578827
 40
0.42188718
 40
0.437510949
 40
0.4687613244
 40
0.4843891407
 40
0.5000141057
 40
0.5312614042
 40
0.5625107192
 40
0.5937603866
 40
0.6250094755
 40
0.6875078144
 40
0.7500062545
 40
0.8125046361
 40
0.8750031267
 40
0.9375015306
 40
1.0
 40
1.0
 40
1.0
 40
1.0
 10
38.4810842836
 20
96.294530353
 30
0.0
 10
38.4660760633
 20
96.0529187691
 30
0.0
 10
38.4360757589
 20
95.5697149339
 30
0.0
 10
38.3962459687
 20
94.8446217307
 30
0.0
 10
38.3646671984
 20
94.1190497292
 30
0.0
 10
38.3282054956
 20
93.3937281775
 30
0.0
 10
38.2790597988
 20
92.7901670158
 30
0.0
 10
38.2131882739
 20
92.3104464112
 30
0.0
 10
38.1533215234
 20
91.9522575182
 30
0.0
 10
38.0876134778
 20
91.5950415238
 30
0.0
 10
37.9980137991
 20
91.1192049127
 30
0.0
 10
37.840904314
 20
90.2866337923
 30
0.0
 10
37.6831502271
 20
89.3312618428
 30
0.0
 10
37.5432708201
 20
88.4956646229
 30
0.0
 10
37.4630938535
 20
88.0182051469
 30
0.0
 10
37.404490317
 20
87.6598448894
 30
0.0
 10
37.3516143696
 20
87.3005386766
 30
0.0
 10
37.3084206748
 20
86.9398866319
 30
0.0
 10
37.276354563
 20
86.5780731095
 30
0.0
 10
37.2506970065
 20
86.0944605357
 30
0.0
 10
37.2490069506
 20
85.6101551086
 30
0.0
 10
37.2472929403
 20
85.1260092953
 30
0.0
 10
37.2426683968
 20
84.6418753087
 30
0.0
 10
37.2330620867
 20
84.0367911324
 30
0.0
 10
37.217233227
 20
83.310770168
 30
0.0
 10
37.2019942422
 20
82.5847243255
 30
0.0
 10
37.1845974984
 20
81.6166068846
 30
0.0
 10
37.1686811432
 20
80.4063699089
 30
0.0
 10
37.1557998365
 20
78.9540177996
 30
0.0
 10
37.1510061754
 20
77.5016136513
 30
0.0
 10
37.153150172
 20
76.0492050333
 30
0.0
 10
37.1628303216
 20
74.5968246632
 30
0.0
 10
37.1744346726
 20
73.6286203368
 30
0.0
 10
37.1810842966
 20
73.1445307514
 30
0.0
  0
SPLINE
  5
322
100
AcDbEntity
  8
0
100
AcDbSpline
 62
7
  6
CONTINUOUS
 70
0
 71
3
 72
8
 73
4
 74
0
 42
0.0000001
 43
0.0000001
 44
0.0000000001
 40
0.0
 40
0.0
 40
0.0
 40
0.0
 40
1.0
 40
1.0
 40
1.0
 40
1.0
 10
65.581081402
 20
73.1445307514
 30
0.0
 10
65.581081402
 20
77.1631326786
 30
0.0
 10
65.5807075495
 20
81.1817346324
 30
0.0
 10
65.5811718521
 20
85.2003365328
 30
0.0
  0
SPLINE
  5
323
100
AcDbEntity
  8
0
100
AcDbSpline
 62
7
  6
CONTINUOUS
 70
0
 71
3
 72
9
 73
5
 74
0
 42
0.0000001
 43
0.0000001
 44
0.0000000001
 40
0.0
 40
0.0
 40
0.0
 40
0.0
 40
0.2501671473
 40
1.0
 40
1.0
 40
1.0
 40
1.0
 10
65.2364743582
 20
88.6455639988
 30
0.0
 10
65.1918964538
 20
88.8280130628
 30
0.0
 10
65.004405976
 20
89.5550329672
 30
0.0
 10
64.7974633358
 20
90.2769013845
 30
0.0
 10
64.6604867351
 20
90.8229285545
 30
0.0
  0
ENDSEC
  0
SECTION
  2
OBJECTS
  0
DICTIONARY
  5
C
100
AcDbDictionary
280
0
281
1
  3
ACAD_GROUP
350
D
  3
ACAD_MLINESTYLE
350
17
  3
ACAD_LAYOUT
350
1A
  3
ACAD_PLOTSETTINGS
350
19
  3
ACAD_PLOTSTYLENAME
350
E
  0
DICTIONARY
  5
D
102
{ACAD_REACTORS
330
C
102
}
100
AcDbDictionary
280
0
281
1
  0
ACDBDICTIONARYWDFLT
  5
E
102
{ACAD_REACTORS
330
C
102
}
100
AcDbDictionary
281
1
  3
Normal
350
F
100
AcDbDictionaryWithDefault
340
F
  0
DICTIONARY
  5
17
102
{ACAD_REACTORS
330
C
102
}
100
AcDbDictionary
280
0
281
1
  3
Standard
350
18
  0
DICTIONARY
  5
19
102
{ACAD_REACTORS
330
C
102
}
100
AcDbDictionary
281
1
  0
DICTIONARY
  5
1A
102
{ACAD_REACTORS
330
C
102
}
100
AcDbDictionary
281
1
  3
Model
350
324
  3
Layout1
350
325
  0
ACDBPLACEHOLDER
  5
F
102
{ACAD_REACTORS
330
E
102
}
  0
MLINESTYLE
  5
18
102
{ACAD_REACTORS
330
17
102
}
100
AcDbMlineStyle
  2
STANDARD
 70
0
  3

 62
256
 51
90.0
 52
90.0
 71
2
 49
0.5
 62
256
  6
BYLAYER
 49
-0.5
 62
256
  6
BYLAYER
  0
LAYOUT
  5
324
102
{ACAD_REACTORS
330
1A
102
}
100
AcDbPlotSettings
  1

  2
none_device
  4

  6

 40
0.0
 41
0.0
 42
0.0
 43
0.0
 44
210.0
 45
297.0
 46
0.0
 47
0.0
 48
0.0
 49
0.0
140
0.0
141
0.0
142
1.0
143
1.0
 70
1024
 72
1
 73
0
 74
0
  7

 75
0
147
1.0
148
0.0
149
0.0
100
AcDbLayout
  1
Model
 70
0
 71
0
 10
0.0
 20
0.0
 11
210.0
 21
297.0
 12
0.0
 22
0.0
 32
0.0
 14
0.0
 24
0.0
 34
0.0
 15
0.0
 25
0.0
 35
0.0
146
0.0
 13
0.0
 23
0.0
 33
0.0
 16
1.0
 26
0.0
 36
0.0
 17
0.0
 27
1.0
 37
0.0
 76
0
330
210
345
0
346
0
  0
LAYOUT
  5
325
102
{ACAD_REACTORS
330
1A
102
}
100
AcDbPlotSettings
  1

  2
none_device
  4

  6

 40
0.0
 41
0.0
 42
0.0
 43
0.0
 44
210.0
 45
297.0
 46
0.0
 47
0.0
 48
0.0
 49
0.0
140
0.0
141
0.0
142
1.0
143
1.0
 70
0
 72
1
 73
0
 74
0
  7

 75
0
147
1.0
148
0.0
149
0.0
100
AcDbLayout
  1
Layout1
 70
0
 71
1
 10
0.0
 20
0.0
 11
210.0
 21
297.0
 12
0.0
 22
0.0
 32
0.0
 14
0.0
 24
0.0
 34
0.0
 15
0.0
 25
0.0
 35
0.0
146
0.0
 13
0.0
 23
0.0
 33
0.0
 16
1.0
 26
0.0
 36
0.0
 17
0.0
 27
1.0
 37
0.0
 76
0
330
211
345
0
346
0
  0
ENDSEC
  0
EOF
