999
DXF file: C:\Gen2D\CAD\LC1D098BD_3D-CAD\drw0001_6.dxf
999
Pro/ENGINEER 2019471 by Parametric Technology Corporation
  0
SECTION
  2
HEADER
  9
$ACADVER
  1
AC1024
  9
$DWGCODEPAGE
  3
ANSI_1252
  9
$EXTMAX
 10
127.4831485116
 20
180.2975957521
 30
0.0
  9
$EXTMIN
 10
0.0
 20
0.0
 30
0.0
  9
$LIMMIN
 10
0.0
 20
0.0
  9
$LIMMAX
 10
127.4831485116
 20
180.2975957521
  9
$VIEWCTR
 10
63.7415742558
 20
90.1487978761
  9
$VIEWSIZE
 40
180.2975957521
  9
$CLAYER
  8
0
  9
$LTSCALE
 40
11.7527321675
  9
$CELTYPE
  6
BYLAYER
  9
$DIMSCALE
 40
1.0
  9
$DIMASZ
 40
1.5176565299
  9
$DIMEXO
 40
1.0
  9
$DIMDLI
 40
8.1200694976
  9
$DIMEXE
 40
1.0
  9
$DIMCEN
 40
1.9231743547
  9
$DIMLFAC
 40
1.0
  9
$DIMBLK
  1
_FILLED
  9
$DIMALT
 70
0
  9
$DIMALTF
 40
0.0393700787
  9
$DIMTXT
 40
2.1247191419
  9
$DIMTOL
 70
1
  9
$DIMLIM
 70
0
  9
$DIMTFAC
 40
1.0
  9
$DIMTP
 40
0.01
  9
$DIMTM
 40
0.01
  9
$DIMGAP
 40
0.625
  9
$DIMDSEP
 70
46
  9
$AUNITS
 70
0
  9
$PDMODE
 70
3
  9
$PDSIZE
 40
0.3125
  9
$HANDSEED
  5
2B0
  9
$TILEMODE
 70
1
  9
$MEASUREMENT
 70
1
  9
$INSUNITS
 70
4
  0
ENDSEC
  0
SECTION
  2
CLASSES
  0
CLASS
  1
ACDBDICTIONARYWDFLT
  2
AcDbDictionaryWithDefault
  3
AutoCAD 2000
 90
0
 91
1
280
0
281
0
  0
CLASS
  1
ACDBPLACEHOLDER
  2
AcDbPlaceHolder
  3
AutoCAD 2000
 90
0
 91
1
280
0
281
0
  0
CLASS
  1
LAYOUT
  2
AcDbLayout
  3
AutoCAD 2000
 90
0
 91
0
280
0
281
0
  0
ENDSEC
  0
SECTION
  2
TABLES
  0
TABLE
  2
VPORT
  5
8
100
AcDbSymbolTable
 70
2
  0
VPORT
  5
1F4
100
AcDbSymbolTableRecord
100
AcDbViewportTableRecord
  2
*ACTIVE
 70
0
 10
0.0
 20
0.0
 11
1.0
 21
1.0
 12
63.7415742558
 22
90.1487978761
 13
0.0
 23
0.0
 14
1.0
 24
1.0
 15
0.0
 25
0.0
 16
0.0
 26
0.0
 36
1.0
 17
0.0
 27
0.0
 37
0.0
 40
180.2975957521
 41
0.7070707071
 42
50.0
 43
0.0
 44
0.0
 50
0.0
 51
0.0
 71
0
 72
100
 73
1
 74
1
 75
0
 76
0
 77
0
 78
0
  0
ENDTAB
  0
TABLE
  2
LTYPE
  5
5
100
AcDbSymbolTable
 70
6
  0
LTYPE
  5
14
100
AcDbSymbolTableRecord
100
AcDbLinetypeTableRecord
  2
BYBLOCK
 70
0
  3

 72
65
 73
0
 40
0.0
  0
LTYPE
  5
15
100
AcDbSymbolTableRecord
100
AcDbLinetypeTableRecord
  2
BYLAYER
 70
0
  3

 72
65
 73
0
 40
0.0
  0
LTYPE
  5
16
100
AcDbSymbolTableRecord
100
AcDbLinetypeTableRecord
  2
CONTINUOUS
 70
64
  3
Solid line
 72
65
 73
0
 40
0.0
  0
LTYPE
  5
1F5
100
AcDbSymbolTableRecord
100
AcDbLinetypeTableRecord
  2
CENTER
 70
64
  3
____ _ ____ _ ____ _ ____ _ ____ _ ____ _ ____
 72
65
 73
4
 40
0.6
 49
0.375
 74
0
 49
-0.075
 74
0
 49
0.075
 74
0
 49
-0.075
 74
0
  0
LTYPE
  5
1F6
100
AcDbSymbolTableRecord
100
AcDbLinetypeTableRecord
  2
HIDDEN
 70
64
  3
- - - - - - - - - - - - - - - - - - - -
 72
65
 73
2
 40
0.2
 49
0.1
 74
0
 49
-0.1
 74
0
  0
LTYPE
  5
1F7
100
AcDbSymbolTableRecord
100
AcDbLinetypeTableRecord
  2
PHANTOM
 70
64
  3
_____ _ _ _____ _ _ _____ _ _ _____
 72
65
 73
6
 40
0.8
 49
0.45
 74
0
 49
-0.05
 74
0
 49
0.1
 74
0
 49
-0.05
 74
0
 49
0.1
 74
0
 49
-0.05
 74
0
  0
LTYPE
  5
1F8
100
AcDbSymbolTableRecord
100
AcDbLinetypeTableRecord
  2
DOT
 70
64
  3
. . . . . . . . . . . . . . . . . . . .
 72
65
 73
2
 40
0.2
 49
0.1
 74
0
 49
-0.1
 74
0
  0
LTYPE
  5
1F9
100
AcDbSymbolTableRecord
100
AcDbLinetypeTableRecord
  2
DASHED
 70
64
  3
- - - - - - - - - - - - - - - - - - - -
 72
65
 73
2
 40
0.2
 49
0.1
 74
0
 49
-0.1
 74
0
  0
ENDTAB
  0
TABLE
  2
LAYER
  5
2
100
AcDbSymbolTable
 70
36
  0
LAYER
  5
10
100
AcDbSymbolTableRecord
100
AcDbLayerTableRecord
  2
0
 70
0
 62
7
  6
CONTINUOUS
370
-3
390
F
  0
LAYER
  5
1FA
100
AcDbSymbolTableRecord
100
AcDbLayerTableRecord
  2
DEFAULT_1
 70
0
 62
7
  6
CENTER
370
-3
390
F
  0
LAYER
  5
1FB
100
AcDbSymbolTableRecord
100
AcDbLayerTableRecord
  2
DEFAULT_2
 70
0
 62
8
  6
HIDDEN
370
-3
390
F
  0
LAYER
  5
1FC
100
AcDbSymbolTableRecord
100
AcDbLayerTableRecord
  2
DEFAULT_3
 70
0
 62
7
  6
PHANTOM
370
-3
390
F
  0
LAYER
  5
1FD
100
AcDbSymbolTableRecord
100
AcDbLayerTableRecord
  2
00_COMPONENTS
 70
0
 62
7
  6
CONTINUOUS
370
-3
390
F
  0
LAYER
  5
1FE
100
AcDbSymbolTableRecord
100
AcDbLayerTableRecord
  2
01_1_DEFAULT_DATUMS
 70
0
 62
7
  6
CONTINUOUS
370
-3
390
F
  0
LAYER
  5
1FF
100
AcDbSymbolTableRecord
100
AcDbLayerTableRecord
  2
01_PLANES
 70
0
 62
7
  6
CONTINUOUS
370
-3
390
F
  0
LAYER
  5
200
100
AcDbSymbolTableRecord
100
AcDbLayerTableRecord
  2
02_COORD_SYS
 70
0
 62
7
  6
CONTINUOUS
370
-3
390
F
  0
LAYER
  5
201
100
AcDbSymbolTableRecord
100
AcDbLayerTableRecord
  2
03_AXES
 70
0
 62
7
  6
CONTINUOUS
370
-3
390
F
  0
LAYER
  5
202
100
AcDbSymbolTableRecord
100
AcDbLayerTableRecord
  2
04_POINTS
 70
0
 62
7
  6
CONTINUOUS
370
-3
390
F
  0
LAYER
  5
203
100
AcDbSymbolTableRecord
100
AcDbLayerTableRecord
  2
05_CURVES
 70
0
 62
7
  6
CONTINUOUS
370
-3
390
F
  0
LAYER
  5
204
100
AcDbSymbolTableRecord
100
AcDbLayerTableRecord
  2
06_SURFS
 70
0
 62
7
  6
CONTINUOUS
370
-3
390
F
  0
LAYER
  5
205
100
AcDbSymbolTableRecord
100
AcDbLayerTableRecord
  2
07_COSMETICS
 70
0
 62
7
  6
CONTINUOUS
370
-3
390
F
  0
LAYER
  5
206
100
AcDbSymbolTableRecord
100
AcDbLayerTableRecord
  2
10_NOTES
 70
0
 62
7
  6
CONTINUOUS
370
-3
390
F
  0
LAYER
  5
207
100
AcDbSymbolTableRecord
100
AcDbLayerTableRecord
  2
11_NOTES_PUB
 70
0
 62
7
  6
CONTINUOUS
370
-3
390
F
  0
LAYER
  5
208
100
AcDbSymbolTableRecord
100
AcDbLayerTableRecord
  2
13_REF_GTOL
 70
0
 62
7
  6
CONTINUOUS
370
-3
390
F
  0
LAYER
  5
209
100
AcDbSymbolTableRecord
100
AcDbLayerTableRecord
  2
16_MISC
 70
0
 62
7
  6
CONTINUOUS
370
-3
390
F
  0
LAYER
  5
20A
100
AcDbSymbolTableRecord
100
AcDbLayerTableRecord
  2
17_NO_PRINT
 70
0
 62
7
  6
CONTINUOUS
370
-3
390
F
  0
LAYER
  5
20B
100
AcDbSymbolTableRecord
100
AcDbLayerTableRecord
  2
18_DATUM_CAMS_JOINTS
 70
0
 62
7
  6
CONTINUOUS
370
-3
390
F
  0
LAYER
  5
20C
100
AcDbSymbolTableRecord
100
AcDbLayerTableRecord
  2
19_DATUM_FUNCTIONAL
 70
0
 62
7
  6
CONTINUOUS
370
-3
390
F
  0
LAYER
  5
20D
100
AcDbSymbolTableRecord
100
AcDbLayerTableRecord
  2
20_DATUM_KINEMATIC_SCHEME
 70
0
 62
7
  6
CONTINUOUS
370
-3
390
F
  0
LAYER
  5
20E
100
AcDbSymbolTableRecord
100
AcDbLayerTableRecord
  2
INTFCLR_65
 70
0
 62
7
  6
CONTINUOUS
370
-3
390
F
  0
LAYER
  5
20F
100
AcDbSymbolTableRecord
100
AcDbLayerTableRecord
  2
INTFCLR_74
 70
0
 62
7
  6
CONTINUOUS
370
-3
390
F
  0
LAYER
  5
210
100
AcDbSymbolTableRecord
100
AcDbLayerTableRecord
  2
INTFCLR_76
 70
0
 62
7
  6
CONTINUOUS
370
-3
390
F
  0
ENDTAB
  0
TABLE
  2
STYLE
  5
3
100
AcDbSymbolTable
 70
1
  0
STYLE
  5
11
100
AcDbSymbolTableRecord
100
AcDbTextStyleTableRecord
  2
STANDARD
 70
0
 40
0.0
 41
0.8
 50
0.0
 71
0
 42
0.2
  3
txt
  4

  0
STYLE
  5
211
100
AcDbSymbolTableRecord
100
AcDbTextStyleTableRecord
  2
TEXTSTYLE_1
 70
0
 40
0.0
 41
0.8
 50
0.0
 71
0
 42
0.2
  3
gdt
  4

  0
ENDTAB
  0
TABLE
  2
VIEW
  5
6
100
AcDbSymbolTable
 70
0
  0
ENDTAB
  0
TABLE
  2
UCS
  5
7
100
AcDbSymbolTable
 70
0
  0
ENDTAB
  0
TABLE
  2
APPID
  5
9
100
AcDbSymbolTable
 70
1
  0
APPID
  5
212
100
AcDbSymbolTableRecord
100
AcDbRegAppTableRecord
  2
ACAD
 70
0
  0
ENDTAB
  0
TABLE
  2
BLOCK_RECORD
  5
1
100
AcDbSymbolTable
 70
0
  0
BLOCK_RECORD
  5
213
100
AcDbSymbolTableRecord
100
AcDbBlockTableRecord
  2
*Model_Space
  0
BLOCK_RECORD
  5
214
100
AcDbSymbolTableRecord
100
AcDbBlockTableRecord
  2
*Paper_Space
  0
BLOCK_RECORD
  5
215
100
AcDbSymbolTableRecord
100
AcDbBlockTableRecord
  2
_FILLED
  0
ENDTAB
  0
TABLE
  2
DIMSTYLE
  5
A
100
AcDbSymbolTable
 70
1
100
AcDbDimStyleTable
 71
0
  0
DIMSTYLE
105
216
100
AcDbSymbolTableRecord
100
AcDbDimStyleTableRecord
  2
STANDARD
 70
0
  3

  4

 40
1.0
 41
1.5176565299
 42
1.0
 43
0.38
 44
1.0
 45
0.0
 46
0.0
 47
0.01
 48
0.01
140
2.1247191419
141
0.09
142
0.0
143
25.4
144
1.0
145
0.0
146
1.0
147
0.625
 71
1
 72
0
 73
0
 74
0
 75
0
 76
0
 77
1
 78
8
 79
2
170
0
171
1
172
0
173
0
174
0
175
0
176
0
177
0
178
0
270
2
179
2
271
2
272
2
273
2
274
2
275
0
280
0
281
0
282
0
283
1
284
8
285
0
286
0
287
3
288
0
340
11
278
46
341
215
342
215
343
215
344
215
  0
ENDTAB
  0
ENDSEC
  0
SECTION
  2
BLOCKS
  0
BLOCK
  5
20
100
AcDbEntity
  8
0
100
AcDbBlockBegin
  2
*Model_Space
 70
0
 10
0.0
 20
0.0
 30
0.0
  3
*Model_Space
  1

  0
ENDBLK
  5
21
100
AcDbEntity
  8
0
100
AcDbBlockEnd
  0
BLOCK
  5
1C
100
AcDbEntity
  8
0
100
AcDbBlockBegin
  2
*Paper_Space
 70
0
 10
0.0
 20
0.0
 30
0.0
  3
*Paper_Space
  1

  0
ENDBLK
  5
1D
100
AcDbEntity
  8
0
100
AcDbBlockEnd
  0
BLOCK
  5
217
100
AcDbEntity
  8
0
100
AcDbBlockBegin
  2
_FILLED
 70
64
 10
0.0
 20
0.0
  3
_FILLED
  1

  0
SOLID
  5
218
100
AcDbEntity
  8
0
  6
BYBLOCK
 62
0
100
AcDbTrace
 10
0.0
 20
0.0
 11
-1.0
 21
0.25
 12
-1.0
 22
-0.25
 13
-1.0
 23
-0.25
  0
ENDBLK
  5
219
100
AcDbEntity
  8
0
  6
BYBLOCK
 62
0
100
AcDbBlockEnd
  0
ENDSEC
  0
SECTION
  2
ENTITIES
  0
LINE
  5
21A
100
AcDbEntity
  8
0
100
AcDbLine
 62
7
  6
CONTINUOUS
 10
14.4190373518
 20
104.6463369544
 11
14.4199290315
 21
75.5450432978
  0
LINE
  5
21B
100
AcDbEntity
  8
0
100
AcDbLine
 62
7
  6
CONTINUOUS
 10
20.8199290285
 20
75.5452393968
 11
20.8190373488
 21
104.6465330545
  0
LINE
  5
21C
100
AcDbEntity
  8
0
100
AcDbLine
 62
7
  6
CONTINUOUS
 10
20.9190311513
 20
104.848797878
 11
20.9199319835
 21
75.448797878
  0
LINE
  5
21D
100
AcDbEntity
  8
INTFCLR_74
100
AcDbLine
 62
7
420
48875
  6
CONTINUOUS
 10
20.9207807269
 20
47.748797878
 11
20.9199319835
 21
75.448797878
  0
LINE
  5
21E
100
AcDbEntity
  8
INTFCLR_74
100
AcDbLine
 62
7
420
48875
  6
CONTINUOUS
 10
20.9190311513
 20
104.848797878
 11
20.9181824079
 21
132.548797878
  0
LINE
  5
21F
100
AcDbEntity
  8
0
100
AcDbLine
 62
7
  6
CONTINUOUS
 10
21.118182408
 20
64.348797878
 11
21.118182408
 21
75.448797878
  0
LINE
  5
220
100
AcDbEntity
  8
0
100
AcDbLine
 62
7
  6
CONTINUOUS
 10
21.118182408
 20
104.848797878
 11
21.118182408
 21
115.948797878
  0
LINE
  5
221
100
AcDbEntity
  8
0
100
AcDbLine
 62
7
  6
CONTINUOUS
 10
22.918182408
 20
115.948797878
 11
22.918182408
 21
104.848797878
  0
LINE
  5
222
100
AcDbEntity
  8
0
100
AcDbLine
 62
7
  6
CONTINUOUS
 10
22.918182408
 20
75.448797878
 11
22.918182408
 21
64.348797878
  0
LINE
  5
223
100
AcDbEntity
  8
0
100
AcDbLine
 62
7
  6
CONTINUOUS
 10
23.918182408
 20
115.948797878
 11
23.918182408
 21
114.548797878
  0
LINE
  5
224
100
AcDbEntity
  8
0
100
AcDbLine
 62
7
  6
CONTINUOUS
 10
23.918182408
 20
64.348797878
 11
23.918182408
 21
65.748797878
  0
LINE
  5
225
100
AcDbEntity
  8
0
100
AcDbLine
 62
7
  6
CONTINUOUS
 10
23.9597600602
 20
64.348797878
 11
23.9597600602
 21
65.348797878
  0
LINE
  5
226
100
AcDbEntity
  8
0
100
AcDbLine
 62
7
  6
CONTINUOUS
 10
23.9597600602
 20
114.948797878
 11
23.9597600602
 21
115.948797878
  0
LINE
  5
227
100
AcDbEntity
  8
0
100
AcDbLine
 62
7
  6
CONTINUOUS
 10
69.1075649695
 20
48.5575787206
 11
66.6747287342
 21
48.1285271912
  0
LINE
  5
228
100
AcDbEntity
  8
INTFCLR_74
100
AcDbLine
 62
7
420
48875
  6
CONTINUOUS
 10
35.618182408
 20
47.748797878
 11
20.9207807269
 21
47.748797878
  0
LINE
  5
229
100
AcDbEntity
  8
0
100
AcDbLine
 62
7
  6
CONTINUOUS
 10
35.618182408
 20
47.748797878
 11
62.3335242926
 21
47.748797878
  0
LINE
  5
22A
100
AcDbEntity
  8
0
100
AcDbLine
 62
7
  6
CONTINUOUS
 10
27.918182408
 20
65.748797878
 11
27.918182408
 21
64.348797878
  0
LINE
  5
22B
100
AcDbEntity
  8
0
100
AcDbLine
 62
7
  6
CONTINUOUS
 10
27.918182408
 20
114.548797878
 11
27.918182408
 21
115.948797878
  0
LINE
  5
22C
100
AcDbEntity
  8
0
100
AcDbLine
 62
7
  6
CONTINUOUS
 10
28.418182408
 20
115.948797878
 11
28.418182408
 21
114.548797878
  0
LINE
  5
22D
100
AcDbEntity
  8
0
100
AcDbLine
 62
7
  6
CONTINUOUS
 10
28.418182408
 20
64.348797878
 11
28.418182408
 21
65.748797878
  0
LINE
  5
22E
100
AcDbEntity
  8
0
100
AcDbLine
 62
7
  6
CONTINUOUS
 10
108.7708678534
 20
51.648797878
 11
115.270924139
 21
51.648797878
  0
LINE
  5
22F
100
AcDbEntity
  8
0
100
AcDbLine
 62
7
  6
CONTINUOUS
 10
108.3609770905
 20
51.8624596773
 11
115.270924139
 21
51.8624596773
  0
LINE
  5
230
100
AcDbEntity
  8
0
100
AcDbLine
 62
7
  6
CONTINUOUS
 10
108.2707309545
 20
52.8197273229
 11
115.2707310196
 21
52.8197273191
  0
LINE
  5
231
100
AcDbEntity
  8
0
100
AcDbLine
 62
7
  6
CONTINUOUS
 10
108.2707315356
 20
53.148797878
 11
115.2706755449
 21
53.148797878
  0
LINE
  5
232
100
AcDbEntity
  8
INTFCLR_74
100
AcDbLine
 62
7
420
48875
  6
CONTINUOUS
 10
108.2705815861
 20
54.248797878
 11
77.268182408
 21
54.248797878
  0
LINE
  5
233
100
AcDbEntity
  8
0
100
AcDbLine
 62
7
  6
CONTINUOUS
 10
69.5205815861
 20
54.248797878
 11
77.268182408
 21
54.248797878
  0
LINE
  5
234
100
AcDbEntity
  8
INTFCLR_76
100
AcDbLine
 62
7
420
3604575
  6
CONTINUOUS
 10
35.6348020545
 20
55.7514547518
 11
35.9008556291
 21
55.7514465998
  0
LINE
  5
235
100
AcDbEntity
  8
INTFCLR_76
100
AcDbLine
 62
7
420
3604575
  6
CONTINUOUS
 10
36.2425589743
 20
55.7514361298
 11
37.0462985729
 21
55.7514115028
  0
LINE
  5
236
100
AcDbEntity
  8
0
100
AcDbLine
 62
7
  6
CONTINUOUS
 10
108.2706754798
 20
55.9333534966
 11
115.2706755449
 21
55.9333534966
  0
LINE
  5
237
100
AcDbEntity
  8
0
100
AcDbLine
 62
7
  6
CONTINUOUS
 10
77.268182408
 20
57.148797878
 11
108.268182408
 21
57.148797878
  0
LINE
  5
238
100
AcDbEntity
  8
0
100
AcDbLine
 62
7
  6
CONTINUOUS
 10
77.268182408
 20
57.4183966251
 11
82.268182408
 21
57.4183966251
  0
LINE
  5
239
100
AcDbEntity
  8
0
100
AcDbLine
 62
7
  6
CONTINUOUS
 10
82.268182408
 20
57.5375194312
 11
77.268182408
 21
57.5375194312
  0
LINE
  5
23A
100
AcDbEntity
  8
0
100
AcDbLine
 62
7
  6
CONTINUOUS
 10
108.2700888055
 20
57.8637395995
 11
115.2700888705
 21
57.8637395995
  0
LINE
  5
23B
100
AcDbEntity
  8
0
100
AcDbLine
 62
7
  6
CONTINUOUS
 10
77.268182408
 20
59.848797878
 11
108.2687276742
 21
59.848797878
  0
LINE
  5
23C
100
AcDbEntity
  8
0
100
AcDbLine
 62
7
  6
CONTINUOUS
 10
35.618182408
 20
47.748797878
 11
35.618182408
 21
63.348797878
  0
LINE
  5
23D
100
AcDbEntity
  8
0
100
AcDbLine
 62
7
  6
CONTINUOUS
 10
35.618182408
 20
116.948797878
 11
35.618182408
 21
132.548797878
  0
LINE
  5
23E
100
AcDbEntity
  8
0
100
AcDbLine
 62
7
  6
CONTINUOUS
 10
36.106351933
 20
63.348797878
 11
36.106351933
 21
64.348797878
  0
LINE
  5
23F
100
AcDbEntity
  8
0
100
AcDbLine
 62
7
  6
CONTINUOUS
 10
36.106351933
 20
115.948797878
 11
36.106351933
 21
116.948797878
  0
LINE
  5
240
100
AcDbEntity
  8
0
100
AcDbLine
 62
7
  6
CONTINUOUS
 10
37.618182408
 20
132.548797878
 11
37.618182408
 21
115.948797878
  0
LINE
  5
241
100
AcDbEntity
  8
0
100
AcDbLine
 62
7
  6
CONTINUOUS
 10
37.618182408
 20
64.348797878
 11
37.618182408
 21
47.748797878
  0
LINE
  5
242
100
AcDbEntity
  8
0
100
AcDbLine
 62
7
  6
CONTINUOUS
 10
36.106351933
 20
63.348797878
 11
28.3033472151
 21
63.348797878
  0
LINE
  5
243
100
AcDbEntity
  8
0
100
AcDbLine
 62
7
  6
CONTINUOUS
 10
114.8632011179
 20
64.198797878
 11
114.2691571169
 21
64.198797878
  0
LINE
  5
244
100
AcDbEntity
  8
0
100
AcDbLine
 62
7
  6
CONTINUOUS
 10
21.118182408
 20
64.348797878
 11
37.618182408
 21
64.348797878
  0
LINE
  5
245
100
AcDbEntity
  8
0
100
AcDbLine
 62
7
  6
CONTINUOUS
 10
114.2691434851
 20
65.298797878
 11
115.2690753402
 21
65.298797878
  0
LINE
  5
246
100
AcDbEntity
  8
0
100
AcDbLine
 62
7
  6
CONTINUOUS
 10
23.9597600602
 20
65.348797878
 11
27.918182408
 21
65.348797878
  0
LINE
  5
247
100
AcDbEntity
  8
0
100
AcDbLine
 62
7
  6
CONTINUOUS
 10
23.918182408
 20
65.748797878
 11
28.418182408
 21
65.748797878
  0
LINE
  5
248
100
AcDbEntity
  8
0
100
AcDbLine
 62
7
  6
CONTINUOUS
 10
110.4681824201
 20
71.248797878
 11
110.368182408
 21
71.248797878
  0
LINE
  5
249
100
AcDbEntity
  8
0
100
AcDbLine
 62
7
  6
CONTINUOUS
 10
111.0680733659
 20
72.6487979896
 11
109.7680735875
 21
72.6487979896
  0
LINE
  5
24A
100
AcDbEntity
  8
0
100
AcDbLine
 62
7
  6
CONTINUOUS
 10
111.7682710864
 20
73.648797878
 11
111.4682710864
 21
73.648797878
  0
LINE
  5
24B
100
AcDbEntity
  8
0
100
AcDbLine
 62
7
  6
CONTINUOUS
 10
22.918182408
 20
75.448797878
 11
20.9199319836
 21
75.448797878
  0
LINE
  5
24C
100
AcDbEntity
  8
0
100
AcDbLine
 62
7
  6
CONTINUOUS
 10
14.4199290315
 20
75.5450432978
 11
20.8199290285
 21
75.5452393973
  0
LINE
  5
24D
100
AcDbEntity
  8
0
100
AcDbLine
 62
7
  6
CONTINUOUS
 10
14.4198125776
 20
79.3456901362
 11
20.8198125746
 21
79.3458862357
  0
LINE
  5
24E
100
AcDbEntity
  8
0
100
AcDbLine
 62
7
  6
CONTINUOUS
 10
110.7658243357
 20
89.1472193818
 11
109.765824345
 21
89.1470830641
  0
LINE
  5
24F
100
AcDbEntity
  8
0
100
AcDbLine
 62
7
  6
CONTINUOUS
 10
69.518182408
 20
126.048797878
 11
69.518182408
 21
131.2476131589
  0
LINE
  5
250
100
AcDbEntity
  8
0
100
AcDbLine
 62
7
  6
CONTINUOUS
 10
69.5207408807
 20
49.0499825971
 11
69.5205815861
 21
54.248797878
  0
LINE
  5
251
100
AcDbEntity
  8
0
100
AcDbLine
 62
7
  6
CONTINUOUS
 10
110.7655517002
 20
91.1472193633
 11
109.7655517095
 21
91.1470830455
  0
LINE
  5
252
100
AcDbEntity
  8
0
100
AcDbLine
 62
7
  6
CONTINUOUS
 10
77.268182408
 20
126.048797878
 11
77.268182408
 21
120.448797878
  0
LINE
  5
253
100
AcDbEntity
  8
0
100
AcDbLine
 62
7
  6
CONTINUOUS
 10
77.268182408
 20
54.248797878
 11
77.268182408
 21
59.848797878
  0
LINE
  5
254
100
AcDbEntity
  8
0
100
AcDbLine
 62
7
  6
CONTINUOUS
 10
20.8191538027
 20
100.8458862156
 11
14.4191538057
 21
100.845690116
  0
LINE
  5
255
100
AcDbEntity
  8
0
100
AcDbLine
 62
7
  6
CONTINUOUS
 10
111.7682710864
 20
73.648797878
 11
115.2682711646
 21
71.1980714394
  0
LINE
  5
256
100
AcDbEntity
  8
0
100
AcDbLine
 62
7
  6
CONTINUOUS
 10
82.268182408
 20
57.4183966251
 11
82.268182408
 21
57.5375194312
  0
LINE
  5
257
100
AcDbEntity
  8
0
100
AcDbLine
 62
7
  6
CONTINUOUS
 10
82.268182408
 20
122.7600763248
 11
82.268182408
 21
122.8791991308
  0
LINE
  5
258
100
AcDbEntity
  8
0
100
AcDbLine
 62
7
  6
CONTINUOUS
 10
14.4190373518
 20
104.6463369544
 11
20.8190373488
 21
104.646533054
  0
LINE
  5
259
100
AcDbEntity
  8
0
100
AcDbLine
 62
7
  6
CONTINUOUS
 10
22.918182408
 20
104.848797878
 11
20.9190311513
 21
104.848797878
  0
LINE
  5
25A
100
AcDbEntity
  8
0
100
AcDbLine
 62
7
  6
CONTINUOUS
 10
111.4681290478
 20
105.948797878
 11
114.0681290478
 21
105.948797878
  0
LINE
  5
25B
100
AcDbEntity
  8
0
100
AcDbLine
 62
7
  6
CONTINUOUS
 10
109.6066439464
 20
106.848797878
 11
109.068182408
 21
106.848797878
  0
LINE
  5
25C
100
AcDbEntity
  8
0
100
AcDbLine
 62
7
  6
CONTINUOUS
 10
114.8632011179
 20
64.198797878
 11
115.2692798168
 21
63.7987977651
  0
LINE
  5
25D
100
AcDbEntity
  8
0
100
AcDbLine
 62
7
  6
CONTINUOUS
 10
115.268182408
 20
109.8487979524
 11
109.068182408
 21
109.848797878
  0
LINE
  5
25E
100
AcDbEntity
  8
0
100
AcDbLine
 62
7
  6
CONTINUOUS
 10
115.268182408
 20
107.1488512381
 11
114.0681290478
 21
105.948797878
  0
LINE
  5
25F
100
AcDbEntity
  8
0
100
AcDbLine
 62
7
  6
CONTINUOUS
 10
23.918182408
 20
114.548797878
 11
28.418182408
 21
114.548797878
  0
LINE
  5
260
100
AcDbEntity
  8
0
100
AcDbLine
 62
7
  6
CONTINUOUS
 10
23.9597600602
 20
114.948797878
 11
27.918182408
 21
114.948797878
  0
LINE
  5
261
100
AcDbEntity
  8
0
100
AcDbLine
 62
7
  6
CONTINUOUS
 10
21.118182408
 20
115.948797878
 11
37.618182408
 21
115.948797878
  0
LINE
  5
262
100
AcDbEntity
  8
0
100
AcDbLine
 62
7
  6
CONTINUOUS
 10
36.106351933
 20
116.948797878
 11
28.3033472151
 21
116.948797878
  0
LINE
  5
263
100
AcDbEntity
  8
0
100
AcDbLine
 62
7
  6
CONTINUOUS
 10
77.268182408
 20
120.448797878
 11
108.268182408
 21
120.448797878
  0
LINE
  5
264
100
AcDbEntity
  8
0
100
AcDbLine
 62
7
  6
CONTINUOUS
 10
77.268182408
 20
122.7600763248
 11
82.268182408
 21
122.7600763248
  0
LINE
  5
265
100
AcDbEntity
  8
0
100
AcDbLine
 62
7
  6
CONTINUOUS
 10
82.268182408
 20
122.8791991308
 11
77.268182408
 21
122.8791991308
  0
LINE
  5
266
100
AcDbEntity
  8
0
100
AcDbLine
 62
7
  6
CONTINUOUS
 10
108.268182408
 20
123.148797878
 11
77.268182408
 21
123.148797878
  0
LINE
  5
267
100
AcDbEntity
  8
INTFCLR_76
100
AcDbLine
 62
7
420
3604575
  6
CONTINUOUS
 10
37.0462985729
 20
124.5461842532
 11
36.2425589743
 21
124.5461596261
  0
LINE
  5
268
100
AcDbEntity
  8
INTFCLR_76
100
AcDbLine
 62
7
420
3604575
  6
CONTINUOUS
 10
35.9008556291
 20
124.5461491561
 11
35.6348020545
 21
124.5461410041
  0
LINE
  5
269
100
AcDbEntity
  8
0
100
AcDbLine
 62
7
  6
CONTINUOUS
 10
77.268182408
 20
126.048797878
 11
69.518182408
 21
126.048797878
  0
LINE
  5
26A
100
AcDbEntity
  8
INTFCLR_74
100
AcDbLine
 62
7
420
48875
  6
CONTINUOUS
 10
77.268182408
 20
126.048797878
 11
108.268182408
 21
126.048797878
  0
LINE
  5
26B
100
AcDbEntity
  8
0
100
AcDbLine
 62
7
  6
CONTINUOUS
 10
115.2230855876
 20
126.0649963651
 11
108.268182408
 21
126.0649963651
  0
LINE
  5
26C
100
AcDbEntity
  8
0
100
AcDbLine
 62
7
  6
CONTINUOUS
 10
108.268182408
 20
127.9190459868
 11
114.8966622676
 21
127.9190459868
  0
LINE
  5
26D
100
AcDbEntity
  8
0
100
AcDbLine
 62
7
  6
CONTINUOUS
 10
108.268182408
 20
128.648797878
 11
114.768182408
 21
128.648797878
  0
LINE
  5
26E
100
AcDbEntity
  8
0
100
AcDbLine
 62
7
  6
CONTINUOUS
 10
108.2687276742
 20
59.8487979523
 11
108.2708678626
 21
52.1487297046
  0
LINE
  5
26F
100
AcDbEntity
  8
0
100
AcDbLine
 62
7
  6
CONTINUOUS
 10
108.268182408
 20
120.448797878
 11
108.268182408
 21
128.6487740355
  0
LINE
  5
270
100
AcDbEntity
  8
0
100
AcDbLine
 62
7
  6
CONTINUOUS
 10
109.068182408
 20
106.848797878
 11
109.068182408
 21
109.848797878
  0
LINE
  5
271
100
AcDbEntity
  8
0
100
AcDbLine
 62
7
  6
CONTINUOUS
 10
62.3309658198
 20
132.548797878
 11
35.618182408
 21
132.548797878
  0
LINE
  5
272
100
AcDbEntity
  8
INTFCLR_74
100
AcDbLine
 62
7
420
48875
  6
CONTINUOUS
 10
20.918182408
 20
132.548797878
 11
35.618182408
 21
132.548797878
  0
LINE
  5
273
100
AcDbEntity
  8
0
100
AcDbLine
 62
7
  6
CONTINUOUS
 10
66.6721702615
 20
132.1689917033
 11
69.1050064968
 21
131.7400170354
  0
LINE
  5
274
100
AcDbEntity
  8
0
100
AcDbLine
 62
7
  6
CONTINUOUS
 10
109.768182408
 20
71.848797878
 11
109.7635304402
 21
105.974715984
  0
LINE
  5
275
100
AcDbEntity
  8
0
100
AcDbLine
 62
7
  6
CONTINUOUS
 10
110.7658243357
 20
89.1472193818
 11
110.7655517002
 21
91.1472193633
  0
LINE
  5
276
100
AcDbEntity
  8
0
100
AcDbLine
 62
7
  6
CONTINUOUS
 10
111.0679916282
 20
73.2484092746
 11
111.0681824201
 21
71.848797878
  0
LINE
  5
277
100
AcDbEntity
  8
0
100
AcDbLine
 62
7
  6
CONTINUOUS
 10
111.0679916282
 20
73.2484092746
 11
111.4682710864
 21
73.648797878
  0
LINE
  5
278
100
AcDbEntity
  8
0
100
AcDbLine
 62
7
  6
CONTINUOUS
 10
109.6066439464
 20
106.848797878
 11
109.7635304402
 21
105.974715984
  0
LINE
  5
279
100
AcDbEntity
  8
0
100
AcDbLine
 62
7
  6
CONTINUOUS
 10
111.4681290478
 20
105.948797878
 11
110.8681823993
 21
109.8487979156
  0
LINE
  5
27A
100
AcDbEntity
  8
0
100
AcDbLine
 62
7
  6
CONTINUOUS
 10
113.7691571169
 20
64.698797878
 11
113.7691434851
 21
64.798797878
  0
LINE
  5
27B
100
AcDbEntity
  8
0
100
AcDbLine
 62
7
  6
CONTINUOUS
 10
115.270936074
 20
51.6488217223
 11
115.2692798168
 21
63.7987977651
  0
LINE
  5
27C
100
AcDbEntity
  8
0
100
AcDbLine
 62
7
  6
CONTINUOUS
 10
115.2690753402
 20
65.298797878
 11
115.2682711646
 21
71.1980714394
  0
LINE
  5
27D
100
AcDbEntity
  8
0
100
AcDbLine
 62
7
  6
CONTINUOUS
 10
115.268182408
 20
107.1488512381
 11
115.268182408
 21
125.8088512381
  0
LINE
  5
27E
100
AcDbEntity
  8
0
100
AcDbLine
 62
7
  6
CONTINUOUS
 10
115.268182408
 20
125.8088512381
 11
114.7681869906
 21
128.6487718493
  0
ARC
  5
27F
100
AcDbEntity
  8
0
100
AcDbCircle
 62
7
  6
CONTINUOUS
 10
62.3339601968
 20
72.7487978742
 40
25.0
100
AcDbArc
 50
269.9990009811
 51
279.9989855711
  0
ARC
  5
280
100
AcDbEntity
  8
0
100
AcDbCircle
 62
7
  6
CONTINUOUS
 10
62.3309658198
 20
107.548797878
 40
25.0
100
AcDbArc
 50
80.0
 51
90.0
  0
ARC
  5
281
100
AcDbEntity
  8
0
100
AcDbCircle
 62
7
  6
CONTINUOUS
 10
28.3033472151
 20
78.348797878
 40
15.0
100
AcDbArc
 50
248.9605302187
 51
270.0
  0
ARC
  5
282
100
AcDbEntity
  8
0
100
AcDbCircle
 62
7
  6
CONTINUOUS
 10
28.3033472151
 20
101.948797878
 40
15.0
100
AcDbArc
 50
90.0
 51
111.0394697813
  0
ARC
  5
283
100
AcDbEntity
  8
0
100
AcDbCircle
 62
7
  6
CONTINUOUS
 10
110.368182408
 20
71.848797878
 40
0.6
100
AcDbArc
 50
180.0000000019
 51
270.0
  0
ARC
  5
284
100
AcDbEntity
  8
0
100
AcDbCircle
 62
7
  6
CONTINUOUS
 10
110.4681824201
 20
71.848797878
 40
0.6
100
AcDbArc
 50
270.0
 51
360.0
  0
ARC
  5
285
100
AcDbEntity
  8
0
100
AcDbCircle
 62
7
  6
CONTINUOUS
 10
114.2691434851
 20
64.798797878
 40
0.5
100
AcDbArc
 50
89.9999999998
 51
180.0
  0
ARC
  5
286
100
AcDbEntity
  8
0
100
AcDbCircle
 62
7
  6
CONTINUOUS
 10
114.2691571169
 20
64.698797878
 40
0.5
100
AcDbArc
 50
180.0000000001
 51
270.0
  0
ARC
  5
287
100
AcDbEntity
  8
0
100
AcDbCircle
 62
7
  6
CONTINUOUS
 10
69.0207408807
 20
49.0499825971
 40
0.5
100
AcDbArc
 50
280.0000000001
 51
359.9999999982
  0
ARC
  5
288
100
AcDbEntity
  8
0
100
AcDbCircle
 62
7
  6
CONTINUOUS
 10
69.018182408
 20
131.2476131589
 40
0.5
100
AcDbArc
 50
0.0
 51
80.000000002
  0
ARC
  5
289
100
AcDbEntity
  8
0
100
AcDbCircle
 62
7
  6
CONTINUOUS
 10
108.7708678534
 20
52.148797878
 40
0.5
100
AcDbArc
 50
180.0
 51
270.0
  0
SPLINE
  5
28A
100
AcDbEntity
  8
0
100
AcDbSpline
 62
7
  6
CONTINUOUS
 70
0
 71
3
 72
19
 73
15
 74
0
 42
0.0000001
 43
0.0000001
 44
0.0000000001
 40
0.0
 40
0.0
 40
0.0
 40
0.0
 40
0.0129850182
 40
0.0214678263
 40
0.0316914468
 40
0.0578487383
 40
0.0919788249
 40
0.1341904095
 40
0.1844259581
 40
0.2422944989
 40
0.3072180784
 40
0.4557941948
 40
0.6250971971
 40
1.0
 40
1.0
 40
1.0
 40
1.0
 10
36.6029669454
 20
52.5509214494
 30
0.0
 10
36.6171692934
 20
52.5509270239
 30
0.0
 10
36.6402104106
 20
52.5622324823
 30
0.0
 10
36.6643487046
 20
52.5868692377
 30
0.0
 10
36.6933987979
 20
52.6267271658
 30
0.0
 10
36.7277891701
 20
52.6961254909
 30
0.0
 10
36.7664894885
 20
52.8014416843
 30
0.0
 10
36.8044283022
 20
52.9346963344
 30
0.0
 10
36.8411172113
 20
53.0950059071
 30
0.0
 10
36.8761214627
 20
53.2810294086
 30
0.0
 10
36.9220650289
 20
53.574294552
 30
0.0
 10
36.9707876758
 20
53.9903051448
 30
0.0
 10
37.029641298
 20
54.745852624
 30
0.0
 10
37.0462985729
 20
55.3413619848
 30
0.0
 10
37.0462985729
 20
55.7514115028
 30
0.0
  0
SPLINE
  5
28B
100
AcDbEntity
  8
0
100
AcDbSpline
 62
7
  6
CONTINUOUS
 70
0
 71
3
 72
20
 73
16
 74
0
 42
0.0000001
 43
0.0000001
 44
0.0000000001
 40
0.0
 40
0.0
 40
0.0
 40
0.0
 40
0.0024031788
 40
0.0066390739
 40
0.0217707471
 40
0.0459629698
 40
0.0790721011
 40
0.1209314182
 40
0.1713269752
 40
0.2297497473
 40
0.2955301125
 40
0.446469911
 40
0.618674132
 40
0.8057181894
 40
1.0
 40
1.0
 40
1.0
 40
1.0
 10
35.7272238108
 20
52.5509453439
 30
0.0
 10
35.729798462
 20
52.5509571594
 30
0.0
 10
35.7359712312
 20
52.5562459935
 30
0.0
 10
35.7456335102
 20
52.5770337704
 30
0.0
 10
35.7577468871
 20
52.6227939011
 30
0.0
 10
35.7713368396
 20
52.6989095023
 30
0.0
 10
35.7857501655
 20
52.8043192042
 30
0.0
 10
35.8002943581
 20
52.9377995141
 30
0.0
 10
35.8147384637
 20
53.0986076629
 30
0.0
 10
35.8288181566
 20
53.2851346899
 30
0.0
 10
35.8476692318
 20
53.5793167381
 30
0.0
 10
35.8681656979
 20
53.9955140789
 30
0.0
 10
35.8865194231
 20
54.5418217073
 30
0.0
 10
35.8981666109
 20
55.134756538
 30
0.0
 10
35.9008556291
 20
55.5433001375
 30
0.0
 10
35.9008556291
 20
55.7514465998
 30
0.0
  0
SPLINE
  5
28C
100
AcDbEntity
  8
0
100
AcDbSpline
 62
7
  6
CONTINUOUS
 70
0
 71
3
 72
20
 73
16
 74
0
 42
0.0000001
 43
0.0000001
 44
0.0000000001
 40
0.0
 40
0.0
 40
0.0
 40
0.0
 40
0.0119971324
 40
0.0201210177
 40
0.030072062
 40
0.055893673
 40
0.0898727874
 40
0.1320175849
 40
0.1822110236
 40
0.2401154692
 40
0.3051667566
 40
0.4542325266
 40
0.6240022698
 40
0.8083649196
 40
1.0
 40
1.0
 40
1.0
 40
1.0
 10
22.0222006071
 20
67.6012139678
 30
0.0
 10
22.0354782477
 20
67.6011316122
 30
0.0
 10
22.0571235458
 20
67.6129839115
 30
0.0
 10
22.079008839
 20
67.6377151514
 30
0.0
 10
22.1059612047
 20
67.678464314
 30
0.0
 10
22.1375916534
 20
67.7491827483
 30
0.0
 10
22.1732776562
 20
67.8563064247
 30
0.0
 10
22.2082780966
 20
67.9917483744
 30
0.0
 10
22.2421981341
 20
68.1545741688
 30
0.0
 10
22.2745165597
 20
68.343497589
 30
0.0
 10
22.3169324919
 20
68.6415857012
 30
0.0
 10
22.3617320411
 20
69.0642197103
 30
0.0
 10
22.4012038482
 20
69.6198218012
 30
0.0
 10
22.4258642769
 20
70.2234314256
 30
0.0
 10
22.4314595452
 20
70.6395908016
 30
0.0
 10
22.4314595452
 20
70.8516840395
 30
0.0
  0
SPLINE
  5
28D
100
AcDbEntity
  8
0
100
AcDbSpline
 62
7
  6
CONTINUOUS
 70
0
 71
3
 72
21
 73
17
 74
0
 42
0.0000001
 43
0.0000001
 44
0.0000000001
 40
0.0
 40
0.0
 40
0.0
 40
0.0
 40
0.0022239102
 40
0.0063471701
 40
0.0213756304
 40
0.0455628629
 40
0.0787098237
 40
0.1205826815
 40
0.1709303269
 40
0.2293202031
 40
0.2951154466
 40
0.3676571492
 40
0.4462308242
 40
0.61850167
 40
0.8055797025
 40
1.0
 40
1.0
 40
1.0
 40
1.0
 10
21.218341313
 20
67.6012451467
 30
0.0
 10
21.2207590973
 20
67.6011978279
 30
0.0
 10
21.2266115002
 20
67.6067074283
 30
0.0
 10
21.2353121685
 20
67.6276205505
 30
0.0
 10
21.2466561484
 20
67.6741793187
 30
0.0
 10
21.2590977811
 20
67.7515071805
 30
0.0
 10
21.272459485
 20
67.8587358941
 30
0.0
 10
21.2859012612
 20
67.9943404274
 30
0.0
 10
21.2992929185
 20
68.1575914807
 30
0.0
 10
21.3123251787
 20
68.3469247238
 30
0.0
 10
21.324802576
 20
68.5604839097
 30
0.0
 10
21.3364724993
 20
68.7960624949
 30
0.0
 10
21.35112537
 20
69.1474056974
 30
0.0
 10
21.3657116125
 20
69.6233891495
 30
0.0
 10
21.3765212974
 20
70.225466252
 30
0.0
 10
21.3789882207
 20
70.6403065145
 30
0.0
 10
21.3789882207
 20
70.8517162878
 30
0.0
  0
SPLINE
  5
28E
100
AcDbEntity
  8
0
100
AcDbSpline
 62
7
  6
CONTINUOUS
 70
0
 71
3
 72
19
 73
15
 74
0
 42
0.0000001
 43
0.0000001
 44
0.0000000001
 40
0.0
 40
0.0
 40
0.0
 40
0.0
 40
0.0120168858
 40
0.0201471342
 40
0.0300973185
 40
0.0558938115
 40
0.0898342712
 40
0.1319643074
 40
0.1821939722
 40
0.2401415612
 40
0.3052104934
 40
0.4542053095
 40
0.6239957385
 40
1.0
 40
1.0
 40
1.0
 40
1.0
 10
22.0222002666
 20
106.1953920905
 30
0.0
 10
22.0354993835
 20
106.1953811211
 30
0.0
 10
22.0571037963
 20
106.2073237594
 30
0.0
 10
22.0790021777
 20
106.2320754025
 30
0.0
 10
22.105944818
 20
106.2728019305
 30
0.0
 10
22.1375969994
 20
106.3434252194
 30
0.0
 10
22.1733010309
 20
106.450448214
 30
0.0
 10
22.2083035754
 20
106.585863616
 30
0.0
 10
22.2421874826
 20
106.7487623115
 30
0.0
 10
22.274489562
 20
106.9377877787
 30
0.0
 10
22.3168930744
 20
107.2358505391
 30
0.0
 10
22.3618232319
 20
107.6584189831
 30
0.0
 10
22.4161184206
 20
108.425514581
 30
0.0
 10
22.4314595452
 20
109.0297867396
 30
0.0
 10
22.4314595452
 20
109.4459117164
 30
0.0
  0
SPLINE
  5
28F
100
AcDbEntity
  8
0
100
AcDbSpline
 62
7
  6
CONTINUOUS
 70
0
 71
3
 72
21
 73
17
 74
0
 42
0.0000001
 43
0.0000001
 44
0.0000000001
 40
0.0
 40
0.0
 40
0.0
 40
0.0
 40
0.0022461383
 40
0.0063923643
 40
0.0214269205
 40
0.0455647807
 40
0.0786414974
 40
0.1204868105
 40
0.1708863364
 40
0.229327347
 40
0.2951358868
 40
0.3676357461
 40
0.4461533672
 40
0.6184567093
 40
0.8056091161
 40
1.0
 40
1.0
 40
1.0
 40
1.0
 10
21.2183409144
 20
106.195365772
 30
0.0
 10
21.2207833018
 20
106.1953732554
 30
0.0
 10
21.2265718903
 20
106.2009895625
 30
0.0
 10
21.2353223014
 20
106.2219264399
 30
0.0
 10
21.2466195144
 20
106.268490023
 30
0.0
 10
21.2591080963
 20
106.3456734745
 30
0.0
 10
21.2724672243
 20
106.4527459442
 30
0.0
 10
21.2859107484
 20
106.5882970731
 30
0.0
 10
21.2992786476
 20
106.7516320383
 30
0.0
 10
21.312303931
 20
106.9410906704
 30
0.0
 10
21.3247817466
 20
107.1546728132
 30
0.0
 10
21.3364716842
 20
107.3901563872
 30
0.0
 10
21.3511558782
 20
107.7414244769
 30
0.0
 10
21.3657099233
 20
108.2174607845
 30
0.0
 10
21.3765004687
 20
108.8196174882
 30
0.0
 10
21.3789882207
 20
109.2345033165
 30
0.0
 10
21.3789882207
 20
109.4458794681
 30
0.0
  0
SPLINE
  5
290
100
AcDbEntity
  8
0
100
AcDbSpline
 62
7
  6
CONTINUOUS
 70
0
 71
3
 72
19
 73
15
 74
0
 42
0.0000001
 43
0.0000001
 44
0.0000000001
 40
0.0
 40
0.0
 40
0.0
 40
0.0
 40
0.0129571063
 40
0.0213916198
 40
0.0315637997
 40
0.0576856105
 40
0.0918993464
 40
0.1342119748
 40
0.1844562529
 40
0.2422568577
 40
0.307126735
 40
0.4557902619
 40
0.6251352438
 40
1.0
 40
1.0
 40
1.0
 40
1.0
 10
36.6029670184
 20
121.3461128492
 30
0.0
 10
36.6171383024
 20
121.346100646
 30
0.0
 10
36.6401695006
 20
121.3571199132
 30
0.0
 10
36.6643797834
 20
121.3815202137
 30
0.0
 10
36.6934890581
 20
121.4211469411
 30
0.0
 10
36.7278768969
 20
121.4905635094
 30
0.0
 10
36.7664764473
 20
121.5960797856
 30
0.0
 10
36.8043682015
 20
121.7295614656
 30
0.0
 10
36.841095306
 20
121.8899006014
 30
0.0
 10
36.8761577519
 20
122.0757806345
 30
0.0
 10
36.9221483641
 20
122.3689904372
 30
0.0
 10
36.9707274114
 20
122.7850866562
 30
0.0
 10
37.0296278596
 20
123.5406985132
 30
0.0
 10
37.0462985729
 20
124.1361917164
 30
0.0
 10
37.0462985729
 20
124.5461842532
 30
0.0
  0
SPLINE
  5
291
100
AcDbEntity
  8
0
100
AcDbSpline
 62
7
  6
CONTINUOUS
 70
0
 71
3
 72
20
 73
16
 74
0
 42
0.0000001
 43
0.0000001
 44
0.0000000001
 40
0.0
 40
0.0
 40
0.0
 40
0.0
 40
0.0023850293
 40
0.0065658223
 40
0.02156409
 40
0.0457177157
 40
0.0789194249
 40
0.1208852763
 40
0.1712871617
 40
0.2296406905
 40
0.295371644
 40
0.4464220902
 40
0.6186855574
 40
0.8057013977
 40
1.0
 40
1.0
 40
1.0
 40
1.0
 10
35.7272238222
 20
121.3461033489
 30
0.0
 10
35.7297787584
 20
121.3460934244
 30
0.0
 10
35.7359634963
 20
121.3512117655
 30
0.0
 10
35.7456738976
 20
121.3717827859
 30
0.0
 10
35.7577964133
 20
121.4172526401
 30
0.0
 10
35.7713676575
 20
121.4932948284
 30
0.0
 10
35.7857384154
 20
121.5988656716
 30
0.0
 10
35.8002658336
 20
121.7325564834
 30
0.0
 10
35.8147274291
 20
121.8933912162
 30
0.0
 10
35.8288315312
 20
122.0797756463
 30
0.0
 10
35.8477021919
 20
122.3739157727
 30
0.0
 10
35.8681371152
 20
122.7902002359
 30
0.0
 10
35.88650755
 20
123.3365990618
 30
0.0
 10
35.8981774936
 20
123.9295203799
 30
0.0
 10
35.9008556291
 20
124.338007359
 30
0.0
 10
35.9008556291
 20
124.5461491561
 30
0.0
  0
SPLINE
  5
292
100
AcDbEntity
  8
0
100
AcDbSpline
 62
7
  6
CONTINUOUS
 70
0
 71
3
 72
13
 73
9
 74
0
 42
0.0000001
 43
0.0000001
 44
0.0000000001
 40
0.0
 40
0.0
 40
0.0
 40
0.0
 40
0.029565023
 40
0.0893116862
 40
0.1819053712
 40
0.3047210038
 40
0.6237476016
 40
1.0
 40
1.0
 40
1.0
 40
1.0
 10
82.7681824055
 20
57.4752123555
 30
0.0
 10
82.7681824055
 20
57.480242136
 30
0.0
 10
82.7535673074
 20
57.4913978248
 30
0.0
 10
82.7256864345
 20
57.5001229339
 30
0.0
 10
82.6791579271
 20
57.5108341478
 30
0.0
 10
82.5895698906
 20
57.5237064706
 30
0.0
 10
82.4503988874
 20
57.5346836506
 30
0.0
 10
82.332192741
 20
57.5375194312
 30
0.0
 10
82.268182408
 20
57.5375194312
 30
0.0
  0
SPLINE
  5
293
100
AcDbEntity
  8
0
100
AcDbSpline
 62
7
  6
CONTINUOUS
 70
0
 71
3
 72
20
 73
16
 74
0
 42
0.0000001
 43
0.0000001
 44
0.0000000001
 40
0.0
 40
0.0
 40
0.0
 40
0.0
 40
0.1943082715
 40
0.3813247763
 40
0.5535858301
 40
0.7046383769
 40
0.770368913
 40
0.8287216488
 40
0.8791196154
 40
0.9210859795
 40
0.9542888147
 40
0.9784399295
 40
0.9934370521
 40
0.997616571
 40
1.0
 40
1.0
 40
1.0
 40
1.0
 10
35.9008556291
 20
55.7514465998
 30
0.0
 10
35.9008556291
 20
55.9595974472
 30
0.0
 10
35.898177797
 20
56.3680929289
 30
0.0
 10
35.8865073624
 20
56.961019017
 30
0.0
 10
35.868134377
 20
57.5074146719
 30
0.0
 10
35.8477027114
 20
57.9236958944
 30
0.0
 10
35.8288319079
 20
58.2178351061
 30
0.0
 10
35.8147285933
 20
58.4042129294
 30
0.0
 10
35.800265572
 20
58.5650419565
 30
0.0
 10
35.7857378254
 20
58.6987295435
 30
0.0
 10
35.7713675376
 20
58.8042984921
 30
0.0
 10
35.7577975706
 20
58.8803384561
 30
0.0
 10
35.7456721526
 20
58.9258006645
 30
0.0
 10
35.7359656278
 20
58.9463692846
 30
0.0
 10
35.7297770445
 20
58.9514809663
 30
0.0
 10
35.7272238581
 20
58.9514668988
 30
0.0
  0
SPLINE
  5
294
100
AcDbEntity
  8
0
100
AcDbSpline
 62
7
  6
CONTINUOUS
 70
0
 71
3
 72
19
 73
15
 74
0
 42
0.0000001
 43
0.0000001
 44
0.0000000001
 40
0.0
 40
0.0
 40
0.0
 40
0.0
 40
0.3748773887
 40
0.54422592
 40
0.6928936204
 40
0.7577628776
 40
0.8155613777
 40
0.8658007866
 40
0.9081111049
 40
0.9423228173
 40
0.9684404368
 40
0.9786115424
 40
0.9870451406
 40
1.0
 40
1.0
 40
1.0
 40
1.0
 10
37.0462985729
 20
55.7514115028
 30
0.0
 10
37.0462985729
 20
56.161415814
 30
0.0
 10
37.0296288877
 20
56.7569239957
 30
0.0
 10
36.9707195371
 20
57.5125535992
 30
0.0
 10
36.9221439647
 20
57.9286559538
 30
0.0
 10
36.8761520231
 20
58.2218656672
 30
0.0
 10
36.8410905928
 20
58.4077365082
 30
0.0
 10
36.8043607449
 20
58.5680638303
 30
0.0
 10
36.7664693828
 20
58.7015342326
 30
0.0
 10
36.7278740411
 20
58.807041775
 30
0.0
 10
36.6934848655
 20
58.8764483016
 30
0.0
 10
36.6643772448
 20
58.9160677118
 30
0.0
 10
36.6401693653
 20
58.9404629285
 30
0.0
 10
36.6171356372
 20
58.9514760993
 30
0.0
 10
36.602966893
 20
58.9514541549
 30
0.0
  0
SPLINE
  5
295
100
AcDbEntity
  8
0
100
AcDbSpline
 62
7
  6
CONTINUOUS
 70
0
 71
3
 72
21
 73
17
 74
0
 42
0.0000001
 43
0.0000001
 44
0.0000000001
 40
0.0
 40
0.0
 40
0.0
 40
0.0
 40
0.1943945166
 40
0.3815220513
 40
0.5537973277
 40
0.6323200467
 40
0.7048290139
 40
0.7706396253
 40
0.8290701678
 40
0.8794478902
 40
0.9213060824
 40
0.9544184527
 40
0.9785836476
 40
0.9936210018
 40
0.9977607917
 40
1.0
 40
1.0
 40
1.0
 40
1.0
 10
21.3789882207
 20
70.8517162878
 30
0.0
 10
21.3789882207
 20
71.0630977589
 30
0.0
 10
21.3765010639
 20
71.4779631672
 30
0.0
 10
21.3657130198
 20
72.0800702408
 30
0.0
 10
21.3511534406
 20
72.5560573869
 30
0.0
 10
21.3364764787
 20
72.9073129457
 30
0.0
 10
21.3247929456
 20
73.1428161007
 30
0.0
 10
21.3123178617
 20
73.3564005528
 30
0.0
 10
21.2992940356
 20
73.5458276998
 30
0.0
 10
21.2859148255
 20
73.7091415167
 30
0.0
 10
21.2724687692
 20
73.8447227049
 30
0.0
 10
21.2591072199
 20
73.9518780202
 30
0.0
 10
21.2466350765
 20
74.0291379366
 30
0.0
 10
21.2353208797
 20
74.0757238166
 30
0.0
 10
21.2265856084
 20
74.0966546618
 30
0.0
 10
21.2207758152
 20
74.1022427038
 30
0.0
 10
21.2183409675
 20
74.1022303441
 30
0.0
  0
SPLINE
  5
296
100
AcDbEntity
  8
0
100
AcDbSpline
 62
7
  6
CONTINUOUS
 70
0
 71
3
 72
19
 73
15
 74
0
 42
0.0000001
 43
0.0000001
 44
0.0000000001
 40
0.0
 40
0.0
 40
0.0
 40
0.0
 40
0.3760163843
 40
0.5458211651
 40
0.6948055638
 40
0.7598739512
 40
0.817830622
 40
0.8680797154
 40
0.9102063263
 40
0.944125002
 40
0.9699012231
 40
0.9798473315
 40
0.9879774742
 40
1.0
 40
1.0
 40
1.0
 40
1.0
 10
22.4314595452
 20
70.8516840395
 30
0.0
 10
22.4314595452
 20
71.2678182045
 30
0.0
 10
22.41610824
 20
71.8721127624
 30
0.0
 10
22.3618328359
 20
72.6392200696
 30
0.0
 10
22.3168814552
 20
73.0617858038
 30
0.0
 10
22.2744715522
 20
73.3598424748
 30
0.0
 10
22.242164983
 20
73.5488962968
 30
0.0
 10
22.208300714
 20
73.7118257109
 30
0.0
 10
22.1733037253
 20
73.847234782
 30
0.0
 10
22.1375958242
 20
73.9542035243
 30
0.0
 10
22.1059298678
 20
74.0247635655
 30
0.0
 10
22.0789930986
 20
74.065459689
 30
0.0
 10
22.0570897919
 20
74.0902102137
 30
0.0
 10
22.035505618
 20
74.1021738123
 30
0.0
 10
22.0222004101
 20
74.1021969957
 30
0.0
  0
SPLINE
  5
297
100
AcDbEntity
  8
0
100
AcDbSpline
 62
7
  6
CONTINUOUS
 70
0
 71
3
 72
21
 73
17
 74
0
 42
0.0000001
 43
0.0000001
 44
0.0000000001
 40
0.0
 40
0.0
 40
0.0
 40
0.0
 40
0.1944022941
 40
0.3814985088
 40
0.5537817895
 40
0.6323499001
 40
0.7048937232
 40
0.7707040663
 40
0.8291240265
 40
0.8795187068
 40
0.9213708831
 40
0.9544457557
 40
0.9785656476
 40
0.9935892393
 40
0.9977419099
 40
1.0
 40
1.0
 40
1.0
 40
1.0
 10
21.3789882207
 20
109.4458794681
 30
0.0
 10
21.3789882207
 20
109.6572637405
 30
0.0
 10
21.3765207477
 20
110.0720925738
 30
0.0
 10
21.3657113137
 20
110.6741664879
 30
0.0
 10
21.3511292556
 20
111.1501639999
 30
0.0
 10
21.3364700822
 20
111.5015068905
 30
0.0
 10
21.3247963277
 20
111.7370913038
 30
0.0
 10
21.3123199317
 20
111.9506961717
 30
0.0
 10
21.2992845059
 20
112.1401240144
 30
0.0
 10
21.2859127872
 20
112.3034345003
 30
0.0
 10
21.2724689179
 20
112.4389830648
 30
0.0
 10
21.259122948
 20
112.5460402838
 30
0.0
 10
21.2466082023
 20
112.6231866119
 30
0.0
 10
21.2353374724
 20
112.6697236089
 30
0.0
 10
21.2265464414
 20
112.6906636548
 30
0.0
 10
21.2207962385
 20
112.696310798
 30
0.0
 10
21.2183413402
 20
112.6963576383
 30
0.0
  0
SPLINE
  5
298
100
AcDbEntity
  8
0
100
AcDbSpline
 62
7
  6
CONTINUOUS
 70
0
 71
3
 72
20
 73
16
 74
0
 42
0.0000001
 43
0.0000001
 44
0.0000000001
 40
0.0
 40
0.0
 40
0.0
 40
0.0
 40
0.1916219633
 40
0.3760043744
 40
0.5457880161
 40
0.6948527803
 40
0.7599187935
 40
0.8178515774
 40
0.8680879681
 40
0.9102144904
 40
0.9441311763
 40
0.9698968616
 40
0.9798386554
 40
0.9879681817
 40
1.0
 40
1.0
 40
1.0
 40
1.0
 10
22.4314595452
 20
109.4459117164
 30
0.0
 10
22.4314595452
 20
109.6579815123
 30
0.0
 10
22.4258633505
 20
110.0741307648
 30
0.0
 10
22.4012038699
 20
110.6777374858
 30
0.0
 10
22.3617422352
 20
111.2333535319
 30
0.0
 10
22.3169156852
 20
111.6559971144
 30
0.0
 10
22.2745039019
 20
111.9541201571
 30
0.0
 10
22.2421787071
 20
112.143130172
 30
0.0
 10
22.2083039413
 20
112.3060184801
 30
0.0
 10
22.1733099325
 20
112.4414134144
 30
0.0
 10
22.1376106474
 20
112.5483722917
 30
0.0
 10
22.1059334496
 20
112.6189100935
 30
0.0
 10
22.0789941712
 20
112.6595830094
 30
0.0
 10
22.0570752809
 20
112.6843323685
 30
0.0
 10
22.0355162188
 20
112.6963121817
 30
0.0
 10
22.0222007184
 20
112.6963894149
 30
0.0
  0
SPLINE
  5
299
100
AcDbEntity
  8
0
100
AcDbSpline
 62
7
  6
CONTINUOUS
 70
0
 71
3
 72
20
 73
16
 74
0
 42
0.0000001
 43
0.0000001
 44
0.0000000001
 40
0.0
 40
0.0
 40
0.0
 40
0.0
 40
0.1942880772
 40
0.3813247303
 40
0.5535164261
 40
0.7044597486
 40
0.7702375534
 40
0.8286510605
 40
0.8790318906
 40
0.9208985364
 40
0.9540303792
 40
0.9782410623
 40
0.9933736568
 40
0.9976033727
 40
1.0
 40
1.0
 40
1.0
 40
1.0
 10
35.9008556291
 20
124.5461491561
 30
0.0
 10
35.9008556291
 20
124.7543036678
 30
0.0
 10
35.8981661773
 20
125.1628486577
 30
0.0
 10
35.8865198709
 20
125.7557727016
 30
0.0
 10
35.8681623492
 20
126.302066076
 30
0.0
 10
35.8476739109
 20
126.7182540877
 30
0.0
 10
35.8288246248
 20
127.012429221
 30
0.0
 10
35.8147458355
 20
127.1989290685
 30
0.0
 10
35.8002946225
 20
127.3597195719
 30
0.0
 10
35.7857489694
 20
127.4932173332
 30
0.0
 10
35.7713338509
 20
127.5986791692
 30
0.0
 10
35.75775674
 20
127.6748444724
 30
0.0
 10
35.745632351
 20
127.7206155623
 30
0.0
 10
35.7359823799
 20
127.7413959317
 30
0.0
 10
35.7297915008
 20
127.7466573633
 30
0.0
 10
35.7272238368
 20
127.7466495924
 30
0.0
  0
SPLINE
  5
29A
100
AcDbEntity
  8
0
100
AcDbSpline
 62
7
  6
CONTINUOUS
 70
0
 71
3
 72
19
 73
15
 74
0
 42
0.0000001
 43
0.0000001
 44
0.0000000001
 40
0.0
 40
0.0
 40
0.0
 40
0.0
 40
0.3748873551
 40
0.5441714168
 40
0.6927571057
 40
0.7576754272
 40
0.8155285165
 40
0.8657434626
 40
0.9079705397
 40
0.9421358879
 40
0.968315909
 40
0.9785414391
 40
0.9870218762
 40
1.0
 40
1.0
 40
1.0
 40
1.0
 10
37.0462985729
 20
124.5461842532
 30
0.0
 10
37.0462985729
 20
124.9562214785
 30
0.0
 10
37.0296518718
 20
125.551700935
 30
0.0
 10
36.9707760806
 20
126.307227339
 30
0.0
 10
36.922089076
 20
126.7232306785
 30
0.0
 10
36.8761520459
 20
127.0164879242
 30
0.0
 10
36.8411508749
 20
127.2024686299
 30
0.0
 10
36.8044334801
 20
127.3627503445
 30
0.0
 10
36.7664906677
 20
127.4960391431
 30
0.0
 10
36.7278026459
 20
127.6014447212
 30
0.0
 10
36.6934247013
 20
127.6709255264
 30
0.0
 10
36.6643624163
 20
127.7108063957
 30
0.0
 10
36.6402227029
 20
127.7354323778
 30
0.0
 10
36.6171618802
 20
127.7466963855
 30
0.0
 10
36.6029669436
 20
127.7466667031
 30
0.0
  0
SPLINE
  5
29B
100
AcDbEntity
  8
0
100
AcDbSpline
 62
7
  6
CONTINUOUS
 70
0
 71
3
 72
13
 73
9
 74
0
 42
0.0000001
 43
0.0000001
 44
0.0000000001
 40
0.0
 40
0.0
 40
0.0
 40
0.0
 40
0.3762591973
 40
0.6952780732
 40
0.8180917283
 40
0.910685033
 40
0.9704333524
 40
1.0
 40
1.0
 40
1.0
 40
1.0
 10
82.268182408
 20
122.7600763248
 30
0.0
 10
82.3321938698
 20
122.7600763248
 30
0.0
 10
82.4503997774
 20
122.7629121173
 30
0.0
 10
82.5895703113
 20
122.7738894475
 30
0.0
 10
82.6791564754
 20
122.7867613149
 30
0.0
 10
82.7256852245
 20
122.7974721509
 30
0.0
 10
82.7535657519
 20
122.8061980695
 30
0.0
 10
82.7681824055
 20
122.8173533458
 30
0.0
 10
82.7681824055
 20
122.8223834004
 30
0.0
  0
SPLINE
  5
29C
100
AcDbEntity
  8
0
100
AcDbSpline
 62
7
  6
CONTINUOUS
 70
0
 71
3
 72
21
 73
17
 74
0
 42
0.0000001
 43
0.0000001
 44
0.0000000001
 40
0.0
 40
0.0
 40
0.0
 40
0.0
 40
0.1945819236
 40
0.3818587541
 40
0.5543023829
 40
0.6329283525
 40
0.7055089769
 40
0.7713311585
 40
0.8297355882
 40
0.8800856758
 40
0.9218641956
 40
0.9548368519
 40
0.9788281231
 40
0.9937054686
 40
0.9977866293
 40
1.0
 40
1.0
 40
1.0
 40
1.0
 10
21.1331624157
 20
70.8517238195
 30
0.0
 10
21.1331624112
 20
70.6404213875
 30
0.0
 10
21.1337387962
 20
70.2257490184
 30
0.0
 10
21.1364682882
 20
69.6238203678
 30
0.0
 10
21.1406743502
 20
69.1478225301
 30
0.0
 10
21.1456079861
 20
68.7963944292
 30
0.0
 10
21.1499459524
 20
68.560755956
 30
0.0
 10
21.1550952677
 20
68.3470952298
 30
0.0
 10
21.1610861321
 20
68.1576166336
 30
0.0
 10
21.1679652147
 20
67.994267186
 30
0.0
 10
21.1757058424
 20
67.8586908956
 30
0.0
 10
21.1843622182
 20
67.7516360971
 30
0.0
 10
21.1933482913
 20
67.6744965989
 30
0.0
 10
21.2025800539
 20
67.6279886006
 30
0.0
 10
21.2103434887
 20
67.6069511553
 30
0.0
 10
21.2159382066
 20
67.6012921781
 30
0.0
 10
21.218341313
 20
67.6012451467
 30
0.0
  0
SPLINE
  5
29D
100
AcDbEntity
  8
0
100
AcDbSpline
 62
7
  6
CONTINUOUS
 70
0
 71
3
 72
20
 73
16
 74
0
 42
0.0000001
 43
0.0000001
 44
0.0000000001
 40
0.0
 40
0.0
 40
0.0
 40
0.0
 40
0.1920967573
 40
0.3769503125
 40
0.5471423974
 40
0.6964438247
 40
0.7615284423
 40
0.8194014032
 40
0.8694946058
 40
0.911391796
 40
0.9450029298
 40
0.9704121302
 40
0.9801742246
 40
0.9881401635
 40
1.0
 40
1.0
 40
1.0
 40
1.0
 10
21.6897239675
 20
70.8517067661
 30
0.0
 10
21.6897239393
 20
70.6398788267
 30
0.0
 10
21.6933773575
 20
70.2242009623
 30
0.0
 10
21.7097379115
 20
69.6210408512
 30
0.0
 10
21.7368024862
 20
69.0655047674
 30
0.0
 10
21.7689628692
 20
68.6425526586
 30
0.0
 10
21.8009836206
 20
68.3440177499
 30
0.0
 10
21.8261623463
 20
68.1548313886
 30
0.0
 10
21.8534496661
 20
67.9918088461
 30
0.0
 10
21.882653834
 20
67.8563280717
 30
0.0
 10
21.9135659496
 20
67.7493457047
 30
0.0
 10
21.9420136548
 20
67.6787127474
 30
0.0
 10
21.9671315567
 20
67.638002144
 30
0.0
 10
21.9879445364
 20
67.6131655037
 30
0.0
 10
22.0091228414
 20
67.6012950836
 30
0.0
 10
22.0222006071
 20
67.6012139678
 30
0.0
  0
SPLINE
  5
29E
100
AcDbEntity
  8
0
100
AcDbSpline
 62
7
  6
CONTINUOUS
 70
0
 71
3
 72
21
 73
17
 74
0
 42
0.0000001
 43
0.0000001
 44
0.0000000001
 40
0.0
 40
0.0
 40
0.0
 40
0.0
 40
0.1945794461
 40
0.3819010936
 40
0.5543442204
 40
0.6329209428
 40
0.7054613357
 40
0.7712816398
 40
0.8297006185
 40
0.8800435286
 40
0.9218234251
 40
0.9548197174
 40
0.9788458294
 40
0.9937349125
 40
0.9978041441
 40
1.0
 40
1.0
 40
1.0
 40
1.0
 10
21.1331624157
 20
109.4458719365
 30
0.0
 10
21.1331624203
 20
109.2345673843
 30
0.0
 10
21.133744118
 20
108.8198396021
 30
0.0
 10
21.1364677816
 20
108.2178518103
 30
0.0
 10
21.1406672576
 20
107.7418484027
 30
0.0
 10
21.1456072571
 20
107.3905101083
 30
0.0
 10
21.149949588
 20
107.1549655674
 30
0.0
 10
21.1550989246
 20
106.941329963
 30
0.0
 10
21.1610836281
 20
106.7518407959
 30
0.0
 10
21.1679684031
 20
106.5884785458
 30
0.0
 10
21.1757053124
 20
106.4528790764
 30
0.0
 10
21.1843723956
 20
106.3457584597
 30
0.0
 10
21.1933297472
 20
106.2685362309
 30
0.0
 10
21.2026021244
 20
106.2219953355
 30
0.0
 10
21.2103048906
 20
106.2009634548
 30
0.0
 10
21.2159563245
 20
106.1953584657
 30
0.0
 10
21.2183409144
 20
106.195365772
 30
0.0
  0
SPLINE
  5
29F
100
AcDbEntity
  8
0
100
AcDbSpline
 62
7
  6
CONTINUOUS
 70
0
 71
3
 72
20
 73
16
 74
0
 42
0.0000001
 43
0.0000001
 44
0.0000000001
 40
0.0
 40
0.0
 40
0.0
 40
0.0
 40
0.1920913189
 40
0.3769886426
 40
0.5471799655
 40
0.6963926556
 40
0.7614740265
 40
0.8193608644
 40
0.8694507186
 40
0.9113516624
 40
0.9449828963
 40
0.9704175488
 40
0.980186388
 40
0.9881525963
 40
1.0
 40
1.0
 40
1.0
 40
1.0
 10
21.6897239675
 20
109.4458889898
 30
0.0
 10
21.6897239958
 20
109.2340635696
 30
0.0
 10
21.6934063245
 20
108.8183368387
 30
0.0
 10
21.7097361181
 20
108.2151252585
 30
0.0
 10
21.7367542101
 20
107.6596272544
 30
0.0
 10
21.7689800895
 20
107.2367756004
 30
0.0
 10
21.8009960726
 20
106.938322341
 30
0.0
 10
21.8261547445
 20
106.749121957
 30
0.0
 10
21.8534488666
 20
106.5860816582
 30
0.0
 10
21.8826563099
 20
106.4505763423
 30
0.0
 10
21.913568511
 20
106.3435360669
 30
0.0
 10
21.9420048582
 20
106.2728362486
 30
0.0
 10
21.9671251633
 20
106.2320821428
 30
0.0
 10
21.9879203403
 20
106.2072425448
 30
0.0
 10
22.009135749
 20
106.1954028665
 30
0.0
 10
22.0222002666
 20
106.1953920905
 30
0.0
  0
SPLINE
  5
2A0
100
AcDbEntity
  8
0
100
AcDbSpline
 62
7
  6
CONTINUOUS
 70
0
 71
3
 72
21
 73
17
 74
0
 42
0.0000001
 43
0.0000001
 44
0.0000000001
 40
0.0
 40
0.0
 40
0.0
 40
0.0
 40
0.0021797439
 40
0.0062319257
 40
0.0211159295
 40
0.0451739227
 40
0.0782147906
 40
0.1200107272
 40
0.170314107
 40
0.2286904576
 40
0.2944991826
 40
0.3670773165
 40
0.4457070484
 40
0.6181365579
 40
0.8053983027
 40
1.0
 40
1.0
 40
1.0
 40
1.0
 10
21.2183413402
 20
112.6963576383
 30
0.0
 10
21.2159746455
 20
112.6964027957
 30
0.0
 10
21.2102734756
 20
112.6908812732
 30
0.0
 10
21.2026138854
 20
112.6698574567
 30
0.0
 10
21.1933094047
 20
112.6233332103
 30
0.0
 10
21.1843798098
 20
112.5460156588
 30
0.0
 10
21.1757078803
 20
112.4387998447
 30
0.0
 10
21.1679760088
 20
112.3031735461
 30
0.0
 10
21.1610796487
 20
112.1398831137
 30
0.0
 10
21.1550937886
 20
111.9504937633
 30
0.0
 10
21.1499446511
 20
111.7368742083
 30
0.0
 10
21.1456072246
 20
111.5012414175
 30
0.0
 10
21.1406754981
 20
111.1498160864
 30
0.0
 10
21.1364688535
 20
110.6738307465
 30
0.0
 10
21.1337388785
 20
110.0718932039
 30
0.0
 10
21.1331624112
 20
109.6572025597
 30
0.0
 10
21.1331624157
 20
109.4458719365
 30
0.0
  0
SPLINE
  5
2A1
100
AcDbEntity
  8
0
100
AcDbSpline
 62
7
  6
CONTINUOUS
 70
0
 71
3
 72
20
 73
16
 74
0
 42
0.0000001
 43
0.0000001
 44
0.0000000001
 40
0.0
 40
0.0
 40
0.0
 40
0.0
 40
0.0118260533
 40
0.019786818
 40
0.029558986
 40
0.0550249504
 40
0.088696093
 40
0.1306082659
 40
0.1806579038
 40
0.2385047063
 40
0.3035764378
 40
0.4528770578
 40
0.623053162
 40
0.8078888373
 40
1.0
 40
1.0
 40
1.0
 40
1.0
 10
22.0222007184
 20
112.6963894149
 30
0.0
 10
22.0091595798
 20
112.6964650569
 30
0.0
 10
21.9878941777
 20
112.6847151075
 30
0.0
 10
21.9671199625
 20
112.6598885743
 30
0.0
 10
21.9419948093
 20
112.6190976896
 30
0.0
 10
21.9135798153
 20
112.5482965065
 30
0.0
 10
21.8826800779
 20
112.4411568964
 30
0.0
 10
21.8534739317
 20
112.3056353271
 30
0.0
 10
21.826144029
 20
112.1426736787
 30
0.0
 10
21.8009757886
 20
111.9535684859
 30
0.0
 10
21.7689539488
 20
111.6550643446
 30
0.0
 10
21.7368096329
 20
111.2321242309
 30
0.0
 10
21.7097384317
 20
110.6766016487
 30
0.0
 10
21.6933770871
 20
110.0734354059
 30
0.0
 10
21.6897239393
 20
109.6577424626
 30
0.0
 10
21.6897239675
 20
109.4458889898
 30
0.0
  0
SPLINE
  5
2A2
100
AcDbEntity
  8
0
100
AcDbSpline
 62
7
  6
CONTINUOUS
 70
0
 71
3
 72
20
 73
16
 74
0
 42
0.0000001
 43
0.0000001
 44
0.0000000001
 40
0.0
 40
0.0
 40
0.0
 40
0.0
 40
0.1945205649
 40
0.3817841007
 40
0.5542197555
 40
0.7053347805
 40
0.7711117229
 40
0.8294924183
 40
0.8798521956
 40
0.9216932765
 40
0.9547257447
 40
0.9787078866
 40
0.9935480263
 40
0.9976570993
 40
1.0
 40
1.0
 40
1.0
 40
1.0
 10
35.6348020545
 20
124.5461410041
 30
0.0
 10
35.6348020545
 20
124.3380905618
 30
0.0
 10
35.635440667
 20
123.9297511924
 30
0.0
 10
35.6384072449
 20
123.336988477
 30
0.0
 10
35.6437695921
 20
122.7906683605
 30
0.0
 10
35.650859528
 20
122.3743148003
 30
0.0
 10
35.6586853919
 20
122.0799950067
 30
0.0
 10
35.6651951147
 20
121.8934549482
 30
0.0
 10
35.6726617859
 20
121.7325522316
 30
0.0
 10
35.681063538
 20
121.5989081973
 30
0.0
 10
35.6903983867
 20
121.4934541787
 30
0.0
 10
35.7002021964
 20
121.4174731089
 30
0.0
 10
35.7100935825
 20
121.3720208854
 30
0.0
 10
35.7187098391
 20
121.3512788238
 30
0.0
 10
35.7247179799
 20
121.3461130827
 30
0.0
 10
35.7272238222
 20
121.3461033489
 30
0.0
  0
SPLINE
  5
2A3
100
AcDbEntity
  8
0
100
AcDbSpline
 62
7
  6
CONTINUOUS
 70
0
 71
3
 72
17
 73
13
 74
0
 42
0.0000001
 43
0.0000001
 44
0.0000000001
 40
0.0
 40
0.0
 40
0.0
 40
0.0
 40
0.376410809
 40
0.5463849788
 40
0.6954346014
 40
0.7604246755
 40
0.8182522405
 40
0.868368808
 40
0.9104074093
 40
0.9442519791
 40
0.9699721179
 40
1.0
 40
1.0
 40
1.0
 40
1.0
 10
36.2425589743
 20
124.5461596261
 30
0.0
 10
36.2425589743
 20
124.1366599916
 30
0.0
 10
36.2532207024
 20
123.5421002848
 30
0.0
 10
36.2936203375
 20
122.7865474909
 30
0.0
 10
36.3285638868
 20
122.3701405465
 30
0.0
 10
36.363322628
 20
122.076370228
 30
0.0
 10
36.3905890414
 20
121.8902519743
 30
0.0
 10
36.4203229579
 20
121.7295703751
 30
0.0
 10
36.4516350953
 20
121.5966199337
 30
0.0
 10
36.4860604959
 20
121.4897645588
 30
0.0
 10
36.5231445138
 20
121.4043727451
 30
0.0
 10
36.5702995129
 20
121.3461409799
 30
0.0
 10
36.6029670184
 20
121.3461128492
 30
0.0
  0
SPLINE
  5
2A4
100
AcDbEntity
  8
0
100
AcDbSpline
 62
7
  6
CONTINUOUS
 70
0
 71
3
 72
13
 73
9
 74
0
 42
0.0000001
 43
0.0000001
 44
0.0000000001
 40
0.0
 40
0.0
 40
0.0
 40
0.0
 40
0.3767395147
 40
0.6960594656
 40
0.8188498453
 40
0.9112667022
 40
0.9707050831
 40
1.0
 40
1.0
 40
1.0
 40
1.0
 10
82.268182408
 20
57.4183966251
 30
0.0
 10
82.3321626583
 20
57.4183966251
 30
0.0
 10
82.4502858271
 20
57.4207282054
 30
0.0
 10
82.5894396643
 20
57.4300371159
 30
0.0
 10
82.6790833074
 20
57.4413704623
 30
0.0
 10
82.7256298406
 20
57.4512250093
 30
0.0
 10
82.753514917
 20
57.459273477
 30
0.0
 10
82.7681824055
 20
57.4702373103
 30
0.0
 10
82.7681824055
 20
57.4752123555
 30
0.0
  0
SPLINE
  5
2A5
100
AcDbEntity
  8
0
100
AcDbSpline
 62
7
  6
CONTINUOUS
 70
0
 71
3
 72
21
 73
17
 74
0
 42
0.0000001
 43
0.0000001
 44
0.0000000001
 40
0.0
 40
0.0
 40
0.0
 40
0.0
 40
0.0022026676
 40
0.0062779686
 40
0.0211657665
 40
0.0451742079
 40
0.0781496728
 40
0.1199234571
 40
0.1702802838
 40
0.2287070682
 40
0.2945290399
 40
0.3670677361
 40
0.4456438431
 40
0.6180989767
 40
0.8054267328
 40
1.0
 40
1.0
 40
1.0
 40
1.0
 10
21.2183409675
 20
74.1022303441
 30
0.0
 10
21.2159490137
 20
74.1022182022
 30
0.0
 10
21.2103181236
 20
74.0965880421
 30
0.0
 10
21.2025957346
 20
74.075549751
 30
0.0
 10
21.1933386079
 20
74.0290192525
 30
0.0
 10
21.1843696085
 20
73.951843508
 30
0.0
 10
21.175705122
 20
73.8447711712
 30
0.0
 10
21.1679673862
 20
73.7091869805
 30
0.0
 10
21.1610876873
 20
73.5458083492
 30
0.0
 10
21.1551012237
 20
73.3562949684
 30
0.0
 10
21.1499510361
 20
73.1426521321
 30
0.0
 10
21.1456078146
 20
72.9071096548
 30
0.0
 10
21.140666719
 20
72.5557628427
 30
0.0
 10
21.1364674503
 20
72.0797431355
 30
0.0
 10
21.1337441989
 20
71.4777458054
 30
0.0
 10
21.1331624203
 20
71.0630204595
 30
0.0
 10
21.1331624157
 20
70.8517238195
 30
0.0
  0
SPLINE
  5
2A6
100
AcDbEntity
  8
0
100
AcDbSpline
 62
7
  6
CONTINUOUS
 70
0
 71
3
 72
17
 73
13
 74
0
 42
0.0000001
 43
0.0000001
 44
0.0000000001
 40
0.0
 40
0.0
 40
0.0
 40
0.0
 40
0.0300136891
 40
0.0557221137
 40
0.0895627894
 40
0.1316079281
 40
0.1817363319
 40
0.239557268
 40
0.3045351022
 40
0.4535699418
 40
0.6235580634
 40
1.0
 40
1.0
 40
1.0
 40
1.0
 10
36.602966893
 20
58.9514541549
 30
0.0
 10
36.5703148985
 20
58.9514035839
 30
0.0
 10
36.5231431777
 20
58.8932830341
 30
0.0
 10
36.4860629103
 20
58.8078992571
 30
0.0
 10
36.4516395904
 20
58.7010616462
 30
0.0
 10
36.4203338364
 20
58.5680906371
 30
0.0
 10
36.3906135261
 20
58.4073949407
 30
0.0
 10
36.3633370186
 20
58.22128602
 30
0.0
 10
36.3285712095
 20
57.9275538162
 30
0.0
 10
36.2936194749
 20
57.5111621519
 30
0.0
 10
36.2532341264
 20
56.7555765823
 30
0.0
 10
36.2425589743
 20
56.1609690853
 30
0.0
 10
36.2425589743
 20
55.7514361298
 30
0.0
  0
SPLINE
  5
2A7
100
AcDbEntity
  8
0
100
AcDbSpline
 62
7
  6
CONTINUOUS
 70
0
 71
3
 72
20
 73
16
 74
0
 42
0.0000001
 43
0.0000001
 44
0.0000000001
 40
0.0
 40
0.0
 40
0.0
 40
0.0
 40
0.0023427898
 40
0.0064478537
 40
0.0212742441
 40
0.0452491487
 40
0.0782818648
 40
0.1201306066
 40
0.1704981282
 40
0.228870683
 40
0.2946355814
 40
0.4457362478
 40
0.6181851322
 40
0.8054719449
 40
1.0
 40
1.0
 40
1.0
 40
1.0
 10
35.7272238581
 20
58.9514668988
 30
0.0
 10
35.7247181717
 20
58.951453093
 30
0.0
 10
35.718715367
 20
58.9462962144
 30
0.0
 10
35.7100893136
 20
58.9255744019
 30
0.0
 10
35.7002008642
 20
58.8801513628
 30
0.0
 10
35.6903988431
 20
58.8041918872
 30
0.0
 10
35.6810643708
 20
58.6987382813
 30
0.0
 10
35.672663413
 20
58.5650782319
 30
0.0
 10
35.6651998133
 20
58.4041688255
 30
0.0
 10
35.6586875216
 20
58.2176435149
 30
0.0
 10
35.6508608047
 20
57.9233628273
 30
0.0
 10
35.6437696457
 20
57.5070263816
 30
0.0
 10
35.6384088074
 20
56.9606865077
 30
0.0
 10
35.635440554
 20
56.3678810299
 30
0.0
 10
35.6348020545
 20
55.959511702
 30
0.0
 10
35.6348020545
 20
55.7514547518
 30
0.0
  0
SPLINE
  5
2A8
100
AcDbEntity
  8
0
100
AcDbSpline
 62
7
  6
CONTINUOUS
 70
0
 71
3
 72
17
 73
13
 74
0
 42
0.0000001
 43
0.0000001
 44
0.0000000001
 40
0.0
 40
0.0
 40
0.0
 40
0.0
 40
0.0301333394
 40
0.0558932739
 40
0.0896904626
 40
0.1316675254
 40
0.1817826335
 40
0.2396448587
 40
0.3046654992
 40
0.4536850973
 40
0.6236196491
 40
1.0
 40
1.0
 40
1.0
 40
1.0
 10
36.6029669436
 20
127.7466667031
 30
0.0
 10
36.570182368
 20
127.7465981485
 30
0.0
 10
36.5232621996
 20
127.6877861992
 30
0.0
 10
36.4861010722
 20
127.6024020325
 30
0.0
 10
36.4516349308
 20
127.4956027533
 30
0.0
 10
36.4202906017
 20
127.3627817559
 30
0.0
 10
36.3905843367
 20
127.2021096272
 30
0.0
 10
36.3633305921
 20
127.0159071023
 30
0.0
 10
36.3285868659
 20
126.7220742435
 30
0.0
 10
36.2936075259
 20
126.3056831387
 30
0.0
 10
36.2532011586
 20
125.5501832397
 30
0.0
 10
36.2425589743
 20
124.9556561262
 30
0.0
 10
36.2425589743
 20
124.5461596261
 30
0.0
  0
SPLINE
  5
2A9
100
AcDbEntity
  8
0
100
AcDbSpline
 62
7
  6
CONTINUOUS
 70
0
 71
3
 72
20
 73
16
 74
0
 42
0.0000001
 43
0.0000001
 44
0.0000000001
 40
0.0
 40
0.0
 40
0.0
 40
0.0
 40
0.1945047459
 40
0.3817408804
 40
0.5541068844
 40
0.7051782889
 40
0.770979787
 40
0.829377866
 40
0.8796980031
 40
0.9214742639
 40
0.9544874435
 40
0.9785498811
 40
0.9935104986
 40
0.9976549188
 40
1.0
 40
1.0
 40
1.0
 40
1.0
 10
35.6348020545
 20
55.7514547518
 30
0.0
 10
35.6348020545
 20
55.5433931387
 30
0.0
 10
35.635439548
 20
55.1350448621
 30
0.0
 10
35.6384048439
 20
54.5423228478
 30
0.0
 10
35.6437678469
 20
53.9960794059
 30
0.0
 10
35.6508636151
 20
53.579764694
 30
0.0
 10
35.6586823566
 20
53.2854067134
 30
0.0
 10
35.6651834445
 20
53.0988388058
 30
0.0
 10
35.6726536064
 20
52.9380072035
 30
0.0
 10
35.6810598096
 20
52.8044792307
 30
0.0
 10
35.6904203271
 20
52.699013367
 30
0.0
 10
35.7002151682
 20
52.6228369209
 30
0.0
 10
35.710130543
 20
52.5771022417
 30
0.0
 10
35.7186794814
 20
52.5561881229
 30
0.0
 10
35.7247153053
 20
52.5509338319
 30
0.0
 10
35.7272238108
 20
52.5509453439
 30
0.0
  0
SPLINE
  5
2AA
100
AcDbEntity
  8
0
100
AcDbSpline
 62
7
  6
CONTINUOUS
 70
0
 71
3
 72
17
 73
13
 74
0
 42
0.0000001
 43
0.0000001
 44
0.0000000001
 40
0.0
 40
0.0
 40
0.0
 40
0.0
 40
0.3764049056
 40
0.5463439835
 40
0.6953547543
 40
0.7603727844
 40
0.8182326845
 40
0.8683429046
 40
0.9103137439
 40
0.944109064
 40
0.9698748191
 40
1.0
 40
1.0
 40
1.0
 40
1.0
 10
36.2425589743
 20
55.7514361298
 30
0.0
 10
36.2425589743
 20
55.3419112798
 30
0.0
 10
36.2532068468
 20
54.7473503847
 30
0.0
 10
36.2936085823
 20
53.991825004
 30
0.0
 10
36.3285961549
 20
53.5754405196
 30
0.0
 10
36.3633408957
 20
53.2816215311
 30
0.0
 10
36.3905934692
 20
53.0954293119
 30
0.0
 10
36.4203003549
 20
52.9347701169
 30
0.0
 10
36.4516440289
 20
52.8019668236
 30
0.0
 10
36.4861201581
 20
52.6951614777
 30
0.0
 10
36.5232511493
 20
52.609805858
 30
0.0
 10
36.5701910463
 20
52.5509085848
 30
0.0
 10
36.6029669454
 20
52.5509214494
 30
0.0
  0
SPLINE
  5
2AB
100
AcDbEntity
  8
0
100
AcDbSpline
 62
7
  6
CONTINUOUS
 70
0
 71
3
 72
20
 73
16
 74
0
 42
0.0000001
 43
0.0000001
 44
0.0000000001
 40
0.0
 40
0.0
 40
0.0
 40
0.0
 40
0.0118401291
 40
0.0198052412
 40
0.0295746143
 40
0.0550084419
 40
0.0886303088
 40
0.1305222036
 40
0.180611293
 40
0.2384993567
 40
0.303583329
 40
0.4528049401
 40
0.6230076903
 40
0.807908033
 40
1.0
 40
1.0
 40
1.0
 40
1.0
 10
22.0222004101
 20
74.1021969957
 30
0.0
 10
22.0091438567
 20
74.1022197459
 30
0.0
 10
21.9879137972
 20
74.0903954297
 30
0.0
 10
21.96713099
 20
74.0655590414
 30
0.0
 10
21.9420160876
 20
74.0248024169
 30
0.0
 10
21.9135865601
 20
73.9541120329
 30
0.0
 10
21.8826695447
 20
73.8470944661
 30
0.0
 10
21.8534623603
 20
73.7116097583
 30
0.0
 10
21.8261716262
 20
73.5485775664
 30
0.0
 10
21.8010097698
 20
73.3593731608
 30
0.0
 10
21.7689889496
 20
73.0609045645
 30
0.0
 10
21.7367584645
 20
72.6380254906
 30
0.0
 10
21.709735361
 20
72.0824988097
 30
0.0
 10
21.6934039806
 20
71.4792672052
 30
0.0
 10
21.6897239958
 20
71.0635340865
 30
0.0
 10
21.6897239675
 20
70.8517067661
 30
0.0
  0
SPLINE
  5
2AC
100
AcDbEntity
  8
0
100
AcDbSpline
 62
7
  6
CONTINUOUS
 70
0
 71
3
 72
13
 73
9
 74
0
 42
0.0000001
 43
0.0000001
 44
0.0000000001
 40
0.0
 40
0.0
 40
0.0
 40
0.0
 40
0.0292939676
 40
0.0887307979
 40
0.1811461532
 40
0.3039352254
 40
0.6232571729
 40
1.0
 40
1.0
 40
1.0
 40
1.0
 10
82.7681824055
 20
122.8223834004
 30
0.0
 10
82.7681824055
 20
122.8273582861
 30
0.0
 10
82.7535159921
 20
122.8383223586
 30
0.0
 10
82.7256310581
 20
122.8463703321
 30
0.0
 10
82.679085491
 20
122.8562249388
 30
0.0
 10
82.5894418675
 20
122.8675584835
 30
0.0
 10
82.4502873723
 20
122.8768674648
 30
0.0
 10
82.3321632425
 20
122.8791991308
 30
0.0
 10
82.268182408
 20
122.8791991308
 30
0.0
  0
SPLINE
  5
2AD
100
AcDbEntity
  8
0
100
AcDbSpline
 62
7
  6
CONTINUOUS
 70
0
 71
3
 72
20
 73
16
 74
0
 42
0.0000001
 43
0.0000001
 44
0.0000000001
 40
0.0
 40
0.0
 40
0.0
 40
0.0
 40
0.0023517571
 40
0.0065027018
 40
0.021460304
 40
0.0454951082
 40
0.0784728642
 40
0.1202367196
 40
0.1705789635
 40
0.2289876435
 40
0.2947870824
 40
0.4458439938
 40
0.6182378866
 40
0.8054989548
 40
1.0
 40
1.0
 40
1.0
 40
1.0
 10
35.7272238368
 20
127.7466495924
 30
0.0
 10
35.7247081931
 20
127.746641979
 30
0.0
 10
35.7186921092
 20
127.7413571097
 30
0.0
 10
35.7101295617
 20
127.7204410882
 30
0.0
 10
35.7002256671
 20
127.6747261881
 30
0.0
 10
35.6904211795
 20
127.5986257458
 30
0.0
 10
35.6810603093
 20
127.4932402368
 30
0.0
 10
35.6726539222
 20
127.359741323
 30
0.0
 10
35.6651928754
 20
127.1988884859
 30
0.0
 10
35.6586887621
 20
127.0122893334
 30
0.0
 10
35.6508674332
 20
126.7179398551
 30
0.0
 10
35.6437666679
 20
126.301616103
 30
0.0
 10
35.6384049707
 20
125.7553355378
 30
0.0
 10
35.6354399932
 20
125.1625652323
 30
0.0
 10
35.6348020545
 20
124.7541971678
 30
0.0
 10
35.6348020545
 20
124.5461410041
 30
0.0
  0
ENDSEC
  0
SECTION
  2
OBJECTS
  0
DICTIONARY
  5
C
100
AcDbDictionary
280
0
281
1
  3
ACAD_GROUP
350
D
  3
ACAD_MLINESTYLE
350
17
  3
ACAD_LAYOUT
350
1A
  3
ACAD_PLOTSETTINGS
350
19
  3
ACAD_PLOTSTYLENAME
350
E
  0
DICTIONARY
  5
D
102
{ACAD_REACTORS
330
C
102
}
100
AcDbDictionary
280
0
281
1
  0
ACDBDICTIONARYWDFLT
  5
E
102
{ACAD_REACTORS
330
C
102
}
100
AcDbDictionary
281
1
  3
Normal
350
F
100
AcDbDictionaryWithDefault
340
F
  0
DICTIONARY
  5
17
102
{ACAD_REACTORS
330
C
102
}
100
AcDbDictionary
280
0
281
1
  3
Standard
350
18
  0
DICTIONARY
  5
19
102
{ACAD_REACTORS
330
C
102
}
100
AcDbDictionary
281
1
  0
DICTIONARY
  5
1A
102
{ACAD_REACTORS
330
C
102
}
100
AcDbDictionary
281
1
  3
Model
350
2AE
  3
Layout1
350
2AF
  0
ACDBPLACEHOLDER
  5
F
102
{ACAD_REACTORS
330
E
102
}
  0
MLINESTYLE
  5
18
102
{ACAD_REACTORS
330
17
102
}
100
AcDbMlineStyle
  2
STANDARD
 70
0
  3

 62
256
 51
90.0
 52
90.0
 71
2
 49
0.5
 62
256
  6
BYLAYER
 49
-0.5
 62
256
  6
BYLAYER
  0
LAYOUT
  5
2AE
102
{ACAD_REACTORS
330
1A
102
}
100
AcDbPlotSettings
  1

  2
none_device
  4

  6

 40
0.0
 41
0.0
 42
0.0
 43
0.0
 44
210.0
 45
297.0
 46
0.0
 47
0.0
 48
0.0
 49
0.0
140
0.0
141
0.0
142
1.0
143
1.0
 70
1024
 72
1
 73
0
 74
0
  7

 75
0
147
1.0
148
0.0
149
0.0
100
AcDbLayout
  1
Model
 70
0
 71
0
 10
0.0
 20
0.0
 11
210.0
 21
297.0
 12
0.0
 22
0.0
 32
0.0
 14
0.0
 24
0.0
 34
0.0
 15
0.0
 25
0.0
 35
0.0
146
0.0
 13
0.0
 23
0.0
 33
0.0
 16
1.0
 26
0.0
 36
0.0
 17
0.0
 27
1.0
 37
0.0
 76
0
330
213
345
0
346
0
  0
LAYOUT
  5
2AF
102
{ACAD_REACTORS
330
1A
102
}
100
AcDbPlotSettings
  1

  2
none_device
  4

  6

 40
0.0
 41
0.0
 42
0.0
 43
0.0
 44
210.0
 45
297.0
 46
0.0
 47
0.0
 48
0.0
 49
0.0
140
0.0
141
0.0
142
1.0
143
1.0
 70
0
 72
1
 73
0
 74
0
  7

 75
0
147
1.0
148
0.0
149
0.0
100
AcDbLayout
  1
Layout1
 70
0
 71
1
 10
0.0
 20
0.0
 11
210.0
 21
297.0
 12
0.0
 22
0.0
 32
0.0
 14
0.0
 24
0.0
 34
0.0
 15
0.0
 25
0.0
 35
0.0
146
0.0
 13
0.0
 23
0.0
 33
0.0
 16
1.0
 26
0.0
 36
0.0
 17
0.0
 27
1.0
 37
0.0
 76
0
330
214
345
0
346
0
  0
ENDSEC
  0
EOF
