999
DXF file: C:\Users\sesa63760\Dev\_Creo\CAD\MCADID0002083_3D-CAD\drw0001_2.dxf
999
Pro/ENGINEER 2019471 by Parametric Technology Corporation
  0
SECTION
  2
HEADER
  9
$ACADVER
  1
AC1024
  9
$DWGCODEPAGE
  3
ANSI_1252
  9
$EXTMAX
 10
76.7367791387
 20
108.5277304962
 30
0.0
  9
$EXTMIN
 10
0.0
 20
0.0
 30
0.0
  9
$LIMMIN
 10
0.0
 20
0.0
  9
$LIMMAX
 10
76.7367791387
 20
108.5277304962
  9
$VIEWCTR
 10
38.3683895694
 20
54.2638652481
  9
$VIEWSIZE
 40
108.5277304962
  9
$CLAYER
  8
0
  9
$LTSCALE
 40
7.0744002101
  9
$CELTYPE
  6
BYLAYER
  9
$DIMSCALE
 40
1.0
  9
$DIMASZ
 40
0.913533085
  9
$DIMEXO
 40
1.0
  9
$DIMDLI
 40
4.8877674179
  9
$DIMEXE
 40
1.0
  9
$DIMCEN
 40
1.1576291253
  9
$DIMLFAC
 40
1.0
  9
$DIMBLK
  1
_FILLED
  9
$DIMALT
 70
0
  9
$DIMALTF
 40
0.0393700787
  9
$DIMTXT
 40
1.278946319
  9
$DIMTOL
 70
1
  9
$DIMLIM
 70
0
  9
$DIMTFAC
 40
1.0
  9
$DIMTP
 40
0.01
  9
$DIMTM
 40
0.01
  9
$DIMGAP
 40
0.625
  9
$DIMDSEP
 70
46
  9
$AUNITS
 70
0
  9
$PDMODE
 70
3
  9
$PDSIZE
 40
0.3125
  9
$HANDSEED
  5
335
  9
$TILEMODE
 70
1
  9
$MEASUREMENT
 70
1
  9
$INSUNITS
 70
4
  0
ENDSEC
  0
SECTION
  2
CLASSES
  0
CLASS
  1
ACDBDICTIONARYWDFLT
  2
AcDbDictionaryWithDefault
  3
AutoCAD 2000
 90
0
 91
1
280
0
281
0
  0
CLASS
  1
ACDBPLACEHOLDER
  2
AcDbPlaceHolder
  3
AutoCAD 2000
 90
0
 91
1
280
0
281
0
  0
CLASS
  1
LAYOUT
  2
AcDbLayout
  3
AutoCAD 2000
 90
0
 91
0
280
0
281
0
  0
ENDSEC
  0
SECTION
  2
TABLES
  0
TABLE
  2
VPORT
  5
8
100
AcDbSymbolTable
 70
2
  0
VPORT
  5
1F4
100
AcDbSymbolTableRecord
100
AcDbViewportTableRecord
  2
*ACTIVE
 70
0
 10
0.0
 20
0.0
 11
1.0
 21
1.0
 12
38.3683895694
 22
54.2638652481
 13
0.0
 23
0.0
 14
1.0
 24
1.0
 15
0.0
 25
0.0
 16
0.0
 26
0.0
 36
1.0
 17
0.0
 27
0.0
 37
0.0
 40
108.5277304962
 41
0.7070707071
 42
50.0
 43
0.0
 44
0.0
 50
0.0
 51
0.0
 71
0
 72
100
 73
1
 74
1
 75
0
 76
0
 77
0
 78
0
  0
ENDTAB
  0
TABLE
  2
LTYPE
  5
5
100
AcDbSymbolTable
 70
6
  0
LTYPE
  5
14
100
AcDbSymbolTableRecord
100
AcDbLinetypeTableRecord
  2
BYBLOCK
 70
0
  3

 72
65
 73
0
 40
0.0
  0
LTYPE
  5
15
100
AcDbSymbolTableRecord
100
AcDbLinetypeTableRecord
  2
BYLAYER
 70
0
  3

 72
65
 73
0
 40
0.0
  0
LTYPE
  5
16
100
AcDbSymbolTableRecord
100
AcDbLinetypeTableRecord
  2
CONTINUOUS
 70
64
  3
Solid line
 72
65
 73
0
 40
0.0
  0
LTYPE
  5
1F5
100
AcDbSymbolTableRecord
100
AcDbLinetypeTableRecord
  2
CENTER
 70
64
  3
____ _ ____ _ ____ _ ____ _ ____ _ ____ _ ____
 72
65
 73
4
 40
0.6
 49
0.375
 74
0
 49
-0.075
 74
0
 49
0.075
 74
0
 49
-0.075
 74
0
  0
LTYPE
  5
1F6
100
AcDbSymbolTableRecord
100
AcDbLinetypeTableRecord
  2
HIDDEN
 70
64
  3
- - - - - - - - - - - - - - - - - - - -
 72
65
 73
2
 40
0.2
 49
0.1
 74
0
 49
-0.1
 74
0
  0
LTYPE
  5
1F7
100
AcDbSymbolTableRecord
100
AcDbLinetypeTableRecord
  2
PHANTOM
 70
64
  3
_____ _ _ _____ _ _ _____ _ _ _____
 72
65
 73
6
 40
0.8
 49
0.45
 74
0
 49
-0.05
 74
0
 49
0.1
 74
0
 49
-0.05
 74
0
 49
0.1
 74
0
 49
-0.05
 74
0
  0
LTYPE
  5
1F8
100
AcDbSymbolTableRecord
100
AcDbLinetypeTableRecord
  2
DOT
 70
64
  3
. . . . . . . . . . . . . . . . . . . .
 72
65
 73
2
 40
0.2
 49
0.1
 74
0
 49
-0.1
 74
0
  0
LTYPE
  5
1F9
100
AcDbSymbolTableRecord
100
AcDbLinetypeTableRecord
  2
DASHED
 70
64
  3
- - - - - - - - - - - - - - - - - - - -
 72
65
 73
2
 40
0.2
 49
0.1
 74
0
 49
-0.1
 74
0
  0
ENDTAB
  0
TABLE
  2
LAYER
  5
2
100
AcDbSymbolTable
 70
36
  0
LAYER
  5
10
100
AcDbSymbolTableRecord
100
AcDbLayerTableRecord
  2
0
 70
0
 62
7
  6
CONTINUOUS
370
-3
390
F
  0
LAYER
  5
1FA
100
AcDbSymbolTableRecord
100
AcDbLayerTableRecord
  2
DEFAULT_1
 70
0
 62
7
  6
CENTER
370
-3
390
F
  0
LAYER
  5
1FB
100
AcDbSymbolTableRecord
100
AcDbLayerTableRecord
  2
DEFAULT_2
 70
0
 62
8
  6
HIDDEN
370
-3
390
F
  0
LAYER
  5
1FC
100
AcDbSymbolTableRecord
100
AcDbLayerTableRecord
  2
DEFAULT_3
 70
0
 62
7
  6
PHANTOM
370
-3
390
F
  0
LAYER
  5
1FD
100
AcDbSymbolTableRecord
100
AcDbLayerTableRecord
  2
00_COMPONENTS
 70
0
 62
7
  6
CONTINUOUS
370
-3
390
F
  0
LAYER
  5
1FE
100
AcDbSymbolTableRecord
100
AcDbLayerTableRecord
  2
01_1_DEFAULT_DATUMS
 70
0
 62
7
  6
CONTINUOUS
370
-3
390
F
  0
LAYER
  5
1FF
100
AcDbSymbolTableRecord
100
AcDbLayerTableRecord
  2
01_PLANES
 70
0
 62
7
  6
CONTINUOUS
370
-3
390
F
  0
LAYER
  5
200
100
AcDbSymbolTableRecord
100
AcDbLayerTableRecord
  2
02_COORD_SYS
 70
0
 62
7
  6
CONTINUOUS
370
-3
390
F
  0
LAYER
  5
201
100
AcDbSymbolTableRecord
100
AcDbLayerTableRecord
  2
03_AXES
 70
0
 62
7
  6
CONTINUOUS
370
-3
390
F
  0
LAYER
  5
202
100
AcDbSymbolTableRecord
100
AcDbLayerTableRecord
  2
04_POINTS
 70
0
 62
7
  6
CONTINUOUS
370
-3
390
F
  0
LAYER
  5
203
100
AcDbSymbolTableRecord
100
AcDbLayerTableRecord
  2
05_CURVES
 70
0
 62
7
  6
CONTINUOUS
370
-3
390
F
  0
LAYER
  5
204
100
AcDbSymbolTableRecord
100
AcDbLayerTableRecord
  2
06_SURFS
 70
0
 62
7
  6
CONTINUOUS
370
-3
390
F
  0
LAYER
  5
205
100
AcDbSymbolTableRecord
100
AcDbLayerTableRecord
  2
07_COSMETICS
 70
0
 62
7
  6
CONTINUOUS
370
-3
390
F
  0
LAYER
  5
206
100
AcDbSymbolTableRecord
100
AcDbLayerTableRecord
  2
10_NOTES
 70
0
 62
7
  6
CONTINUOUS
370
-3
390
F
  0
LAYER
  5
207
100
AcDbSymbolTableRecord
100
AcDbLayerTableRecord
  2
11_NOTES_PUB
 70
0
 62
7
  6
CONTINUOUS
370
-3
390
F
  0
LAYER
  5
208
100
AcDbSymbolTableRecord
100
AcDbLayerTableRecord
  2
13_REF_GTOL
 70
0
 62
7
  6
CONTINUOUS
370
-3
390
F
  0
LAYER
  5
209
100
AcDbSymbolTableRecord
100
AcDbLayerTableRecord
  2
16_MISC
 70
0
 62
7
  6
CONTINUOUS
370
-3
390
F
  0
LAYER
  5
20A
100
AcDbSymbolTableRecord
100
AcDbLayerTableRecord
  2
17_NO_PRINT
 70
0
 62
7
  6
CONTINUOUS
370
-3
390
F
  0
LAYER
  5
20B
100
AcDbSymbolTableRecord
100
AcDbLayerTableRecord
  2
18_DATUM_CAMS_JOINTS
 70
0
 62
7
  6
CONTINUOUS
370
-3
390
F
  0
LAYER
  5
20C
100
AcDbSymbolTableRecord
100
AcDbLayerTableRecord
  2
19_DATUM_FUNCTIONAL
 70
0
 62
7
  6
CONTINUOUS
370
-3
390
F
  0
LAYER
  5
20D
100
AcDbSymbolTableRecord
100
AcDbLayerTableRecord
  2
20_DATUM_KINEMATIC_SCHEME
 70
0
 62
7
  6
CONTINUOUS
370
-3
390
F
  0
ENDTAB
  0
TABLE
  2
STYLE
  5
3
100
AcDbSymbolTable
 70
1
  0
STYLE
  5
11
100
AcDbSymbolTableRecord
100
AcDbTextStyleTableRecord
  2
STANDARD
 70
0
 40
0.0
 41
0.8
 50
0.0
 71
0
 42
0.2
  3
txt
  4

  0
STYLE
  5
20E
100
AcDbSymbolTableRecord
100
AcDbTextStyleTableRecord
  2
TEXTSTYLE_1
 70
0
 40
0.0
 41
0.8
 50
0.0
 71
0
 42
0.2
  3
gdt
  4

  0
ENDTAB
  0
TABLE
  2
VIEW
  5
6
100
AcDbSymbolTable
 70
0
  0
ENDTAB
  0
TABLE
  2
UCS
  5
7
100
AcDbSymbolTable
 70
0
  0
ENDTAB
  0
TABLE
  2
APPID
  5
9
100
AcDbSymbolTable
 70
1
  0
APPID
  5
20F
100
AcDbSymbolTableRecord
100
AcDbRegAppTableRecord
  2
ACAD
 70
0
  0
ENDTAB
  0
TABLE
  2
BLOCK_RECORD
  5
1
100
AcDbSymbolTable
 70
0
  0
BLOCK_RECORD
  5
210
100
AcDbSymbolTableRecord
100
AcDbBlockTableRecord
  2
*Model_Space
  0
BLOCK_RECORD
  5
211
100
AcDbSymbolTableRecord
100
AcDbBlockTableRecord
  2
*Paper_Space
  0
BLOCK_RECORD
  5
212
100
AcDbSymbolTableRecord
100
AcDbBlockTableRecord
  2
_FILLED
  0
ENDTAB
  0
TABLE
  2
DIMSTYLE
  5
A
100
AcDbSymbolTable
 70
1
100
AcDbDimStyleTable
 71
0
  0
DIMSTYLE
105
213
100
AcDbSymbolTableRecord
100
AcDbDimStyleTableRecord
  2
STANDARD
 70
0
  3

  4

 40
1.0
 41
0.913533085
 42
1.0
 43
0.38
 44
1.0
 45
0.0
 46
0.0
 47
0.01
 48
0.01
140
1.278946319
141
0.09
142
0.0
143
25.4
144
1.0
145
0.0
146
1.0
147
0.625
 71
1
 72
0
 73
0
 74
0
 75
0
 76
0
 77
1
 78
8
 79
2
170
0
171
1
172
0
173
0
174
0
175
0
176
0
177
0
178
0
270
2
179
2
271
2
272
2
273
2
274
2
275
0
280
0
281
0
282
0
283
1
284
8
285
0
286
0
287
3
288
0
340
11
278
46
341
212
342
212
343
212
344
212
  0
ENDTAB
  0
ENDSEC
  0
SECTION
  2
BLOCKS
  0
BLOCK
  5
20
100
AcDbEntity
  8
0
100
AcDbBlockBegin
  2
*Model_Space
 70
0
 10
0.0
 20
0.0
 30
0.0
  3
*Model_Space
  1

  0
ENDBLK
  5
21
100
AcDbEntity
  8
0
100
AcDbBlockEnd
  0
BLOCK
  5
1C
100
AcDbEntity
  8
0
100
AcDbBlockBegin
  2
*Paper_Space
 70
0
 10
0.0
 20
0.0
 30
0.0
  3
*Paper_Space
  1

  0
ENDBLK
  5
1D
100
AcDbEntity
  8
0
100
AcDbBlockEnd
  0
BLOCK
  5
214
100
AcDbEntity
  8
0
100
AcDbBlockBegin
  2
_FILLED
 70
64
 10
0.0
 20
0.0
  3
_FILLED
  1

  0
SOLID
  5
215
100
AcDbEntity
  8
0
  6
BYBLOCK
 62
0
100
AcDbTrace
 10
0.0
 20
0.0
 11
-1.0
 21
0.25
 12
-1.0
 22
-0.25
 13
-1.0
 23
-0.25
  0
ENDBLK
  5
216
100
AcDbEntity
  8
0
  6
BYBLOCK
 62
0
100
AcDbBlockEnd
  0
ENDSEC
  0
SECTION
  2
ENTITIES
  0
LINE
  5
217
100
AcDbEntity
  8
0
100
AcDbLine
 62
7
  6
CONTINUOUS
 10
33.8999156881
 20
7.2396099289
 11
43.8999076029
 21
7.2396099289
  0
LINE
  5
218
100
AcDbEntity
  8
0
100
AcDbLine
 62
7
  6
CONTINUOUS
 10
43.8999125464
 20
10.7543285551
 11
33.8999099567
 21
10.754328555
  0
LWPOLYLINE
  5
219
100
AcDbEntity
  8
0
100
AcDbPolyline
 62
7
  6
CONTINUOUS
 90
4
 70
0
 10
20.6374804665
 20
17.798314742
 10
20.8901770059
 20
17.5776069517
 10
21.4520057364
 20
17.0766735906
 10
21.7227917984
 20
16.827944957
  0
LINE
  5
21A
100
AcDbEntity
  8
0
100
AcDbLine
 62
7
  6
CONTINUOUS
 10
21.7228192415
 20
16.8279115965
 11
21.7227775339
 21
16.8279503973
  0
LWPOLYLINE
  5
21B
100
AcDbEntity
  8
0
100
AcDbPolyline
 62
7
  6
CONTINUOUS
 90
3
 70
0
 10
21.8093585579
 20
16.8560605512
 10
23.9654854678
 20
14.6096079717
 10
24.9842324601
 20
12.8466628363
  0
LWPOLYLINE
  5
21C
100
AcDbEntity
  8
0
100
AcDbPolyline
 62
7
  6
CONTINUOUS
 90
4
 70
0
 10
21.7228192415
 20
16.8279115965
 10
23.6684652282
 20
14.7967681739
 10
24.3751955225
 20
13.7618104204
 10
24.9000600114
 20
12.1635251725
  0
LWPOLYLINE
  5
21D
100
AcDbEntity
  8
0
100
AcDbPolyline
 62
7
  6
CONTINUOUS
 90
3
 70
0
 10
17.2915251363
 20
26.423901284
 10
14.6990832573
 20
29.8388029306
 10
14.1011519402
 20
31.8944730929
  0
LWPOLYLINE
  5
21E
100
AcDbEntity
  8
0
100
AcDbPolyline
 62
7
  6
CONTINUOUS
 90
4
 70
0
 10
15.4702025485
 20
25.7396099289
 10
16.8298955345
 20
22.6619608115
 10
18.7347705414
 20
19.7824207208
 10
20.6374858393
 20
17.7983179957
  0
LINE
  5
21F
100
AcDbEntity
  8
0
100
AcDbLine
 62
7
  6
CONTINUOUS
 10
15.0814128994
 20
25.7396099289
 11
15.4772301625
 21
25.7396099289
  0
LINE
  5
220
100
AcDbEntity
  8
0
100
AcDbLine
 62
7
  6
CONTINUOUS
 10
62.3225866924
 20
25.7396099289
 11
62.7184068991
 21
25.7396099289
  0
LWPOLYLINE
  5
221
100
AcDbEntity
  8
0
100
AcDbPolyline
 62
7
  6
CONTINUOUS
 90
4
 70
0
 10
25.9110520476
 20
23.875380368
 10
23.7198318818
 20
23.8788926548
 10
19.1722358374
 20
25.1829884384
 10
17.2915251363
 20
26.423901284
  0
LINE
  5
222
100
AcDbEntity
  8
0
100
AcDbLine
 62
7
  6
CONTINUOUS
 10
55.9904369977
 20
16.8560422393
 11
56.076984409
 21
16.8279024404
  0
LINE
  5
223
100
AcDbEntity
  8
0
100
AcDbLine
 62
7
  6
CONTINUOUS
 10
13.4182276921
 20
36.1223974665
 11
13.4350380511
 21
36.0765031398
  0
LINE
  5
224
100
AcDbEntity
  8
0
100
AcDbLine
 62
7
  6
CONTINUOUS
 10
12.9006956028
 20
42.4308201537
 11
12.9018785995
 21
42.4271246568
  0
LWPOLYLINE
  5
225
100
AcDbEntity
  8
0
100
AcDbPolyline
 62
7
  6
CONTINUOUS
 90
4
 70
0
 10
12.9006954569
 20
42.4308345897
 10
12.9548288378
 20
40.5959953127
 10
13.1423673309
 20
38.2125962947
 10
13.4182276921
 20
36.1223974665
  0
LINE
  5
226
100
AcDbEntity
  8
0
100
AcDbLine
 62
7
  6
CONTINUOUS
 10
12.9006954301
 20
42.4308377022
 11
12.9006956028
 21
42.4308201537
  0
LINE
  5
227
100
AcDbEntity
  8
0
100
AcDbLine
 62
7
  6
CONTINUOUS
 10
12.8999098992
 20
45.4996099289
 11
12.9006954301
 21
42.4308377022
  0
LINE
  5
228
100
AcDbEntity
  8
0
100
AcDbLine
 62
7
  6
CONTINUOUS
 10
16.4277585828
 20
71.9738546462
 11
16.4301008082
 21
71.9852638198
  0
LINE
  5
229
100
AcDbEntity
  8
0
100
AcDbLine
 62
7
  6
CONTINUOUS
 10
19.2171791642
 20
80.6963343779
 11
19.2596167753
 21
80.8896099289
  0
LINE
  5
22A
100
AcDbEntity
  8
0
100
AcDbLine
 62
7
  6
CONTINUOUS
 10
15.9264370077
 20
22.9770452695
 11
15.5314157422
 21
22.9141317791
  0
LINE
  5
22B
100
AcDbEntity
  8
0
100
AcDbLine
 62
7
  6
CONTINUOUS
 10
62.2684040562
 20
22.9141317791
 11
61.8733825434
 21
22.9770453089
  0
LINE
  5
22C
100
AcDbEntity
  8
0
100
AcDbLine
 62
7
  6
CONTINUOUS
 10
15.5313908529
 20
22.914288054
 11
13.4351151509
 21
36.0763853291
  0
LINE
  5
22D
100
AcDbEntity
  8
0
100
AcDbLine
 62
7
  6
CONTINUOUS
 10
15.4956155829
 20
25.6820878236
 11
15.9264383813
 21
22.9770359092
  0
LINE
  5
22E
100
AcDbEntity
  8
0
100
AcDbLine
 62
7
  6
CONTINUOUS
 10
13.4181843396
 20
36.1226730327
 11
13.4257580321
 21
36.0749018421
  0
LINE
  5
22F
100
AcDbEntity
  8
0
100
AcDbLine
 62
7
  6
CONTINUOUS
 10
60.2797524527
 20
17.9045813492
 11
60.6395347846
 21
17.7301002266
  0
LWPOLYLINE
  5
230
100
AcDbEntity
  8
0
100
AcDbPolyline
 62
7
  6
CONTINUOUS
 90
6
 70
0
 10
24.9842324601
 20
12.8466628363
 10
25.1077447749
 20
11.4397277991
 10
24.8789986776
 20
11.0839955772
 10
23.9447815443
 20
10.9031246072
 10
22.4993630201
 20
11.4978276034
 10
20.6243240589
 20
12.9685401241
  0
LINE
  5
231
100
AcDbEntity
  8
0
100
AcDbLine
 62
7
  6
CONTINUOUS
 10
20.9137987124
 20
79.7992091179
 11
20.9237244059
 21
78.6618372951
  0
LINE
  5
232
100
AcDbEntity
  8
0
100
AcDbLine
 62
7
  6
CONTINUOUS
 10
19.8336826632
 20
78.5893589635
 11
19.813840596
 21
80.8896099289
  0
LINE
  5
233
100
AcDbEntity
  8
0
100
AcDbLine
 62
7
  6
CONTINUOUS
 10
20.899909418
 20
17.5689294141
 11
20.8999091639
 21
13.2543966871
  0
LINE
  5
234
100
AcDbEntity
  8
0
100
AcDbLine
 62
7
  6
CONTINUOUS
 10
20.9813551398
 20
42.8396099289
 11
20.9813551398
 21
43.2651887586
  0
LINE
  5
235
100
AcDbEntity
  8
0
100
AcDbLine
 62
7
  6
CONTINUOUS
 10
20.9830386759
 20
45.2176551002
 11
20.9830386759
 21
45.4996099289
  0
LINE
  5
236
100
AcDbEntity
  8
0
100
AcDbLine
 62
7
  6
CONTINUOUS
 10
21.1499098992
 20
77.5580818193
 11
21.1499098992
 21
72.7443819297
  0
LINE
  5
237
100
AcDbEntity
  8
0
100
AcDbLine
 62
7
  6
CONTINUOUS
 10
21.2419607068
 20
44.2396099289
 11
21.2419607068
 21
45.4249936357
  0
LINE
  5
238
100
AcDbEntity
  8
0
100
AcDbLine
 62
7
  6
CONTINUOUS
 10
55.6423580972
 20
33.3887268345
 11
59.7625590257
 21
32.695405592
  0
LINE
  5
239
100
AcDbEntity
  8
0
100
AcDbLine
 62
7
  6
CONTINUOUS
 10
23.8999098992
 20
83.8556353327
 11
23.8999098992
 21
97.6353963127
  0
LINE
  5
23A
100
AcDbEntity
  8
0
100
AcDbLine
 62
7
  6
CONTINUOUS
 10
24.8999008502
 20
12.1629636972
 11
24.8999098992
 21
12.1689468485
  0
LINE
  5
23B
100
AcDbEntity
  8
0
100
AcDbLine
 62
7
  6
CONTINUOUS
 10
22.2628972263
 20
42.6910151229
 11
22.2706997585
 21
44.2396099289
  0
LINE
  5
23C
100
AcDbEntity
  8
0
100
AcDbLine
 62
7
  6
CONTINUOUS
 10
23.0416914563
 20
44.2396099289
 11
23.0537385269
 21
45.6169732152
  0
LINE
  5
23D
100
AcDbEntity
  8
0
100
AcDbLine
 62
7
  6
CONTINUOUS
 10
14.1012054761
 20
31.8945383842
 11
15.135429166
 21
32.157206286
  0
LWPOLYLINE
  5
23E
100
AcDbEntity
  8
0
100
AcDbPolyline
 62
7
  6
CONTINUOUS
 90
3
 70
0
 10
15.135429166
 20
32.157206286
 10
18.0372613913
 20
32.695407537
 10
22.1574617601
 20
33.3887277093
  0
LWPOLYLINE
  5
23F
100
AcDbEntity
  8
0
100
AcDbPolyline
 62
7
  6
CONTINUOUS
 90
3
 70
0
 10
59.7625590257
 20
32.695405592
 10
62.6643911092
 20
32.1572043515
 10
63.6986130495
 20
31.8945379794
  0
LINE
  5
240
100
AcDbEntity
  8
0
100
AcDbLine
 62
7
  6
CONTINUOUS
 10
57.1756631252
 20
12.9685505266
 11
56.9000858639
 21
13.2540902882
  0
LINE
  5
241
100
AcDbEntity
  8
0
100
AcDbLine
 62
7
  6
CONTINUOUS
 10
26.1781749611
 20
23.875203799
 11
27.3820571403
 21
16.3162556646
  0
LINE
  5
242
100
AcDbEntity
  8
0
100
AcDbLine
 62
7
  6
CONTINUOUS
 10
25.3999098992
 20
78.6618372951
 11
25.3999098992
 21
79.2896099289
  0
LINE
  5
243
100
AcDbEntity
  8
0
100
AcDbLine
 62
7
  6
CONTINUOUS
 10
25.4511413682
 20
79.2896099289
 11
25.4511413682
 21
82.9896099289
  0
LINE
  5
244
100
AcDbEntity
  8
0
100
AcDbLine
 62
7
  6
CONTINUOUS
 10
54.1731205476
 20
45.4996099289
 11
55.3138156625
 21
45.7896099276
  0
LWPOLYLINE
  5
245
100
AcDbEntity
  8
0
100
AcDbPolyline
 62
7
  6
CONTINUOUS
 90
3
 70
0
 10
17.3394794626
 20
36.8793869606
 10
14.4601792158
 20
36.3415363599
 10
13.4351771271
 20
36.0763976256
  0
LINE
  5
246
100
AcDbEntity
  8
0
100
AcDbLine
 62
7
  6
CONTINUOUS
 10
21.4341775654
 20
37.5706036557
 11
17.3394794626
 21
36.8793869606
  0
LINE
  5
247
100
AcDbEntity
  8
0
100
AcDbLine
 62
7
  6
CONTINUOUS
 10
64.8999098992
 20
42.8396099241
 11
56.8184627852
 21
42.8396099241
  0
LINE
  5
248
100
AcDbEntity
  8
0
100
AcDbLine
 62
7
  6
CONTINUOUS
 10
20.9813551398
 20
42.8396099289
 11
12.8999098992
 21
42.8396099289
  0
LWPOLYLINE
  5
249
100
AcDbEntity
  8
0
100
AcDbPolyline
 62
7
  6
CONTINUOUS
 90
3
 70
0
 10
63.3396334434
 20
36.3415379032
 10
60.4603312596
 20
36.8793884719
 10
56.3656387617
 20
37.570604153
  0
LINE
  5
24A
100
AcDbEntity
  8
0
100
AcDbLine
 62
7
  6
CONTINUOUS
 10
22.4859959784
 20
45.7896099287
 11
23.6266992508
 21
45.4996099289
  0
LINE
  5
24B
100
AcDbEntity
  8
0
100
AcDbLine
 62
7
  6
CONTINUOUS
 10
64.3646415911
 20
36.0763984302
 11
63.3396334434
 21
36.3415379032
  0
LINE
  5
24C
100
AcDbEntity
  8
0
100
AcDbLine
 62
7
  6
CONTINUOUS
 10
31.1579457843
 20
78.6618372951
 11
31.1579457843
 21
79.2896099289
  0
LINE
  5
24D
100
AcDbEntity
  8
0
100
AcDbLine
 62
7
  6
CONTINUOUS
 10
31.1836594727
 20
79.2896099289
 11
31.1836594727
 21
82.9896099289
  0
LINE
  5
24E
100
AcDbEntity
  8
0
100
AcDbLine
 62
7
  6
CONTINUOUS
 10
31.810687459
 20
82.9896099289
 11
31.810687459
 21
78.6618372951
  0
LINE
  5
24F
100
AcDbEntity
  8
0
100
AcDbLine
 62
7
  6
CONTINUOUS
 10
57.2623663795
 20
44.2396099289
 11
54.7581283421
 21
44.2396099289
  0
LINE
  5
250
100
AcDbEntity
  8
0
100
AcDbLine
 62
7
  6
CONTINUOUS
 10
23.0416914563
 20
44.2396099289
 11
20.5374534189
 21
44.2396099289
  0
LINE
  5
251
100
AcDbEntity
  8
0
100
AcDbLine
 62
7
  6
CONTINUOUS
 10
23.8658930064
 20
44.2396099289
 11
23.8999098992
 21
44.2396099289
  0
LINE
  5
252
100
AcDbEntity
  8
0
100
AcDbLine
 62
7
  6
CONTINUOUS
 10
53.8992447558
 20
44.2396099289
 11
53.933926792
 21
44.2396099289
  0
LINE
  5
253
100
AcDbEntity
  8
0
100
AcDbLine
 62
7
  6
CONTINUOUS
 10
12.8999099539
 20
45.4996099289
 11
21.3616573085
 21
45.4996099289
  0
LINE
  5
254
100
AcDbEntity
  8
0
100
AcDbLine
 62
7
  6
CONTINUOUS
 10
23.6266992508
 20
45.4996099289
 11
24.0040020789
 21
45.4996099289
  0
LINE
  5
255
100
AcDbEntity
  8
0
100
AcDbLine
 62
7
  6
CONTINUOUS
 10
53.7962062531
 20
45.4996099289
 11
54.1731205476
 21
45.4996099289
  0
LINE
  5
256
100
AcDbEntity
  8
0
100
AcDbLine
 62
7
  6
CONTINUOUS
 10
56.43816249
 20
45.4996099289
 11
64.8999098445
 21
45.4996099289
  0
LINE
  5
257
100
AcDbEntity
  8
0
100
AcDbLine
 62
7
  6
CONTINUOUS
 10
57.1198855522
 20
17.8471461427
 11
57.1623429458
 21
17.7983089109
  0
LINE
  5
258
100
AcDbEntity
  8
0
100
AcDbLine
 62
7
  6
CONTINUOUS
 10
32.7515930159
 20
100.0718047289
 11
32.7515930159
 21
100.4960348561
  0
LINE
  5
259
100
AcDbEntity
  8
0
100
AcDbLine
 62
7
  6
CONTINUOUS
 10
33.1931054832
 20
79.2896099289
 11
33.1931054832
 21
78.6618372951
  0
LINE
  5
25A
100
AcDbEntity
  8
0
100
AcDbLine
 62
7
  6
CONTINUOUS
 10
33.2188191716
 20
82.9896099289
 11
33.2188191716
 21
79.2896099289
  0
LINE
  5
25B
100
AcDbEntity
  8
0
100
AcDbLine
 62
7
  6
CONTINUOUS
 10
33.8999160777
 20
7.2396099289
 11
33.8999160777
 21
10.754328555
  0
LINE
  5
25C
100
AcDbEntity
  8
0
100
AcDbLine
 62
7
  6
CONTINUOUS
 10
34.7555480164
 20
100.1323891036
 11
34.7555480164
 21
100.2612576018
  0
LINE
  5
25D
100
AcDbEntity
  8
0
100
AcDbLine
 62
7
  6
CONTINUOUS
 10
34.7652922623
 20
100.1373751669
 11
34.7652922623
 21
100.2534614199
  0
LINE
  5
25E
100
AcDbEntity
  8
0
100
AcDbLine
 62
7
  6
CONTINUOUS
 10
34.8368064124
 20
100.2269198743
 11
34.8368064124
 21
100.1739684636
  0
LINE
  5
25F
100
AcDbEntity
  8
0
100
AcDbLine
 62
7
  6
CONTINUOUS
 10
35.3239460781
 20
96.4896099289
 11
35.3239460781
 21
97.6353963127
  0
LWPOLYLINE
  5
260
100
AcDbEntity
  8
0
100
AcDbPolyline
 62
7
  6
CONTINUOUS
 90
3
 70
0
 10
58.9943208588
 20
69.901802352
 10
60.8668022106
 20
70.9890455772
 10
61.3720595505
 20
71.973862758
  0
LINE
  5
261
100
AcDbEntity
  8
0
100
AcDbLine
 62
7
  6
CONTINUOUS
 10
36.2835080533
 20
100.3086274961
 11
36.2835080533
 21
100.5544632426
  0
LINE
  5
262
100
AcDbEntity
  8
0
100
AcDbLine
 62
7
  6
CONTINUOUS
 10
36.4458635405
 20
100.3086274961
 11
36.4458635405
 21
100.5387305263
  0
LINE
  5
263
100
AcDbEntity
  8
0
100
AcDbLine
 62
7
  6
CONTINUOUS
 10
36.4996205182
 20
96.4896099289
 11
36.4996205182
 21
97.6353963127
  0
LINE
  5
264
100
AcDbEntity
  8
0
100
AcDbLine
 62
7
  6
CONTINUOUS
 10
36.7509219431
 20
100.738299279
 11
36.7509219431
 21
100.5942053414
  0
LINE
  5
265
100
AcDbEntity
  8
0
100
AcDbLine
 62
7
  6
CONTINUOUS
 10
38.3000299112
 20
96.4896099289
 11
38.3000299112
 21
97.6353963127
  0
LINE
  5
266
100
AcDbEntity
  8
0
100
AcDbLine
 62
7
  6
CONTINUOUS
 10
53.3999098992
 20
82.9896099289
 11
53.8999098992
 21
83.8556353327
  0
LINE
  5
267
100
AcDbEntity
  8
0
100
AcDbLine
 62
7
  6
CONTINUOUS
 10
39.4997898872
 20
96.4896099289
 11
39.4997898872
 21
97.6353963127
  0
LINE
  5
268
100
AcDbEntity
  8
0
100
AcDbLine
 62
7
  6
CONTINUOUS
 10
41.3001992802
 20
96.4896099289
 11
41.3001992802
 21
97.6353963127
  0
LINE
  5
269
100
AcDbEntity
  8
0
100
AcDbLine
 62
7
  6
CONTINUOUS
 10
42.4758737203
 20
96.4896099289
 11
42.4758737203
 21
97.6353963127
  0
LWPOLYLINE
  5
26A
100
AcDbEntity
  8
0
100
AcDbPolyline
 62
7
  6
CONTINUOUS
 90
3
 70
0
 10
18.7731280287
 20
69.9121715588
 10
16.9460718793
 20
70.9749961464
 10
16.4277605033
 20
71.973864002
  0
LINE
  5
26B
100
AcDbEntity
  8
0
100
AcDbLine
 62
7
  6
CONTINUOUS
 10
24.3999098992
 20
82.9896099289
 11
23.8999098992
 21
83.8556353327
  0
LINE
  5
26C
100
AcDbEntity
  8
0
100
AcDbLine
 62
7
  6
CONTINUOUS
 10
43.8999098973
 20
10.754328555
 11
43.8999098973
 21
7.2396099289
  0
LINE
  5
26D
100
AcDbEntity
  8
0
100
AcDbLine
 62
7
  6
CONTINUOUS
 10
45.8999098992
 20
100.5387305263
 11
45.8999098992
 21
100.3086274961
  0
LINE
  5
26E
100
AcDbEntity
  8
0
100
AcDbLine
 62
7
  6
CONTINUOUS
 10
20.6798794251
 20
17.8470861193
 11
20.6374804665
 21
17.798314742
  0
LINE
  5
26F
100
AcDbEntity
  8
0
100
AcDbLine
 62
7
  6
CONTINUOUS
 10
52.8999098992
 20
12.1689229998
 11
52.8999184964
 21
12.1630837128
  0
LINE
  5
270
100
AcDbEntity
  8
0
100
AcDbLine
 62
7
  6
CONTINUOUS
 10
52.2972510533
 20
79.2896099289
 11
52.2972510533
 21
82.9896099289
  0
LINE
  5
271
100
AcDbEntity
  8
0
100
AcDbLine
 62
7
  6
CONTINUOUS
 10
52.3486784302
 20
78.6618372951
 11
52.3486784302
 21
79.2896099289
  0
LINE
  5
272
100
AcDbEntity
  8
0
100
AcDbLine
 62
7
  6
CONTINUOUS
 10
56.3636408682
 20
69.5096760397
 11
58.9943208588
 21
69.901802352
  0
LINE
  5
273
100
AcDbEntity
  8
0
100
AcDbLine
 62
7
  6
CONTINUOUS
 10
21.4361789302
 20
69.5096760397
 11
18.7731280287
 21
69.9121715588
  0
LINE
  5
274
100
AcDbEntity
  8
0
100
AcDbLine
 62
7
  6
CONTINUOUS
 10
54.7460685392
 20
45.6167799375
 11
54.7581283421
 21
44.2396099289
  0
LINE
  5
275
100
AcDbEntity
  8
0
100
AcDbLine
 62
7
  6
CONTINUOUS
 10
55.52912004
 20
44.2396099289
 11
55.5369224269
 21
42.6910439472
  0
LINE
  5
276
100
AcDbEntity
  8
0
100
AcDbLine
 62
7
  6
CONTINUOUS
 10
53.8999098992
 20
83.8556353327
 11
53.8999098992
 21
97.6353963127
  0
LINE
  5
277
100
AcDbEntity
  8
0
100
AcDbLine
 62
7
  6
CONTINUOUS
 10
56.5578590916
 20
45.4249612327
 11
56.5578590917
 21
44.2396099289
  0
LINE
  5
278
100
AcDbEntity
  8
0
100
AcDbLine
 62
7
  6
CONTINUOUS
 10
56.6499098992
 20
72.7443819297
 11
56.6499098992
 21
77.5580818193
  0
LINE
  5
279
100
AcDbEntity
  8
0
100
AcDbLine
 62
7
  6
CONTINUOUS
 10
56.8169815639
 20
45.2176522322
 11
56.8169815639
 21
45.4996099289
  0
LINE
  5
27A
100
AcDbEntity
  8
0
100
AcDbLine
 62
7
  6
CONTINUOUS
 10
56.8184627852
 20
43.2651864086
 11
56.8184627852
 21
42.8396099241
  0
LINE
  5
27B
100
AcDbEntity
  8
0
100
AcDbLine
 62
7
  6
CONTINUOUS
 10
56.8999124916
 20
13.2539025982
 11
56.8999035469
 21
17.5689780267
  0
LINE
  5
27C
100
AcDbEntity
  8
0
100
AcDbLine
 62
7
  6
CONTINUOUS
 10
56.8760953925
 20
78.6618372951
 11
56.8860210874
 21
79.7992092721
  0
LINE
  5
27D
100
AcDbEntity
  8
0
100
AcDbLine
 62
7
  6
CONTINUOUS
 10
50.4177626614
 20
16.3162556637
 11
51.6216476183
 21
23.8752039402
  0
LINE
  5
27E
100
AcDbEntity
  8
0
100
AcDbLine
 62
7
  6
CONTINUOUS
 10
20.6244903613
 20
12.9685918775
 11
20.899950689
 21
13.2543603115
  0
LINE
  5
27F
100
AcDbEntity
  8
0
100
AcDbLine
 62
7
  6
CONTINUOUS
 10
57.9859791907
 20
80.8896099289
 11
57.9661371353
 21
78.5893589635
  0
LINE
  5
280
100
AcDbEntity
  8
0
100
AcDbLine
 62
7
  6
CONTINUOUS
 10
56.6499098992
 20
72.7443819297
 11
21.1499098992
 21
72.7443819297
  0
LINE
  5
281
100
AcDbEntity
  8
0
100
AcDbLine
 62
7
  6
CONTINUOUS
 10
17.5203616917
 20
17.904806682
 11
17.1604305502
 21
17.7304436743
  0
LINE
  5
282
100
AcDbEntity
  8
0
100
AcDbLine
 62
7
  6
CONTINUOUS
 10
21.1499098992
 20
77.14817879
 11
56.6499098992
 21
77.14817879
  0
LINE
  5
283
100
AcDbEntity
  8
0
100
AcDbLine
 62
7
  6
CONTINUOUS
 10
56.6499098992
 20
77.5580818193
 11
21.1499098992
 21
77.5580818193
  0
LINE
  5
284
100
AcDbEntity
  8
0
100
AcDbLine
 62
7
  6
CONTINUOUS
 10
19.8336826632
 20
78.5893589635
 11
57.9661371353
 21
78.5893589635
  0
LINE
  5
285
100
AcDbEntity
  8
0
100
AcDbLine
 62
7
  6
CONTINUOUS
 10
20.2251157268
 20
78.6618372951
 11
57.5747040717
 21
78.6618372951
  0
LINE
  5
286
100
AcDbEntity
  8
0
100
AcDbLine
 62
7
  6
CONTINUOUS
 10
25.3999098992
 20
79.2896099289
 11
31.1836594727
 21
79.2896099289
  0
LINE
  5
287
100
AcDbEntity
  8
0
100
AcDbLine
 62
7
  6
CONTINUOUS
 10
33.1931054832
 20
79.2896099289
 11
52.3486784302
 21
79.2896099289
  0
LINE
  5
288
100
AcDbEntity
  8
0
100
AcDbLine
 62
7
  6
CONTINUOUS
 10
58.5826634138
 20
80.6963344231
 11
58.5402345094
 21
80.8896099285
  0
LINE
  5
289
100
AcDbEntity
  8
0
100
AcDbLine
 62
7
  6
CONTINUOUS
 10
64.8985856932
 20
42.429866197
 11
64.8999098992
 21
45.4996099289
  0
LWPOLYLINE
  5
28A
100
AcDbEntity
  8
0
100
AcDbPolyline
 62
7
  6
CONTINUOUS
 90
3
 70
0
 10
64.6443109481
 20
38.1278776638
 10
64.8389883979
 20
40.5160659935
 10
64.8985856655
 20
42.4298631847
  0
LINE
  5
28B
100
AcDbEntity
  8
0
100
AcDbLine
 62
7
  6
CONTINUOUS
 10
64.3732869359
 20
36.1062121776
 11
64.6443109481
 21
38.1278776638
  0
LINE
  5
28C
100
AcDbEntity
  8
0
100
AcDbLine
 62
7
  6
CONTINUOUS
 10
61.8733867425
 20
22.9770725304
 11
62.3042394298
 21
25.682308993
  0
LINE
  5
28D
100
AcDbEntity
  8
0
100
AcDbLine
 62
7
  6
CONTINUOUS
 10
62.268430157
 20
22.9142956606
 11
64.3647047903
 21
36.0763862256
  0
LINE
  5
28E
100
AcDbEntity
  8
0
100
AcDbLine
 62
7
  6
CONTINUOUS
 10
64.8985856655
 20
42.4298631847
 11
64.8979418932
 21
42.4271300766
  0
LWPOLYLINE
  5
28F
100
AcDbEntity
  8
0
100
AcDbPolyline
 62
7
  6
CONTINUOUS
 90
4
 70
0
 10
52.8997571373
 20
12.1636809332
 10
53.4201103843
 20
13.7537857763
 10
54.1209856296
 20
14.7836727673
 10
56.076998186
 20
16.8279100918
  0
LINE
  5
290
100
AcDbEntity
  8
0
100
AcDbLine
 62
7
  6
CONTINUOUS
 10
19.8336826632
 20
78.5893589635
 11
20.2243987081
 21
78.6622101033
  0
LINE
  5
291
100
AcDbEntity
  8
0
100
AcDbLine
 62
7
  6
CONTINUOUS
 10
57.9845244312
 20
80.6963343779
 11
58.5826615368
 21
80.6963345159
  0
LINE
  5
292
100
AcDbEntity
  8
0
100
AcDbLine
 62
7
  6
CONTINUOUS
 10
19.2171781824
 20
80.6963343131
 11
19.8152953663
 21
80.6963343779
  0
LINE
  5
293
100
AcDbEntity
  8
0
100
AcDbLine
 62
7
  6
CONTINUOUS
 10
58.5402043647
 20
80.8896099289
 11
57.9859792014
 21
80.8896099289
  0
LINE
  5
294
100
AcDbEntity
  8
0
100
AcDbLine
 62
7
  6
CONTINUOUS
 10
19.813840596
 20
80.8896099289
 11
19.2596154424
 21
80.8896099289
  0
LINE
  5
295
100
AcDbEntity
  8
0
100
AcDbLine
 62
7
  6
CONTINUOUS
 10
53.3999098992
 20
82.9896099289
 11
24.3999098992
 21
82.9896099289
  0
LINE
  5
296
100
AcDbEntity
  8
0
100
AcDbLine
 62
7
  6
CONTINUOUS
 10
57.9661371353
 20
78.5893589635
 11
57.5735302031
 21
78.6618372233
  0
LINE
  5
297
100
AcDbEntity
  8
0
100
AcDbLine
 62
7
  6
CONTINUOUS
 10
63.6986678431
 20
31.8944729974
 11
63.1062827539
 21
29.8516536046
  0
LINE
  5
298
100
AcDbEntity
  8
0
100
AcDbLine
 62
7
  6
CONTINUOUS
 10
21.8094438075
 20
16.8561327716
 11
21.7228192415
 21
16.8279115965
  0
LINE
  5
299
100
AcDbEntity
  8
0
100
AcDbLine
 62
7
  6
CONTINUOUS
 10
53.8999098992
 20
83.8556353327
 11
23.8999098992
 21
83.8556353327
  0
LWPOLYLINE
  5
29A
100
AcDbEntity
  8
0
100
AcDbPolyline
 62
7
  6
CONTINUOUS
 90
5
 70
0
 10
63.1062827539
 20
29.8516536046
 10
60.5129736509
 20
26.4277798249
 10
58.6133424549
 20
25.1756124694
 10
54.0594383522
 20
23.8770084604
 10
51.8886530375
 20
23.8751772185
  0
LWPOLYLINE
  5
29B
100
AcDbEntity
  8
0
100
AcDbPolyline
 62
7
  6
CONTINUOUS
 90
4
 70
0
 10
57.1623439294
 20
17.7983077803
 10
59.043453165
 20
19.7557291722
 10
60.9536481346
 20
22.6318776265
 10
62.3296096597
 20
25.7396099289
  0
LWPOLYLINE
  5
29C
100
AcDbEntity
  8
0
100
AcDbPolyline
 62
7
  6
CONTINUOUS
 90
4
 70
0
 10
56.076984409
 20
16.8279024404
 10
56.3223259615
 20
17.0535003036
 10
56.8834396141
 20
17.5545907048
 10
57.1623401061
 20
17.7983132228
  0
LINE
  5
29D
100
AcDbEntity
  8
0
100
AcDbLine
 62
7
  6
CONTINUOUS
 10
35.3239460781
 20
96.4896099289
 11
36.4996205182
 21
96.4896099289
  0
LINE
  5
29E
100
AcDbEntity
  8
0
100
AcDbLine
 62
7
  6
CONTINUOUS
 10
38.3000299112
 20
96.4896099289
 11
39.4997898872
 21
96.4896099289
  0
LINE
  5
29F
100
AcDbEntity
  8
0
100
AcDbLine
 62
7
  6
CONTINUOUS
 10
41.3001992802
 20
96.4896099289
 11
42.4758737203
 21
96.4896099289
  0
LINE
  5
2A0
100
AcDbEntity
  8
0
100
AcDbLine
 62
7
  6
CONTINUOUS
 10
34.7891333472
 20
100.2447214416
 11
34.7652922623
 21
100.2534614199
  0
LINE
  5
2A1
100
AcDbEntity
  8
0
100
AcDbLine
 62
7
  6
CONTINUOUS
 10
23.8999098992
 20
97.6353963127
 11
35.3239460781
 21
97.6353963127
  0
LINE
  5
2A2
100
AcDbEntity
  8
0
100
AcDbLine
 62
7
  6
CONTINUOUS
 10
36.4996205182
 20
97.6353963127
 11
38.3000299112
 21
97.6353963127
  0
LINE
  5
2A3
100
AcDbEntity
  8
0
100
AcDbLine
 62
7
  6
CONTINUOUS
 10
39.4997898872
 20
97.6353963127
 11
41.3001992802
 21
97.6353963127
  0
LINE
  5
2A4
100
AcDbEntity
  8
0
100
AcDbLine
 62
7
  6
CONTINUOUS
 10
42.4758737203
 20
97.6353963127
 11
53.8999098992
 21
97.6353963127
  0
LINE
  5
2A5
100
AcDbEntity
  8
0
100
AcDbLine
 62
7
  6
CONTINUOUS
 10
25.5175569781
 20
99.5985076809
 11
52.2822628204
 21
99.5985076809
  0
LINE
  5
2A6
100
AcDbEntity
  8
0
100
AcDbLine
 62
7
  6
CONTINUOUS
 10
47.8999098992
 20
100.3086274961
 11
35.1108010403
 21
100.3086274961
  0
LINE
  5
2A7
100
AcDbEntity
  8
0
100
AcDbLine
 62
7
  6
CONTINUOUS
 10
36.4458635405
 20
100.5387305263
 11
45.8999098992
 21
100.5387305263
  0
ARC
  5
2A8
100
AcDbEntity
  8
0
100
AcDbCircle
 62
7
  6
CONTINUOUS
 10
-1196.1866682494
 20
33.8517943931
 40
1253.0577032583
100
AcDbArc
 50
0.566331422
 51
1.630770255
  0
ARC
  5
2A9
100
AcDbEntity
  8
0
100
AcDbCircle
 62
7
  6
CONTINUOUS
 10
38.8337838236
 20
-97.9974404427
 40
129.3227489466
100
AcDbArc
 50
93.0562467461
 51
96.1028493599
  0
ARC
  5
2AA
100
AcDbEntity
  8
0
100
AcDbCircle
 62
7
  6
CONTINUOUS
 10
38.9933381422
 20
-97.7234173711
 40
129.0475662677
100
AcDbArc
 50
83.8954753916
 51
86.9404784637
  0
ARC
  5
2AB
100
AcDbEntity
  8
0
100
AcDbCircle
 62
7
  6
CONTINUOUS
 10
38.8999118984
 20
-85.8701901565
 40
110.48028822
100
AcDbArc
 50
83.3877593766
 51
96.612241259
  0
ARC
  5
2AC
100
AcDbEntity
  8
0
100
AcDbCircle
 62
7
  6
CONTINUOUS
 10
-23.9254944363
 20
-34.4003792619
 40
68.6981402564
100
AcDbArc
 50
49.0955005242
 51
49.5115269006
  0
ARC
  5
2AD
100
AcDbEntity
  8
0
100
AcDbCircle
 62
7
  6
CONTINUOUS
 10
-10.1877328196
 20
-18.5614696475
 40
47.7315727088
100
AcDbArc
 50
48.5081370474
 51
49.1095541395
  0
ARC
  5
2AE
100
AcDbEntity
  8
0
100
AcDbCircle
 62
7
  6
CONTINUOUS
 10
-2.8279938979
 20
-10.2278957675
 40
36.6133839671
100
AcDbArc
 50
47.7793328634
 51
48.4951554222
  0
ARC
  5
2AF
100
AcDbEntity
  8
0
100
AcDbCircle
 62
7
  6
CONTINUOUS
 10
-125.727147729
 20
33.5696099289
 40
191.0
100
AcDbArc
 50
3.5810627674
 51
14.1103066263
  0
ARC
  5
2B0
100
AcDbEntity
  8
0
100
AcDbCircle
 62
7
  6
CONTINUOUS
 10
-125.6023762595
 20
34.5743271272
 40
189.8719771677
100
AcDbArc
 50
11.598536042
 51
14.0584186975
  0
ARC
  5
2B1
100
AcDbEntity
  8
0
100
AcDbCircle
 62
7
  6
CONTINUOUS
 10
21.8999098992
 20
42.8396099289
 40
43.0
100
AcDbArc
 50
350.9507420949
 51
360.0
  0
ARC
  5
2B2
100
AcDbEntity
  8
0
100
AcDbCircle
 62
7
  6
CONTINUOUS
 10
25.8729128294
 20
42.8450411971
 40
30.9454819814
100
AcDbArc
 50
350.1864509309
 51
359.9898891208
  0
ARC
  5
2B3
100
AcDbEntity
  8
0
100
AcDbCircle
 62
7
  6
CONTINUOUS
 10
24.9636425749
 20
37.7707730218
 40
13.9488000221
100
AcDbArc
 50
273.894705002
 51
274.9952726619
  0
ARC
  5
2B4
100
AcDbEntity
  8
0
100
AcDbCircle
 62
7
  6
CONTINUOUS
 10
22.485978289
 20
43.3368115411
 40
2.4527983526
100
AcDbArc
 50
89.9997344499
 51
91.2510008912
  0
ARC
  5
2B5
100
AcDbEntity
  8
0
100
AcDbCircle
 62
7
  6
CONTINUOUS
 10
22.4999434856
 20
45.1292683656
 40
2.4396623351
100
AcDbArc
 50
264.9996471962
 51
269.9992112025
  0
ARC
  5
2B6
100
AcDbEntity
  8
0
100
AcDbCircle
 62
7
  6
CONTINUOUS
 10
22.2111766503
 20
43.3698748677
 40
2.4196704284
100
AcDbArc
 50
83.6080913709
 51
84.7413470781
  0
ARC
  5
2B7
100
AcDbEntity
  8
0
100
AcDbCircle
 62
7
  6
CONTINUOUS
 10
22.4848432776
 20
43.3717601248
 40
2.4178333477
100
AcDbArc
 50
91.2421919178
 51
96.2573465745
  0
ARC
  5
2B8
100
AcDbEntity
  8
0
100
AcDbCircle
 62
7
  6
CONTINUOUS
 10
22.2606124215
 20
44.2397888063
 40
1.6052805949
100
AcDbArc
 50
355.4812505836
 51
359.9936154949
  0
ARC
  5
2B9
100
AcDbEntity
  8
0
100
AcDbCircle
 62
7
  6
CONTINUOUS
 10
38.8999098992
 20
30.8896099289
 40
70.0
100
AcDbArc
 50
78.9785503812
 51
82.6129515637
  0
ARC
  5
2BA
100
AcDbEntity
  8
0
100
AcDbCircle
 62
7
  6
CONTINUOUS
 10
38.8999098992
 20
30.8896099289
 40
70.0
100
AcDbArc
 50
84.2608295227
 51
101.0214496188
  0
ARC
  5
2BB
100
AcDbEntity
  8
0
100
AcDbCircle
 62
7
  6
CONTINUOUS
 10
38.9745495056
 20
30.8985770818
 40
69.8751122798
100
AcDbArc
 50
91.823624805
 51
95.109432276
  0
ARC
  5
2BC
100
AcDbEntity
  8
0
100
AcDbCircle
 62
7
  6
CONTINUOUS
 10
38.9726994886
 20
30.9312628673
 40
69.3415554618
100
AcDbArc
 50
93.4795125804
 51
94.9708785325
  0
ARC
  5
2BD
100
AcDbEntity
  8
0
100
AcDbCircle
 62
7
  6
CONTINUOUS
 10
33.8999098992
 20
25.8396099289
 40
18.6
100
AcDbArc
 50
189.0487678644
 51
270.0000089191
  0
ARC
  5
2BE
100
AcDbEntity
  8
0
100
AcDbCircle
 62
7
  6
CONTINUOUS
 10
33.8999098992
 20
25.8396099289
 40
18.2000006941
100
AcDbArc
 50
189.0493013915
 51
205.8579531615
  0
ARC
  5
2BF
100
AcDbEntity
  8
0
100
AcDbCircle
 62
7
  6
CONTINUOUS
 10
32.2285090159
 20
25.0509683518
 40
16.7522258283
100
AcDbArc
 50
205.9118724977
 51
226.1569577711
  0
ARC
  5
2C0
100
AcDbEntity
  8
0
100
AcDbCircle
 62
7
  6
CONTINUOUS
 10
32.2725198623
 20
25.072311089
 40
16.4011981193
100
AcDbArc
 50
205.925365818
 51
226.1000564925
  0
ARC
  5
2C1
100
AcDbEntity
  8
0
100
AcDbCircle
 62
7
  6
CONTINUOUS
 10
33.9000661485
 20
17.3545744091
 40
6.6002105577
100
AcDbArc
 50
189.0511698905
 51
269.9986441555
  0
CIRCLE
  5
2C2
100
AcDbEntity
  8
0
100
AcDbCircle
 62
7
  6
CONTINUOUS
 10
38.8999098992
 20
44.2396099289
 40
15.0
  0
CIRCLE
  5
2C3
100
AcDbEntity
  8
0
100
AcDbCircle
 62
7
  6
CONTINUOUS
 10
38.8999098992
 20
44.2396099289
 40
14.8
  0
CIRCLE
  5
2C4
100
AcDbEntity
  8
0
100
AcDbCircle
 62
7
  6
CONTINUOUS
 10
38.8999098992
 20
44.2396099289
 40
12.0
  0
CIRCLE
  5
2C5
100
AcDbEntity
  8
0
100
AcDbCircle
 62
7
  6
CONTINUOUS
 10
38.8999098992
 20
44.2396099289
 40
11.8
  0
CIRCLE
  5
2C6
100
AcDbEntity
  8
0
100
AcDbCircle
 62
7
  6
CONTINUOUS
 10
38.8999098992
 20
44.2396099289
 40
10.4886466975
  0
CIRCLE
  5
2C7
100
AcDbEntity
  8
0
100
AcDbCircle
 62
7
  6
CONTINUOUS
 10
38.8999098992
 20
44.2396099289
 40
10.15
  0
CIRCLE
  5
2C8
100
AcDbEntity
  8
0
100
AcDbCircle
 62
7
  6
CONTINUOUS
 10
38.8999098992
 20
44.2396099289
 40
9.15
  0
CIRCLE
  5
2C9
100
AcDbEntity
  8
0
100
AcDbCircle
 62
7
  6
CONTINUOUS
 10
38.8999098992
 20
44.2396099289
 40
8.15
  0
CIRCLE
  5
2CA
100
AcDbEntity
  8
0
100
AcDbCircle
 62
7
  6
CONTINUOUS
 10
38.8999098992
 20
44.2396099289
 40
7.15
  0
CIRCLE
  5
2CB
100
AcDbEntity
  8
0
100
AcDbCircle
 62
7
  6
CONTINUOUS
 10
38.8999098992
 20
44.2396099289
 40
5.65
  0
ARC
  5
2CC
100
AcDbEntity
  8
0
100
AcDbCircle
 62
7
  6
CONTINUOUS
 10
23.6226076504
 20
121.451863471
 40
49.6099375977
100
AcDbArc
 50
267.7006417735
 51
267.9822847704
  0
ARC
  5
2CD
100
AcDbEntity
  8
0
100
AcDbCircle
 62
7
  6
CONTINUOUS
 10
32.5815307493
 20
94.2599680166
 40
6.3789327311
100
AcDbArc
 50
69.2953582549
 51
69.7524396305
  0
ARC
  5
2CE
100
AcDbEntity
  8
0
100
AcDbCircle
 62
7
  6
CONTINUOUS
 10
25.8998931453
 20
97.6354101075
 40
1.999979881
100
AcDbArc
 50
101.0210534867
 51
180.0
  0
ARC
  5
2CF
100
AcDbEntity
  8
0
100
AcDbCircle
 62
7
  6
CONTINUOUS
 10
19.813840597
 20
79.7896099289
 40
1.1
100
AcDbArc
 50
0.5000000001
 51
90.0
  0
ARC
  5
2D0
100
AcDbEntity
  8
0
100
AcDbCircle
 62
7
  6
CONTINUOUS
 10
19.2596139349
 20
79.8896099289
 40
1.0
100
AcDbArc
 50
90.0
 51
165.8897283972
  0
ARC
  5
2D1
100
AcDbEntity
  8
0
100
AcDbCircle
 62
7
  6
CONTINUOUS
 10
38.8999098371
 20
556.9900256181
 40
485.4159633149
100
AcDbArc
 50
267.9901705109
 51
272.00982946
  0
ARC
  5
2D2
100
AcDbEntity
  8
0
100
AcDbCircle
 62
7
  6
CONTINUOUS
 10
1274.416502655
 20
33.8468472565
 40
1253.4877458509
100
AcDbArc
 50
178.3696646856
 51
179.4336367404
  0
ARC
  5
2D3
100
AcDbEntity
  8
0
100
AcDbCircle
 62
7
  6
CONTINUOUS
 10
203.526967529
 20
33.5696099287
 40
191.0000000016
100
AcDbArc
 50
168.4005016765
 51
176.4189372089
  0
ARC
  5
2D4
100
AcDbEntity
  8
0
100
AcDbCircle
 62
7
  6
CONTINUOUS
 10
203.5269675274
 20
33.5696099289
 40
191.0
100
AcDbArc
 50
165.8896935079
 51
168.3970077996
  0
ARC
  5
2D5
100
AcDbEntity
  8
0
100
AcDbCircle
 62
7
  6
CONTINUOUS
 10
204.1107904444
 20
34.4128607459
 40
190.5985513606
100
AcDbArc
 50
165.9462379144
 51
168.3967438364
  0
ARC
  5
2D6
100
AcDbEntity
  8
0
100
AcDbCircle
 62
7
  6
CONTINUOUS
 10
101.7236255218
 20
-34.3985475773
 40
68.6956507197
100
AcDbArc
 50
130.4883943929
 51
130.9044628274
  0
ARC
  5
2D7
100
AcDbEntity
  8
0
100
AcDbCircle
 62
7
  6
CONTINUOUS
 10
54.1783424744
 20
121.4212764894
 40
49.5793299997
100
AcDbArc
 50
272.0176540701
 51
272.3015871943
  0
ARC
  5
2D8
100
AcDbEntity
  8
0
100
AcDbCircle
 62
7
  6
CONTINUOUS
 10
87.9847645377
 20
-18.5582058226
 40
47.7272808762
100
AcDbArc
 50
130.890520133
 51
131.4919907385
  0
ARC
  5
2D9
100
AcDbEntity
  8
0
100
AcDbCircle
 62
7
  6
CONTINUOUS
 10
55.8999098992
 20
42.8396099289
 40
43.0
100
AcDbArc
 50
179.999984759
 51
189.049266712
  0
ARC
  5
2DA
100
AcDbEntity
  8
0
100
AcDbCircle
 62
7
  6
CONTINUOUS
 10
80.6245777348
 20
-10.2242841139
 40
36.6085348664
100
AcDbArc
 50
131.5048484905
 51
132.2207433016
  0
ARC
  5
2DB
100
AcDbEntity
  8
0
100
AcDbCircle
 62
7
  6
CONTINUOUS
 10
51.9269365397
 20
42.8450449257
 40
30.9455154445
100
AcDbArc
 50
180.0100629261
 51
189.813546301
  0
ARC
  5
2DC
100
AcDbEntity
  8
0
100
AcDbCircle
 62
7
  6
CONTINUOUS
 10
43.8999098992
 20
25.8396099289
 40
18.6
100
AcDbArc
 50
269.9999964608
 51
350.95126025
  0
ARC
  5
2DD
100
AcDbEntity
  8
0
100
AcDbCircle
 62
7
  6
CONTINUOUS
 10
43.8999098992
 20
25.8396099289
 40
18.1999991918
100
AcDbArc
 50
334.1285583441
 51
350.9508150984
  0
ARC
  5
2DE
100
AcDbEntity
  8
0
100
AcDbCircle
 62
7
  6
CONTINUOUS
 10
45.5504468273
 20
25.066216645
 40
16.7779372834
100
AcDbArc
 50
313.8590845599
 51
334.0715876782
  0
ARC
  5
2DF
100
AcDbEntity
  8
0
100
AcDbCircle
 62
7
  6
CONTINUOUS
 10
45.506191647
 20
25.0877159395
 40
16.4272799077
100
AcDbArc
 50
313.9145457392
 51
334.043555184
  0
ARC
  5
2E0
100
AcDbEntity
  8
0
100
AcDbCircle
 62
7
  6
CONTINUOUS
 10
52.8352323311
 20
37.7376696489
 40
13.9157403151
100
AcDbArc
 50
264.9967406828
 51
266.0994308216
  0
ARC
  5
2E1
100
AcDbEntity
  8
0
100
AcDbCircle
 62
7
  6
CONTINUOUS
 10
43.8999409933
 20
17.3543535165
 40
6.5999462309
100
AcDbArc
 50
269.9997530159
 51
350.9504675447
  0
ARC
  5
2E2
100
AcDbEntity
  8
0
100
AcDbCircle
 62
7
  6
CONTINUOUS
 10
55.3137775884
 20
43.3360204151
 40
2.4535895993
100
AcDbArc
 50
88.7598457241
 51
89.9987640133
  0
ARC
  5
2E3
100
AcDbEntity
  8
0
100
AcDbCircle
 62
7
  6
CONTINUOUS
 10
55.2998749693
 20
45.1293245975
 40
2.4397185112
100
AcDbArc
 50
270.0008208526
 51
275.0010660523
  0
ARC
  5
2E4
100
AcDbEntity
  8
0
100
AcDbCircle
 62
7
  6
CONTINUOUS
 10
55.5886462738
 20
43.3698625345
 40
2.41968297
100
AcDbArc
 50
95.270590558
 51
96.3924611996
  0
ARC
  5
2E5
100
AcDbEntity
  8
0
100
AcDbCircle
 62
7
  6
CONTINUOUS
 10
55.3149216552
 20
43.3710827772
 40
2.4185107197
100
AcDbArc
 50
83.7429602112
 51
88.7689651793
  0
ARC
  5
2E6
100
AcDbEntity
  8
0
100
AcDbCircle
 62
7
  6
CONTINUOUS
 10
51.8999266532
 20
97.6354101075
 40
1.999979881
100
AcDbArc
 50
0.0
 51
78.9789465133
  0
ARC
  5
2E7
100
AcDbEntity
  8
0
100
AcDbCircle
 62
7
  6
CONTINUOUS
 10
57.9859793317
 20
79.7896079975
 40
1.0999999513
100
AcDbArc
 50
90.0000067852
 51
179.4998911133
  0
ARC
  5
2E8
100
AcDbEntity
  8
0
100
AcDbCircle
 62
7
  6
CONTINUOUS
 10
58.5402058635
 20
79.8896099289
 40
1.0
100
AcDbArc
 50
14.110297237
 51
90.0
  0
SPLINE
  5
2E9
100
AcDbEntity
  8
0
100
AcDbSpline
 62
7
  6
CONTINUOUS
 70
0
 71
3
 72
9
 73
5
 74
0
 42
0.0000001
 43
0.0000001
 44
0.0000000001
 40
0.0
 40
0.0
 40
0.0
 40
0.0
 40
0.4930101943
 40
1.0
 40
1.0
 40
1.0
 40
1.0
 10
36.5093915903
 20
98.2837583356
 30
0.0
 10
36.509398898
 20
98.1771963192
 30
0.0
 10
36.5031783905
 20
97.9611081298
 30
0.0
 10
36.4996205182
 20
97.7449799618
 30
0.0
 10
36.4996205182
 20
97.6353963127
 30
0.0
  0
SPLINE
  5
2EA
100
AcDbEntity
  8
0
100
AcDbSpline
 62
7
  6
CONTINUOUS
 70
0
 71
3
 72
9
 73
5
 74
0
 42
0.0000001
 43
0.0000001
 44
0.0000000001
 40
0.0
 40
0.0
 40
0.0
 40
0.0
 40
0.493010146
 40
1.0
 40
1.0
 40
1.0
 40
1.0
 10
41.290428204
 20
98.2837583355
 30
0.0
 10
41.2904208836
 20
98.1771963295
 30
0.0
 10
41.2966414036
 20
97.9611081401
 30
0.0
 10
41.3001992802
 20
97.7449799722
 30
0.0
 10
41.3001992802
 20
97.6353963127
 30
0.0
  0
SPLINE
  5
2EB
100
AcDbEntity
  8
0
100
AcDbSpline
 62
7
  6
CONTINUOUS
 70
0
 71
3
 72
12
 73
8
 74
0
 42
0.0000001
 43
0.0000001
 44
0.0000000001
 40
0.0
 40
0.0
 40
0.0
 40
0.0
 40
0.2500364176
 40
0.43747752
 40
0.6250186079
 40
0.8124639588
 40
1.0
 40
1.0
 40
1.0
 40
1.0
 10
36.7875557099
 20
100.5942053414
 30
0.0
 10
36.7659932626
 20
100.5935175232
 30
0.0
 10
36.7283508048
 20
100.5904033802
 30
0.0
 10
36.6744089507
 20
100.5894274127
 30
0.0
 10
36.6258794095
 20
100.590730291
 30
0.0
 10
36.5773745738
 20
100.5883272702
 30
0.0
 10
36.5450993943
 20
100.5860508401
 30
0.0
 10
36.5289288325
 20
100.5854749266
 30
0.0
  0
SPLINE
  5
2EC
100
AcDbEntity
  8
0
100
AcDbSpline
 62
7
  6
CONTINUOUS
 70
0
 71
3
 72
18
 73
14
 74
0
 42
0.0000001
 43
0.0000001
 44
0.0000000001
 40
0.0
 40
0.0
 40
0.0
 40
0.0
 40
0.008628468
 40
0.0155910167
 40
0.0246382849
 40
0.0492594241
 40
0.0826372729
 40
0.1747277142
 40
0.2979917152
 40
0.4480624863
 40
0.6193854239
 40
0.8057938306
 40
1.0
 40
1.0
 40
1.0
 40
1.0
 10
37.7692388265
 20
100.6968227307
 30
0.0
 10
37.7692388265
 20
100.6939664097
 30
0.0
 10
37.7650192659
 20
100.6895492211
 30
0.0
 10
37.7581859142
 20
100.6855722402
 30
0.0
 10
37.745767079
 20
100.680047781
 30
0.0
 10
37.7245363376
 20
100.6736628551
 30
0.0
 10
37.6760572512
 20
100.6625391212
 30
0.0
 10
37.5946577281
 20
100.6498167978
 30
0.0
 10
37.4745031028
 20
100.6357118733
 30
0.0
 10
37.3278762718
 20
100.6225830354
 30
0.0
 10
37.1601766045
 20
100.6108808348
 30
0.0
 10
36.9777182199
 20
100.6011512174
 30
0.0
 10
36.8518119788
 20
100.5962550455
 30
0.0
 10
36.7875557099
 20
100.5942053414
 30
0.0
  0
SPLINE
  5
2ED
100
AcDbEntity
  8
0
100
AcDbSpline
 62
7
  6
CONTINUOUS
 70
0
 71
3
 72
11
 73
7
 74
0
 42
0.0000001
 43
0.0000001
 44
0.0000000001
 40
0.0
 40
0.0
 40
0.0
 40
0.0
 40
0.0978306722
 40
0.2953671127
 40
0.599203948
 40
1.0
 40
1.0
 40
1.0
 40
1.0
 10
34.7555480164
 20
100.2612576018
 30
0.0
 10
34.7555480164
 20
100.2639784016
 30
0.0
 10
34.7633655761
 20
100.2700353625
 30
0.0
 10
34.7781322774
 20
100.2753726835
 30
0.0
 10
34.8028686377
 20
100.282041888
 30
0.0
 10
34.8219952256
 20
100.2856101003
 30
0.0
 10
34.8329818837
 20
100.2874919908
 30
0.0
  0
SPLINE
  5
2EE
100
AcDbEntity
  8
0
100
AcDbSpline
 62
7
  6
CONTINUOUS
 70
0
 71
3
 72
9
 73
5
 74
0
 42
0.0000001
 43
0.0000001
 44
0.0000000001
 40
0.0
 40
0.0
 40
0.0
 40
0.0
 40
0.4747892415
 40
1.0
 40
1.0
 40
1.0
 40
1.0
 10
34.8329818837
 20
100.2874919908
 30
0.0
 10
34.8764760602
 20
100.2949420521
 30
0.0
 10
34.9690712582
 20
100.3045454744
 30
0.0
 10
35.0619871698
 20
100.3086274961
 30
0.0
 10
35.1108010403
 20
100.3086274961
 30
0.0
  0
SPLINE
  5
2EF
100
AcDbEntity
  8
0
100
AcDbSpline
 62
7
  6
CONTINUOUS
 70
0
 71
3
 72
23
 73
19
 74
0
 42
0.0000001
 43
0.0000001
 44
0.0000000001
 40
0.0
 40
0.0
 40
0.0
 40
0.0
 40
0.0333834303
 40
0.0805791613
 40
0.1404283208
 40
0.2112238719
 40
0.2907427185
 40
0.3764444159
 40
0.5552046114
 40
0.7249100286
 40
0.7997476326
 40
0.8648302784
 40
0.9183113405
 40
0.9402308775
 40
0.9587762051
 40
0.9738794907
 40
0.9855713463
 40
1.0
 40
1.0
 40
1.0
 40
1.0
 10
32.9147603796
 20
100.0156809863
 30
0.0
 10
32.9355650378
 20
100.0077937347
 30
0.0
 10
32.9882586978
 20
99.9958031108
 30
0.0
 10
33.0810313738
 20
99.9836885186
 30
0.0
 10
33.1993823432
 20
99.9756649619
 30
0.0
 10
33.3394170154
 20
99.9719650696
 30
0.0
 10
33.4967438737
 20
99.9728810847
 30
0.0
 10
33.7258977066
 20
99.9804188308
 30
0.0
 10
34.0146869085
 20
100.0002371399
 30
0.0
 10
34.2951413281
 20
100.0320767803
 30
0.0
 10
34.4990135579
 20
100.0642374646
 30
0.0
 10
34.6255583399
 20
100.088957228
 30
0.0
 10
34.7165400533
 20
100.1112562752
 30
0.0
 10
34.7763709123
 20
100.1299530782
 30
0.0
 10
34.8110119728
 20
100.1428011668
 30
0.0
 10
34.8387313141
 20
100.1557182059
 30
0.0
 10
34.8614680335
 20
100.1695047694
 30
0.0
 10
34.875783396
 20
100.1842962374
 30
0.0
 10
34.875783396
 20
100.1939127169
 30
0.0
  0
SPLINE
  5
2F0
100
AcDbEntity
  8
0
100
AcDbSpline
 62
7
  6
CONTINUOUS
 70
0
 71
3
 72
9
 73
5
 74
0
 42
0.0000001
 43
0.0000001
 44
0.0000000001
 40
0.0
 40
0.0
 40
0.0
 40
0.0
 40
0.2458281211
 40
1.0
 40
1.0
 40
1.0
 40
1.0
 10
31.8088868828
 20
100.3185345546
 30
0.0
 10
31.9016109807
 20
100.3028579218
 30
0.0
 10
32.2771424667
 20
100.2294812649
 30
0.0
 10
32.6449923002
 20
100.1179527312
 30
0.0
 10
32.9147603796
 20
100.0156809863
 30
0.0
  0
SPLINE
  5
2F1
100
AcDbEntity
  8
0
100
AcDbSpline
 62
7
  6
CONTINUOUS
 70
0
 71
3
 72
10
 73
6
 74
0
 42
0.0000001
 43
0.0000001
 44
0.0000000001
 40
0.0
 40
0.0
 40
0.0
 40
0.0
 40
0.3105760796
 40
0.603743829
 40
1.0
 40
1.0
 40
1.0
 40
1.0
 10
31.7699098992
 20
100.335557867
 30
0.0
 10
31.7699098992
 20
100.3310221088
 30
0.0
 10
31.7799881643
 20
100.3253756494
 30
0.0
 10
31.7930202957
 20
100.3215826668
 30
0.0
 10
31.8031807998
 20
100.3194992678
 30
0.0
 10
31.8088868828
 20
100.3185345546
 30
0.0
  0
SPLINE
  5
2F2
100
AcDbEntity
  8
0
100
AcDbSpline
 62
7
  6
CONTINUOUS
 70
0
 71
3
 72
15
 73
11
 74
0
 42
0.0000001
 43
0.0000001
 44
0.0000000001
 40
0.0
 40
0.0
 40
0.0
 40
0.0
 40
0.010104103
 40
0.0269210541
 40
0.0855323918
 40
0.1778289589
 40
0.3007771997
 40
0.4502608719
 40
0.6209986606
 40
1.0
 40
1.0
 40
1.0
 40
1.0
 10
36.2835080533
 20
100.5544632426
 30
0.0
 10
36.2835080533
 20
100.5553036373
 30
0.0
 10
36.2849927464
 20
100.5573358331
 30
0.0
 10
36.2912121827
 20
100.5606700987
 30
0.0
 10
36.3047658548
 20
100.5646455437
 30
0.0
 10
36.3270701206
 20
100.5689611321
 30
0.0
 10
36.3571424263
 20
100.5732333892
 30
0.0
 10
36.3937844114
 20
100.5771823562
 30
0.0
 10
36.451750995
 20
100.5819851598
 30
0.0
 10
36.4974258954
 20
100.5843529518
 30
0.0
 10
36.5289288325
 20
100.5854749266
 30
0.0
  0
SPLINE
  5
2F3
100
AcDbEntity
  8
0
100
AcDbSpline
 62
7
  6
CONTINUOUS
 70
0
 71
3
 72
15
 73
11
 74
0
 42
0.0000001
 43
0.0000001
 44
0.0000000001
 40
0.0
 40
0.0
 40
0.0
 40
0.0
 40
0.1406906137
 40
0.2715554843
 40
0.3901751275
 40
0.5033640595
 40
0.6188139019
 40
0.7400072021
 40
0.8673502805
 40
1.0
 40
1.0
 40
1.0
 40
1.0
 10
35.909390883
 20
99.0512552393
 30
0.0
 10
35.9627382241
 20
99.0622985622
 30
0.0
 10
36.0691833209
 20
99.0699607113
 30
0.0
 10
36.219131684
 20
99.0366161805
 30
0.0
 10
36.3402666855
 20
98.9594653516
 30
0.0
 10
36.4221746868
 20
98.849795206
 30
0.0
 10
36.4706694551
 20
98.7221169418
 30
0.0
 10
36.4966180939
 20
98.5831483098
 30
0.0
 10
36.5078951994
 20
98.4358199306
 30
0.0
 10
36.5093880679
 20
98.3351231104
 30
0.0
 10
36.5093915903
 20
98.2837583356
 30
0.0
  0
SPLINE
  5
2F4
100
AcDbEntity
  8
0
100
AcDbSpline
 62
7
  6
CONTINUOUS
 70
0
 71
3
 72
17
 73
13
 74
0
 42
0.0000001
 43
0.0000001
 44
0.0000000001
 40
0.0
 40
0.0
 40
0.0
 40
0.0
 40
0.1302478842
 40
0.1915290634
 40
0.2502403019
 40
0.3076784491
 40
0.3651039658
 40
0.4827501875
 40
0.6060356082
 40
0.7343764134
 40
0.8662850061
 40
1.0
 40
1.0
 40
1.0
 40
1.0
 10
38.8999098992
 20
99.0636786422
 30
0.0
 10
38.9754978842
 20
99.0636786421
 30
0.0
 10
39.0886966608
 20
99.0418655947
 30
0.0
 10
39.2160278749
 20
98.9702418027
 30
0.0
 10
39.2935659029
 20
98.901268489
 30
0.0
 10
39.354306675
 20
98.8201905687
 30
0.0
 10
39.4159895338
 20
98.6995961867
 30
0.0
 10
39.4625704025
 20
98.5313130654
 30
0.0
 10
39.4880803591
 20
98.3182690877
 30
0.0
 10
39.4975706165
 20
98.0957730475
 30
0.0
 10
39.4997089456
 20
97.86715
 30
0.0
 10
39.4997898872
 20
97.7129963983
 30
0.0
 10
39.4997898872
 20
97.6353963127
 30
0.0
  0
SPLINE
  5
2F5
100
AcDbEntity
  8
0
100
AcDbSpline
 62
7
  6
CONTINUOUS
 70
0
 71
3
 72
15
 73
11
 74
0
 42
0.0000001
 43
0.0000001
 44
0.0000000001
 40
0.0
 40
0.0
 40
0.0
 40
0.0
 40
0.1406913653
 40
0.2715561676
 40
0.3901756824
 40
0.5033644852
 40
0.6188142106
 40
0.7400074249
 40
0.8673504062
 40
1.0
 40
1.0
 40
1.0
 40
1.0
 10
41.8904289155
 20
99.0512697353
 30
0.0
 10
41.8370812912
 20
99.0623129336
 30
0.0
 10
41.7306346551
 20
99.0699551566
 30
0.0
 10
41.5806868868
 20
99.0366169676
 30
0.0
 10
41.4595522376
 20
98.9594641966
 30
0.0
 10
41.3776447079
 20
98.8497944599
 30
0.0
 10
41.3291501798
 20
98.7221162461
 30
0.0
 10
41.3032016549
 20
98.5831478493
 30
0.0
 10
41.291924594
 20
98.4358196841
 30
0.0
 10
41.2904317326
 20
98.3351230248
 30
0.0
 10
41.290428204
 20
98.2837583355
 30
0.0
  0
SPLINE
  5
2F6
100
AcDbEntity
  8
0
100
AcDbSpline
 62
7
  6
CONTINUOUS
 70
0
 71
3
 72
15
 73
11
 74
0
 42
0.0000001
 43
0.0000001
 44
0.0000000001
 40
0.0
 40
0.0
 40
0.0
 40
0.0
 40
0.1310514431
 40
0.2606610915
 40
0.3875613981
 40
0.5109460959
 40
0.6309165086
 40
0.749483179
 40
0.8713404885
 40
1.0
 40
1.0
 40
1.0
 40
1.0
 10
42.4758737203
 20
97.6353963127
 30
0.0
 10
42.4758737203
 20
97.707985543
 30
0.0
 10
42.4742198231
 20
97.852372293
 30
0.0
 10
42.4655172076
 20
98.0669112712
 30
0.0
 10
42.4466321741
 20
98.2766210486
 30
0.0
 10
42.4110812439
 20
98.4789904765
 30
0.0
 10
42.3492091011
 20
98.6706712605
 30
0.0
 10
42.2472276861
 20
98.8450137656
 30
0.0
 10
42.0924890499
 20
98.9842772016
 30
0.0
 10
41.9602137703
 20
99.0368241492
 30
0.0
 10
41.8904289155
 20
99.0512699281
 30
0.0
  0
SPLINE
  5
2F7
100
AcDbEntity
  8
0
100
AcDbSpline
 62
7
  6
CONTINUOUS
 70
0
 71
3
 72
15
 73
11
 74
0
 42
0.0000001
 43
0.0000001
 44
0.0000000001
 40
0.0
 40
0.0
 40
0.0
 40
0.0
 40
0.128659156
 40
0.2505161124
 40
0.3690826573
 40
0.4890528412
 40
0.6124370823
 40
0.7393376291
 40
0.8689482986
 40
1.0
 40
1.0
 40
1.0
 40
1.0
 10
35.909390883
 20
99.051255239
 30
0.0
 10
35.8396065053
 20
99.0368093191
 30
0.0
 10
35.7073251653
 20
98.9842798506
 30
0.0
 10
35.5525906663
 20
98.8450098224
 30
0.0
 10
35.4506098202
 20
98.6706695942
 30
0.0
 10
35.3887384205
 20
98.4789893876
 30
0.0
 10
35.3531875779
 20
98.2766210323
 30
0.0
 10
35.3343022838
 20
98.0669115079
 30
0.0
 10
35.3256000487
 20
97.8523724065
 30
0.0
 10
35.3239460781
 20
97.7079854398
 30
0.0
 10
35.3239460781
 20
97.6353963127
 30
0.0
  0
SPLINE
  5
2F8
100
AcDbEntity
  8
0
100
AcDbSpline
 62
7
  6
CONTINUOUS
 70
0
 71
3
 72
17
 73
13
 74
0
 42
0.0000001
 43
0.0000001
 44
0.0000000001
 40
0.0
 40
0.0
 40
0.0
 40
0.0
 40
0.1302478026
 40
0.1915289427
 40
0.2502401233
 40
0.3076782798
 40
0.3651038228
 40
0.4827500528
 40
0.6060354857
 40
0.734376273
 40
0.8662849854
 40
1.0
 40
1.0
 40
1.0
 40
1.0
 10
38.8999098992
 20
99.0636786422
 30
0.0
 10
38.8243219614
 20
99.0636786422
 30
0.0
 10
38.7111232578
 20
99.04186563
 30
0.0
 10
38.5837921103
 20
98.9702419302
 30
0.0
 10
38.5062540986
 20
98.9012686793
 30
0.0
 10
38.4455132726
 20
98.8201908163
 30
0.0
 10
38.3838303375
 20
98.6995964406
 30
0.0
 10
38.3372494554
 20
98.5313132908
 30
0.0
 10
38.3117394609
 20
98.3182693189
 30
0.0
 10
38.3022491349
 20
98.0957732136
 30
0.0
 10
38.3001108667
 20
97.8671500937
 30
0.0
 10
38.3000299005
 20
97.7129964104
 30
0.0
 10
38.3000299112
 20
97.6353963127
 30
0.0
  0
SPLINE
  5
2F9
100
AcDbEntity
  8
0
100
AcDbSpline
 62
7
  6
CONTINUOUS
 70
0
 71
3
 72
9
 73
5
 74
0
 42
0.0000001
 43
0.0000001
 44
0.0000000001
 40
0.0
 40
0.0
 40
0.0
 40
0.0
 40
0.6327669691
 40
1.0
 40
1.0
 40
1.0
 40
1.0
 10
34.7652922623
 20
100.2534614199
 30
0.0
 10
34.7627247618
 20
100.254396816
 30
0.0
 10
34.7587270158
 20
100.2558552704
 30
0.0
 10
34.7555480164
 20
100.2596887688
 30
0.0
 10
34.7555480164
 20
100.2612746539
 30
0.0
  0
SPLINE
  5
2FA
100
AcDbEntity
  8
0
100
AcDbSpline
 62
7
  6
CONTINUOUS
 70
0
 71
3
 72
11
 73
7
 74
0
 42
0.0000001
 43
0.0000001
 44
0.0000000001
 40
0.0
 40
0.0
 40
0.0
 40
0.0
 40
0.1716880359
 40
0.3807215201
 40
0.653063051
 40
1.0
 40
1.0
 40
1.0
 40
1.0
 10
34.875783396
 20
100.1939127173
 30
0.0
 10
34.875783396
 20
100.1969838131
 30
0.0
 10
34.8736791124
 20
100.2038422808
 30
0.0
 10
34.8654464665
 20
100.2124510362
 30
0.0
 10
34.852824857
 20
100.2203453721
 30
0.0
 10
34.8426115068
 20
100.2247258104
 30
0.0
 10
34.8368064124
 20
100.2269198743
 30
0.0
  0
SPLINE
  5
2FB
100
AcDbEntity
  8
0
100
AcDbSpline
 62
7
  6
CONTINUOUS
 70
0
 71
3
 72
11
 73
7
 74
0
 42
0.0000001
 43
0.0000001
 44
0.0000000001
 40
0.0
 40
0.0
 40
0.0
 40
0.0
 40
0.2999029792
 40
0.5783530222
 40
0.8169424552
 40
1.0
 40
1.0
 40
1.0
 40
1.0
 10
32.7515930159
 20
100.4960348561
 30
0.0
 10
32.6657114307
 20
100.4883553688
 30
0.0
 10
32.5002273106
 20
100.4719963724
 30
0.0
 10
32.2669681715
 20
100.4442655301
 30
0.0
 10
32.0677386982
 20
100.4155380841
 30
0.0
 10
31.9483327138
 20
100.3941949112
 30
0.0
 10
31.8969374181
 20
100.3828601174
 30
0.0
  0
SPLINE
  5
2FC
100
AcDbEntity
  8
0
100
AcDbSpline
 62
7
  6
CONTINUOUS
 70
0
 71
3
 72
13
 73
9
 74
0
 42
0.0000001
 43
0.0000001
 44
0.0000000001
 40
0.0
 40
0.0
 40
0.0
 40
0.0
 40
0.4079459269
 40
0.7099406418
 40
0.8202028797
 40
0.9035992585
 40
0.9616881674
 40
1.0
 40
1.0
 40
1.0
 40
1.0
 10
31.8969374181
 20
100.3828601174
 30
0.0
 10
31.8785709438
 20
100.3788095483
 30
0.0
 10
31.8467257117
 20
100.3712442997
 30
0.0
 10
31.8104085897
 20
100.3604927333
 30
0.0
 10
31.7891832274
 20
100.3519824801
 30
0.0
 10
31.7788921503
 20
100.3465179539
 30
0.0
 10
31.7722271157
 20
100.3415716875
 30
0.0
 10
31.7699098992
 20
100.3373241841
 30
0.0
 10
31.7699098992
 20
100.3355578656
 30
0.0
  0
SPLINE
  5
2FD
100
AcDbEntity
  8
0
100
AcDbSpline
 62
7
  6
CONTINUOUS
 70
0
 71
3
 72
18
 73
14
 74
0
 42
0.0000001
 43
0.0000001
 44
0.0000000001
 40
0.0
 40
0.0
 40
0.0
 40
0.0
 40
0.0083644833
 40
0.0151943454
 40
0.0241335462
 40
0.048625108
 40
0.0820149809
 40
0.1744983012
 40
0.2984988991
 40
0.4493488077
 40
0.6211020254
 40
0.8071807837
 40
1.0
 40
1.0
 40
1.0
 40
1.0
 10
37.7692388265
 20
100.6968227306
 30
0.0
 10
37.7692388265
 20
100.6996821633
 30
0.0
 10
37.7647711422
 20
100.7040453123
 30
0.0
 10
37.7576404699
 20
100.7076212406
 30
0.0
 10
37.7446084873
 20
100.7125078765
 30
0.0
 10
37.7223849448
 20
100.7176688106
 30
0.0
 10
37.6715980466
 20
100.7259669086
 30
0.0
 10
37.5864839516
 20
100.7337578084
 30
0.0
 10
37.4610768905
 20
100.7404666799
 30
0.0
 10
37.3084374493
 20
100.7444066954
 30
0.0
 10
37.134538332
 20
100.7455005617
 30
0.0
 10
36.9462980931
 20
100.7435933421
 30
0.0
 10
36.8168046066
 20
100.7403965278
 30
0.0
 10
36.7509219431
 20
100.738299279
 30
0.0
  0
SPLINE
  5
2FE
100
AcDbEntity
  8
0
100
AcDbSpline
 62
7
  6
CONTINUOUS
 70
0
 71
3
 72
13
 73
9
 74
0
 42
0.0000001
 43
0.0000001
 44
0.0000000001
 40
0.0
 40
0.0
 40
0.0
 40
0.0
 40
0.3998934392
 40
0.7156219614
 40
0.83243058
 40
0.9186290276
 40
0.9734334485
 40
1.0
 40
1.0
 40
1.0
 40
1.0
 10
36.4458635405
 20
100.5387305263
 30
0.0
 10
36.4238832775
 20
100.5387305263
 30
0.0
 10
36.3845824387
 20
100.539269394
 30
0.0
 10
36.3387617606
 20
100.5417833385
 30
0.0
 10
36.3105620677
 20
100.5448739404
 30
0.0
 10
36.2963534054
 20
100.5476279865
 30
0.0
 10
36.2879820038
 20
100.5498055313
 30
0.0
 10
36.2835080533
 20
100.5529716844
 30
0.0
 10
36.2835080533
 20
100.5544319228
 30
0.0
  0
SPLINE
  5
2FF
100
AcDbEntity
  8
0
100
AcDbSpline
 62
7
  6
CONTINUOUS
 70
0
 71
3
 72
9
 73
5
 74
0
 42
0.0000001
 43
0.0000001
 44
0.0000000001
 40
0.0
 40
0.0
 40
0.0
 40
0.0
 40
0.5003603278
 40
1.0
 40
1.0
 40
1.0
 40
1.0
 10
57.2623663795
 20
44.2396099289
 30
0.0
 10
57.2623663795
 20
44.0574231045
 30
0.0
 10
57.1718069305
 20
43.6901107087
 30
0.0
 10
56.9485317942
 20
43.3923813358
 30
0.0
 10
56.8184627852
 20
43.2651864086
 30
0.0
  0
SPLINE
  5
300
100
AcDbEntity
  8
0
100
AcDbSpline
 62
7
  6
CONTINUOUS
 70
0
 71
3
 72
10
 73
6
 74
0
 42
0.0000001
 43
0.0000001
 44
0.0000000001
 40
0.0
 40
0.0
 40
0.0
 40
0.0
 40
0.4982500265
 40
0.7489329352
 40
1.0
 40
1.0
 40
1.0
 40
1.0
 10
56.8167811225
 20
45.2176551637
 30
0.0
 10
56.9478669078
 20
45.0902585421
 30
0.0
 10
57.1177743698
 20
44.8645118925
 30
0.0
 10
57.2415673481
 20
44.5166261137
 30
0.0
 10
57.2623663795
 20
44.3317190492
 30
0.0
 10
57.2623663795
 20
44.2396099289
 30
0.0
  0
SPLINE
  5
301
100
AcDbEntity
  8
0
100
AcDbSpline
 62
7
  6
CONTINUOUS
 70
0
 71
3
 72
9
 73
5
 74
0
 42
0.0000001
 43
0.0000001
 44
0.0000000001
 40
0.0
 40
0.0
 40
0.0
 40
0.0
 40
0.5000311521
 40
1.0
 40
1.0
 40
1.0
 40
1.0
 10
56.8184627852
 20
43.265186041
 30
0.0
 10
56.6463843142
 20
43.0969099087
 30
0.0
 10
56.2283881712
 20
42.8326197281
 30
0.0
 10
55.7523090819
 20
42.7198752029
 30
0.0
 10
55.5125732926
 20
42.6988948939
 30
0.0
  0
SPLINE
  5
302
100
AcDbEntity
  8
0
100
AcDbSpline
 62
7
  6
CONTINUOUS
 70
0
 71
3
 72
9
 73
5
 74
0
 42
0.0000001
 43
0.0000001
 44
0.0000000001
 40
0.0
 40
0.0
 40
0.0
 40
0.0
 40
0.4999695473
 40
1.0
 40
1.0
 40
1.0
 40
1.0
 10
22.2872794318
 20
42.6988920407
 30
0.0
 10
22.047537228
 20
42.719869888
 30
0.0
 10
21.5714449395
 20
42.8326117711
 30
0.0
 10
21.1534375459
 20
43.0969075864
 30
0.0
 10
20.9813551398
 20
43.2651875652
 30
0.0
  0
SPLINE
  5
303
100
AcDbEntity
  8
0
100
AcDbSpline
 62
7
  6
CONTINUOUS
 70
0
 71
3
 72
11
 73
7
 74
0
 42
0.0000001
 43
0.0000001
 44
0.0000000001
 40
0.0
 40
0.0
 40
0.0
 40
0.0
 40
0.2495111281
 40
0.4993186484
 40
0.7494786622
 40
1.0
 40
1.0
 40
1.0
 40
1.0
 10
22.4805551476
 20
45.7745037804
 30
0.0
 10
22.6290060999
 20
45.7578722468
 30
0.0
 10
22.9238110133
 20
45.6968843165
 30
0.0
 10
23.3395430808
 20
45.5196379215
 30
0.0
 10
23.7066784482
 20
45.2535286069
 30
0.0
 10
23.8976237554
 20
45.0158491407
 30
0.0
 10
23.9719751913
 20
44.8855908851
 30
0.0
  0
SPLINE
  5
304
100
AcDbEntity
  8
0
100
AcDbSpline
 62
7
  6
CONTINUOUS
 70
0
 71
3
 72
9
 73
5
 74
0
 42
0.0000001
 43
0.0000001
 44
0.0000000001
 40
0.0
 40
0.0
 40
0.0
 40
0.0
 40
0.7493432081
 40
1.0
 40
1.0
 40
1.0
 40
1.0
 10
55.5785127472
 20
45.7751863185
 30
0.0
 10
55.8035916542
 20
45.7504605506
 30
0.0
 10
56.1024971907
 20
45.6739307849
 30
0.0
 10
56.3726643747
 20
45.5376479137
 30
0.0
 10
56.4381624899
 20
45.4996099289
 30
0.0
  0
SPLINE
  5
305
100
AcDbEntity
  8
0
100
AcDbSpline
 62
7
  6
CONTINUOUS
 70
0
 71
3
 72
11
 73
7
 74
0
 42
0.0000001
 43
0.0000001
 44
0.0000000001
 40
0.0
 40
0.0
 40
0.0
 40
0.0
 40
0.249532953
 40
0.4994330946
 40
0.7496235542
 40
1.0
 40
1.0
 40
1.0
 40
1.0
 10
54.6384071533
 20
42.847675157
 30
0.0
 10
54.5351211393
 20
42.9328049043
 30
0.0
 10
54.3428052097
 20
43.1218712128
 30
0.0
 10
54.1157278804
 20
43.457261072
 30
0.0
 10
53.9682079052
 20
43.8356439773
 30
0.0
 10
53.933926792
 20
44.1053102809
 30
0.0
 10
53.933926792
 20
44.2396099289
 30
0.0
  0
SPLINE
  5
306
100
AcDbEntity
  8
0
100
AcDbSpline
 62
7
  6
CONTINUOUS
 70
0
 71
3
 72
11
 73
7
 74
0
 42
0.0000001
 43
0.0000001
 44
0.0000000001
 40
0.0
 40
0.0
 40
0.0
 40
0.0
 40
0.2505205655
 40
0.500680531
 40
0.7504877368
 40
1.0
 40
1.0
 40
1.0
 40
1.0
 10
53.8328297922
 20
44.8942543171
 30
0.0
 10
53.9076724604
 20
45.0232727565
 30
0.0
 10
54.0988184203
 20
45.2585065428
 30
0.0
 10
54.4647350527
 20
45.5219110678
 30
0.0
 10
54.8784300743
 20
45.6974593168
 30
0.0
 10
55.1716123862
 20
45.7579602474
 30
0.0
 10
55.3192431894
 20
45.7745013127
 30
0.0
  0
SPLINE
  5
307
100
AcDbEntity
  8
0
100
AcDbSpline
 62
7
  6
CONTINUOUS
 70
0
 71
3
 72
11
 73
7
 74
0
 42
0.0000001
 43
0.0000001
 44
0.0000000001
 40
0.0
 40
0.0
 40
0.0
 40
0.0
 40
0.2505083831
 40
0.500658553
 40
0.7504680349
 40
1.0
 40
1.0
 40
1.0
 40
1.0
 10
53.8170695793
 20
43.4922527477
 30
0.0
 10
53.898914524
 20
43.3727085305
 30
0.0
 10
54.0985454438
 20
43.1571638301
 30
0.0
 10
54.4652390342
 20
42.9185825541
 30
0.0
 10
54.8726270994
 20
42.7625122331
 30
0.0
 10
55.1587730778
 20
42.7115119454
 30
0.0
 10
55.3025341894
 20
42.6989082274
 30
0.0
  0
SPLINE
  5
308
100
AcDbEntity
  8
0
100
AcDbSpline
 62
7
  6
CONTINUOUS
 70
0
 71
3
 72
10
 73
6
 74
0
 42
0.0000001
 43
0.0000001
 44
0.0000000001
 40
0.0
 40
0.0
 40
0.0
 40
0.0
 40
0.2509421215
 40
0.5016345857
 40
1.0
 40
1.0
 40
1.0
 40
1.0
 10
23.860903171
 20
44.1133162581
 30
0.0
 10
23.8511576679
 20
43.9898767086
 30
0.0
 10
23.8026770746
 20
43.7444452464
 30
0.0
 10
23.6020079286
 20
43.2904772542
 30
0.0
 10
23.3512975498
 20
43.0042052057
 30
0.0
 10
23.1615470887
 20
42.8477859638
 30
0.0
  0
SPLINE
  5
309
100
AcDbEntity
  8
0
100
AcDbSpline
 62
7
  6
CONTINUOUS
 70
0
 71
3
 72
10
 73
6
 74
0
 42
0.0000001
 43
0.0000001
 44
0.0000000001
 40
0.0
 40
0.0
 40
0.0
 40
0.0
 40
0.2510719695
 40
0.5017887632
 40
1.0
 40
1.0
 40
1.0
 40
1.0
 10
23.9781032046
 20
43.4855119116
 30
0.0
 10
23.8959602489
 20
43.3669996051
 30
0.0
 10
23.6962597312
 20
43.1533035604
 30
0.0
 10
23.2112211007
 20
42.8391578923
 30
0.0
 10
22.7823398685
 20
42.7239010938
 30
0.0
 10
22.4972990096
 20
42.6989094068
 30
0.0
  0
SPLINE
  5
30A
100
AcDbEntity
  8
0
100
AcDbSpline
 62
7
  6
CONTINUOUS
 70
0
 71
3
 72
10
 73
6
 74
0
 42
0.0000001
 43
0.0000001
 44
0.0000000001
 40
0.0
 40
0.0
 40
0.0
 40
0.0
 40
0.2511187413
 40
0.5018227172
 40
1.0
 40
1.0
 40
1.0
 40
1.0
 10
20.5374534189
 20
44.2396099289
 30
0.0
 10
20.5374534189
 20
44.3317383039
 30
0.0
 10
20.5583629865
 20
44.5166528708
 30
0.0
 10
20.681942775
 20
44.8646106636
 30
0.0
 10
20.8519716077
 20
45.0902766688
 30
0.0
 10
20.9830386759
 20
45.2176551002
 30
0.0
  0
SPLINE
  5
30B
100
AcDbEntity
  8
0
100
AcDbSpline
 62
7
  6
CONTINUOUS
 70
0
 71
3
 72
9
 73
5
 74
0
 42
0.0000001
 43
0.0000001
 44
0.0000000001
 40
0.0
 40
0.0
 40
0.0
 40
0.0
 40
0.4997001034
 40
1.0
 40
1.0
 40
1.0
 40
1.0
 10
20.9813551398
 20
43.2651887586
 30
0.0
 10
20.8512705831
 20
43.3923988735
 30
0.0
 10
20.6279960256
 20
43.6901328662
 30
0.0
 10
20.5374534189
 20
44.0574453775
 30
0.0
 10
20.5374534189
 20
44.2396099289
 30
0.0
  0
SPLINE
  5
30C
100
AcDbEntity
  8
0
100
AcDbSpline
 62
7
  6
CONTINUOUS
 70
0
 71
3
 72
9
 73
5
 74
0
 42
0.0000001
 43
0.0000001
 44
0.0000000001
 40
0.0
 40
0.0
 40
0.0
 40
0.0
 40
0.2506458424
 40
1.0
 40
1.0
 40
1.0
 40
1.0
 10
21.3616573085
 20
45.4996099289
 30
0.0
 10
21.4271530412
 20
45.5376465301
 30
0.0
 10
21.6973210429
 20
45.6739325959
 30
0.0
 10
21.9962293413
 20
45.7504622508
 30
0.0
 10
22.2213131427
 20
45.7751889182
 30
0.0
  0
SPLINE
  5
30D
100
AcDbEntity
  8
0
100
AcDbSpline
 62
7
  6
CONTINUOUS
 70
0
 71
3
 72
8
 73
4
 74
0
 42
0.0000001
 43
0.0000001
 44
0.0000000001
 40
0.0
 40
0.0
 40
0.0
 40
0.0
 40
1.0
 40
1.0
 40
1.0
 40
1.0
 10
56.43816249
 20
45.4996099289
 30
0.0
 10
56.5750593852
 20
45.4219087962
 30
0.0
 10
56.7040975057
 20
45.3273582728
 30
0.0
 10
56.8169815639
 20
45.2176522322
 30
0.0
  0
SPLINE
  5
30E
100
AcDbEntity
  8
0
100
AcDbSpline
 62
7
  6
CONTINUOUS
 70
0
 71
3
 72
8
 73
4
 74
0
 42
0.0000001
 43
0.0000001
 44
0.0000000001
 40
0.0
 40
0.0
 40
0.0
 40
0.0
 40
1.0
 40
1.0
 40
1.0
 40
1.0
 10
20.9828382346
 20
45.217652229
 30
0.0
 10
21.0957222932
 20
45.32735827
 30
0.0
 10
21.2247604127
 20
45.4219087959
 30
0.0
 10
21.3616573085
 20
45.4996099289
 30
0.0
  0
SPLINE
  5
30F
100
AcDbEntity
  8
0
100
AcDbSpline
 62
7
  6
CONTINUOUS
 70
0
 71
3
 72
13
 73
9
 74
0
 42
0.0000001
 43
0.0000001
 44
0.0000000001
 40
0.0
 40
0.0
 40
0.0
 40
0.0
 40
0.1131624505
 40
0.2279919909
 40
0.3461564069
 40
0.4686646739
 40
0.7267538315
 40
1.0
 40
1.0
 40
1.0
 40
1.0
 10
52.7165824312
 20
30.5923097639
 30
0.0
 10
52.8829891884
 20
30.5746953004
 30
0.0
 10
53.2238722451
 20
30.580181366
 30
0.0
 10
53.7239211083
 20
30.7084129245
 30
0.0
 10
54.1945928828
 20
30.9517869155
 30
0.0
 10
54.7709600612
 20
31.4191880986
 30
0.0
 10
55.3312415169
 20
32.2311320497
 30
0.0
 10
55.5734443188
 20
32.990591391
 30
0.0
 10
55.6423508925
 20
33.3887290916
 30
0.0
  0
SPLINE
  5
310
100
AcDbEntity
  8
0
100
AcDbSpline
 62
7
  6
CONTINUOUS
 70
0
 71
3
 72
13
 73
9
 74
0
 42
0.0000001
 43
0.0000001
 44
0.0000000001
 40
0.0
 40
0.0
 40
0.0
 40
0.0
 40
0.2505769632
 40
0.5004263189
 40
0.6255145458
 40
0.7504471504
 40
0.8752928102
 40
1.0
 40
1.0
 40
1.0
 40
1.0
 10
22.157456083
 20
33.3887277226
 30
0.0
 10
22.2206767115
 20
33.0234028853
 30
0.0
 10
22.4406850462
 20
32.3070864837
 30
0.0
 10
22.9505761848
 20
31.5149484866
 30
0.0
 10
23.5053830812
 20
31.0192104913
 30
0.0
 10
23.990442062
 20
30.7406727307
 30
0.0
 10
24.5273746649
 20
30.5832511358
 30
0.0
 10
24.9015296977
 20
30.5730189564
 30
0.0
 10
25.0850271231
 20
30.5923922981
 30
0.0
  0
SPLINE
  5
311
100
AcDbEntity
  8
0
100
AcDbSpline
 62
7
  6
CONTINUOUS
 70
0
 71
3
 72
9
 73
5
 74
0
 42
0.0000001
 43
0.0000001
 44
0.0000000001
 40
0.0
 40
0.0
 40
0.0
 40
0.0
 40
0.5001157655
 40
1.0
 40
1.0
 40
1.0
 40
1.0
 10
23.984095106
 20
43.2436563491
 30
0.0
 10
23.7899694924
 20
43.0576887593
 30
0.0
 10
23.309914653
 20
42.7774355197
 30
0.0
 10
22.7686138238
 20
42.6896042296
 30
0.0
 10
22.4999098985
 20
42.6896060308
 30
0.0
  0
SPLINE
  5
312
100
AcDbEntity
  8
0
100
AcDbSpline
 62
7
  6
CONTINUOUS
 70
0
 71
3
 72
11
 73
7
 74
0
 42
0.0000001
 43
0.0000001
 44
0.0000000001
 40
0.0
 40
0.0
 40
0.0
 40
0.0
 40
0.2469342048
 40
0.5037078303
 40
0.7582543307
 40
1.0
 40
1.0
 40
1.0
 40
1.0
 10
58.5826589355
 20
80.6963348785
 30
0.0
 10
58.6900106112
 20
80.6976154862
 30
0.0
 10
58.9101549872
 20
80.662067942
 30
0.0
 10
59.2111677638
 20
80.5126054323
 30
0.0
 10
59.4360559377
 20
80.2657380534
 30
0.0
 10
59.5271585381
 20
80.0653440143
 30
0.0
 10
59.5526875222
 20
79.9633880599
 30
0.0
  0
SPLINE
  5
313
100
AcDbEntity
  8
0
100
AcDbSpline
 62
7
  6
CONTINUOUS
 70
0
 71
3
 72
11
 73
7
 74
0
 42
0.0000001
 43
0.0000001
 44
0.0000000001
 40
0.0
 40
0.0
 40
0.0
 40
0.0
 40
0.2452341144
 40
0.5037372255
 40
0.7600040722
 40
1.0
 40
1.0
 40
1.0
 40
1.0
 10
60.3924887972
 20
72.7486364004
 30
0.0
 10
60.5025916811
 20
72.7497144844
 30
0.0
 10
60.7308159383
 20
72.7148777471
 30
0.0
 10
61.0378702086
 20
72.5506704036
 30
0.0
 10
61.2673807378
 20
72.2916562169
 30
0.0
 10
61.3503933781
 20
72.0794182455
 30
0.0
 10
61.3720595758
 20
71.9738626347
 30
0.0
  0
SPLINE
  5
314
100
AcDbEntity
  8
0
100
AcDbSpline
 62
7
  6
CONTINUOUS
 70
0
 71
3
 72
14
 73
10
 74
0
 42
0.0000001
 43
0.0000001
 44
0.0000000001
 40
0.0
 40
0.0
 40
0.0
 40
0.0
 40
0.0546467184
 40
0.1318637519
 40
0.2328873083
 40
0.3563855776
 40
0.4998044929
 40
0.6585010302
 40
1.0
 40
1.0
 40
1.0
 40
1.0
 10
55.9241629084
 20
71.8726839931
 30
0.0
 10
55.9503398204
 20
71.8372882404
 30
0.0
 10
55.9998465439
 20
71.742248108
 30
0.0
 10
56.0640894721
 20
71.5659022391
 30
0.0
 10
56.1275628303
 20
71.3309501854
 30
0.0
 10
56.188563283
 20
71.0408008305
 30
0.0
 10
56.2442662065
 20
70.7023760897
 30
0.0
 10
56.3112116891
 20
70.1881551994
 30
0.0
 10
56.3458013363
 20
69.7864396298
 30
0.0
 10
56.3634963312
 20
69.5118955381
 30
0.0
  0
SPLINE
  5
315
100
AcDbEntity
  8
0
100
AcDbSpline
 62
7
  6
CONTINUOUS
 70
0
 71
3
 72
14
 73
10
 74
0
 42
0.0000001
 43
0.0000001
 44
0.0000000001
 40
0.0
 40
0.0
 40
0.0
 40
0.0
 40
0.0546466839
 40
0.131863762
 40
0.2328872469
 40
0.3563855517
 40
0.4998045061
 40
0.6585009514
 40
1.0
 40
1.0
 40
1.0
 40
1.0
 10
21.8756568935
 20
71.8726839929
 30
0.0
 10
21.8494799981
 20
71.8372882624
 30
0.0
 10
21.799973217
 20
71.7422481509
 30
0.0
 10
21.7357304107
 20
71.5659022862
 30
0.0
 10
21.6722568878
 20
71.3309502746
 30
0.0
 10
21.6112565841
 20
71.0408008805
 30
0.0
 10
21.5555535474
 20
70.7023761754
 30
0.0
 10
21.4886081603
 20
70.1881552502
 30
0.0
 10
21.4540183057
 20
69.7864397063
 30
0.0
 10
21.4363234727
 20
69.51189554
 30
0.0
  0
SPLINE
  5
316
100
AcDbEntity
  8
0
100
AcDbSpline
 62
7
  6
CONTINUOUS
 70
0
 71
3
 72
11
 73
7
 74
0
 42
0.0000001
 43
0.0000001
 44
0.0000000001
 40
0.0
 40
0.0
 40
0.0
 40
0.0
 40
0.2452351586
 40
0.5037384364
 40
0.7600048051
 40
1.0
 40
1.0
 40
1.0
 40
1.0
 10
17.4073112622
 20
72.7486366362
 30
0.0
 10
17.2972088651
 20
72.7497125147
 30
0.0
 10
17.0689867741
 20
72.7148718294
 30
0.0
 10
16.7619377766
 20
72.5506606392
 30
0.0
 10
16.5324333039
 20
72.2916460348
 30
0.0
 10
16.4494237664
 20
72.0794097407
 30
0.0
 10
16.4277586987
 20
71.9738552101
 30
0.0
  0
SPLINE
  5
317
100
AcDbEntity
  8
0
100
AcDbSpline
 62
7
  6
CONTINUOUS
 70
0
 71
3
 72
11
 73
7
 74
0
 42
0.0000001
 43
0.0000001
 44
0.0000000001
 40
0.0
 40
0.0
 40
0.0
 40
0.0
 40
0.2469349555
 40
0.5037086266
 40
0.7582550897
 40
1.0
 40
1.0
 40
1.0
 40
1.0
 10
19.2171564765
 20
80.6963347133
 30
0.0
 10
19.1098035047
 20
80.6976145375
 30
0.0
 10
18.8896569843
 20
80.6620656014
 30
0.0
 10
18.5886424046
 20
80.5125986002
 30
0.0
 10
18.363756022
 20
80.2657259488
 30
0.0
 10
18.2726554891
 20
80.0653290952
 30
0.0
 10
18.2471282725
 20
79.9633720693
 30
0.0
  0
SPLINE
  5
318
100
AcDbEntity
  8
0
100
AcDbSpline
 62
7
  6
CONTINUOUS
 70
0
 71
3
 72
10
 73
6
 74
0
 42
0.0000001
 43
0.0000001
 44
0.0000000001
 40
0.0
 40
0.0
 40
0.0
 40
0.0
 40
0.5397020885
 40
0.7845654851
 40
1.0
 40
1.0
 40
1.0
 40
1.0
 10
52.7166297724
 20
30.5923608207
 30
0.0
 10
52.5771022038
 20
29.3754401555
 30
0.0
 10
52.3369438665
 20
27.6101502373
 30
0.0
 10
51.9438359198
 20
25.3746934813
 30
0.0
 10
51.7308384139
 20
24.3516486142
 30
0.0
 10
51.6201549692
 20
23.8753967846
 30
0.0
  0
LINE
  5
319
100
AcDbEntity
  8
0
100
AcDbLine
 62
7
  6
CONTINUOUS
 10
56.3656387617
 20
37.570604153
 11
55.6423580972
 21
33.3887268345
  0
SPLINE
  5
31A
100
AcDbEntity
  8
0
100
AcDbSpline
 62
7
  6
CONTINUOUS
 70
0
 71
3
 72
10
 73
6
 74
0
 42
0.0000001
 43
0.0000001
 44
0.0000000001
 40
0.0
 40
0.0
 40
0.0
 40
0.0
 40
0.2154346657
 40
0.4602978546
 40
1.0
 40
1.0
 40
1.0
 40
1.0
 10
26.179671337
 20
23.8753983437
 30
0.0
 10
26.0689904429
 20
24.3516393661
 30
0.0
 10
25.8559975399
 20
25.3746600604
 30
0.0
 10
25.4628969105
 20
27.6100641492
 30
0.0
 10
25.2227419009
 20
29.375312053
 30
0.0
 10
25.0832153911
 20
30.5922041066
 30
0.0
  0
LINE
  5
31B
100
AcDbEntity
  8
0
100
AcDbLine
 62
7
  6
CONTINUOUS
 10
22.1574617601
 20
33.3887277093
 11
21.4341775654
 21
37.5706036557
  0
SPLINE
  5
31C
100
AcDbEntity
  8
0
100
AcDbSpline
 62
7
  6
CONTINUOUS
 70
0
 71
3
 72
11
 73
7
 74
0
 42
0.0000001
 43
0.0000001
 44
0.0000000001
 40
0.0
 40
0.0
 40
0.0
 40
0.0
 40
0.2429427407
 40
0.5039788125
 40
0.7625053344
 40
1.0
 40
1.0
 40
1.0
 40
1.0
 10
19.8152953673
 20
80.6963343779
 30
0.0
 10
19.9519000643
 20
80.6963912855
 30
0.0
 10
20.2379280952
 20
80.6440460519
 30
0.0
 10
20.6096617564
 20
80.4082354247
 30
0.0
 10
20.8569813462
 20
80.0472519734
 30
0.0
 10
20.9140881298
 20
79.7660451713
 30
0.0
 10
20.9152534827
 20
79.6325089552
 30
0.0
  0
LINE
  5
31D
100
AcDbEntity
  8
0
100
AcDbLine
 62
7
  6
CONTINUOUS
 10
21.7757520143
 20
16.8865943182
 11
21.809351231
 21
16.8560629516
  0
SPLINE
  5
31E
100
AcDbEntity
  8
0
100
AcDbSpline
 62
7
  6
CONTINUOUS
 70
0
 71
3
 72
11
 73
7
 74
0
 42
0.0000001
 43
0.0000001
 44
0.0000000001
 40
0.0
 40
0.0
 40
0.0
 40
0.0
 40
0.2471722858
 40
0.496047652
 40
0.7471787129
 40
1.0
 40
1.0
 40
1.0
 40
1.0
 10
56.8845441575
 20
79.629462024
 30
0.0
 10
56.8853532393
 20
79.7686928
 30
0.0
 10
56.9443111554
 20
80.0509162706
 30
0.0
 10
57.1905088933
 20
80.4054527624
 30
0.0
 10
57.5552234989
 20
80.6415258354
 30
0.0
 10
57.8421092162
 20
80.6964032481
 30
0.0
 10
57.9845244312
 20
80.6963343779
 30
0.0
  0
SPLINE
  5
31F
100
AcDbEntity
  8
0
100
AcDbSpline
 62
7
  6
CONTINUOUS
 70
0
 71
3
 72
11
 73
7
 74
0
 42
0.0000001
 43
0.0000001
 44
0.0000000001
 40
0.0
 40
0.0
 40
0.0
 40
0.0
 40
0.2499774871
 40
0.5000388637
 40
0.7500396021
 40
1.0
 40
1.0
 40
1.0
 40
1.0
 10
15.4771787622
 20
25.7396154795
 30
0.0
 10
15.7441032103
 20
24.9898060797
 30
0.0
 10
16.3603392632
 20
23.517750836
 30
0.0
 10
17.5281422238
 20
21.4284450007
 30
0.0
 10
18.950720893
 20
19.5018929283
 30
0.0
 10
20.0762286466
 20
18.3657188926
 30
0.0
 10
20.679868314
 20
17.8470712845
 30
0.0
  0
SPLINE
  5
320
100
AcDbEntity
  8
0
100
AcDbSpline
 62
7
  6
CONTINUOUS
 70
0
 71
3
 72
8
 73
4
 74
0
 42
0.0000001
 43
0.0000001
 44
0.0000000001
 40
0.0
 40
0.0
 40
0.0
 40
0.0
 40
1.0
 40
1.0
 40
1.0
 40
1.0
 10
53.810104442
 20
45.2278437205
 30
0.0
 10
53.918559045
 20
45.3331348285
 30
0.0
 10
54.042054882
 20
45.4243078066
 30
0.0
 10
54.1731205476
 20
45.4996099289
 30
0.0
  0
SPLINE
  5
321
100
AcDbEntity
  8
0
100
AcDbSpline
 62
7
  6
CONTINUOUS
 70
0
 71
3
 72
8
 73
4
 74
0
 42
0.0000001
 43
0.0000001
 44
0.0000000001
 40
0.0
 40
0.0
 40
0.0
 40
0.0
 40
1.0
 40
1.0
 40
1.0
 40
1.0
 10
23.6266992508
 20
45.4996099289
 30
0.0
 10
23.7588432267
 20
45.4236882771
 30
0.0
 10
23.8833030358
 20
45.3316226564
 30
0.0
 10
23.9924115408
 20
45.2252202989
 30
0.0
  0
LINE
  5
322
100
AcDbEntity
  8
0
100
AcDbLine
 62
7
  6
CONTINUOUS
 10
22.7052068058
 20
45.706125318
 11
22.6974512751
 21
44.2396099289
  0
LINE
  5
323
100
AcDbEntity
  8
0
100
AcDbLine
 62
7
  6
CONTINUOUS
 10
20.9828968964
 20
45.4996308732
 11
20.9899962766
 21
46.2372510577
  0
SPLINE
  5
324
100
AcDbEntity
  8
0
100
AcDbSpline
 62
7
  6
CONTINUOUS
 70
0
 71
3
 72
9
 73
5
 74
0
 42
0.0000001
 43
0.0000001
 44
0.0000000001
 40
0.0
 40
0.0
 40
0.0
 40
0.0
 40
0.4999991093
 40
1.0
 40
1.0
 40
1.0
 40
1.0
 10
56.3635163027
 20
69.511896377
 30
0.0
 10
50.5450541165
 20
69.3061042458
 30
0.0
 10
38.899867183
 20
69.1057050858
 30
0.0
 10
27.25472104
 20
69.3055636724
 30
0.0
 10
21.4361789302
 20
69.5096760397
 30
0.0
  0
LINE
  5
325
100
AcDbEntity
  8
0
100
AcDbLine
 62
7
  6
CONTINUOUS
 10
56.8169230976
 20
45.4996099289
 11
56.8098234287
 21
46.2372510811
  0
LINE
  5
326
100
AcDbEntity
  8
0
100
AcDbLine
 62
7
  6
CONTINUOUS
 10
55.1023685234
 20
44.2396099289
 11
55.0946126622
 21
45.7061877888
  0
SPLINE
  5
327
100
AcDbEntity
  8
0
100
AcDbSpline
 62
7
  6
CONTINUOUS
 70
0
 71
3
 72
20
 73
16
 74
0
 42
0.0000001
 43
0.0000001
 44
0.0000000001
 40
0.0
 40
0.0
 40
0.0
 40
0.0
 40
0.0470549866
 40
0.0903965794
 40
0.1306019863
 40
0.1693784297
 40
0.209510289
 40
0.2542547626
 40
0.3058280121
 40
0.3650650052
 40
0.4315004453
 40
0.5038848951
 40
0.661377483
 40
0.8286042995
 40
1.0
 40
1.0
 40
1.0
 40
1.0
 10
52.8997577691
 20
12.163468684
 30
0.0
 10
52.9000090926
 20
12.0805434252
 30
0.0
 10
52.910476587
 20
11.9209155624
 30
0.0
 10
52.9641617561
 20
11.6956945852
 30
0.0
 10
53.0607775531
 20
11.5002338516
 30
0.0
 10
53.2071882437
 20
11.3448519915
 30
0.0
 10
53.4036725656
 20
11.2417722895
 30
0.0
 10
53.6437178716
 20
11.2006015192
 30
0.0
 10
53.9191079412
 20
11.2186154033
 30
0.0
 10
54.2233477524
 20
11.2945781309
 30
0.0
 10
54.5490158207
 20
11.4221089438
 30
0.0
 10
55.0143682114
 20
11.6604777314
 30
0.0
 10
55.5970512132
 20
12.0521497462
 30
0.0
 10
56.2681967354
 20
12.6140544104
 30
0.0
 10
56.6928662953
 20
13.0343185548
 30
0.0
 10
56.9000141112
 20
13.2541497952
 30
0.0
  0
SPLINE
  5
328
100
AcDbEntity
  8
0
100
AcDbSpline
 62
7
  6
CONTINUOUS
 70
0
 71
3
 72
21
 73
17
 74
0
 42
0.0000001
 43
0.0000001
 44
0.0000000001
 40
0.0
 40
0.0
 40
0.0
 40
0.0
 40
0.0105346137
 40
0.0216391838
 40
0.0342893264
 40
0.0490204854
 40
0.0853951949
 40
0.1308072026
 40
0.1841089701
 40
0.2441747883
 40
0.3098762376
 40
0.379998142
 40
0.5289179889
 40
0.6845015892
 40
0.8419208597
 40
1.0
 40
1.0
 40
1.0
 40
1.0
 10
17.4073360341
 20
72.7486318809
 30
0.0
 10
17.4042024167
 20
72.7333627137
 30
0.0
 10
17.4036539929
 20
72.7004647804
 30
0.0
 10
17.4212740379
 20
72.6519928161
 30
0.0
 10
17.4547224649
 20
72.60529897
 30
0.0
 10
17.5236272474
 20
72.5402905857
 30
0.0
 10
17.6466467223
 20
72.4654760829
 30
0.0
 10
17.8300758034
 20
72.3856341706
 30
0.0
 10
18.0532556975
 20
72.3113625113
 30
0.0
 10
18.3094159427
 20
72.2432883017
 30
0.0
 10
18.5926905185
 20
72.1815397579
 30
0.0
 10
19.0072740659
 20
72.1061792135
 30
0.0
 10
19.5565698524
 20
72.0300594627
 30
0.0
 10
20.2368061505
 20
71.9624796125
 30
0.0
 10
20.9321985758
 20
71.9136166831
 30
0.0
 10
21.398516472
 20
71.8912701431
 30
0.0
 10
21.6322271636
 20
71.8818695839
 30
0.0
  0
SPLINE
  5
329
100
AcDbEntity
  8
0
100
AcDbSpline
 62
7
  6
CONTINUOUS
 70
0
 71
3
 72
21
 73
17
 74
0
 42
0.0000001
 43
0.0000001
 44
0.0000000001
 40
0.0
 40
0.0
 40
0.0
 40
0.0
 40
0.1580902503
 40
0.3155224633
 40
0.4711130283
 40
0.6200330446
 40
0.6901521028
 40
0.7558488285
 40
0.8159088262
 40
0.8692044717
 40
0.9146104542
 40
0.9509803131
 40
0.9657100058
 40
0.9783595493
 40
0.9894644315
 40
1.0
 40
1.0
 40
1.0
 40
1.0
 10
56.1694221877
 20
71.8819429776
 30
0.0
 10
56.4030528478
 20
71.8913496696
 30
0.0
 10
56.8692135779
 20
71.9137104359
 30
0.0
 10
57.56436331
 20
71.9625939661
 30
0.0
 10
58.2443455132
 20
72.0301898408
 30
0.0
 10
58.7934166645
 20
72.1063167799
 30
0.0
 10
59.2078132104
 20
72.1816764689
 30
0.0
 10
59.4909466976
 20
72.2434198178
 30
0.0
 10
59.7469712274
 20
72.3114847132
 30
0.0
 10
59.9700257634
 20
72.3857429088
 30
0.0
 10
60.1533458525
 20
72.4655664899
 30
0.0
 10
60.2762865898
 20
72.5403620512
 30
0.0
 10
60.3451421587
 20
72.6053510253
 30
0.0
 10
60.3785650047
 20
72.6520309858
 30
0.0
 10
60.3961680697
 20
72.7004873312
 30
0.0
 10
60.3956162444
 20
72.7333730599
 30
0.0
 10
60.3924829982
 20
72.7486372036
 30
0.0
  0
SPLINE
  5
32A
100
AcDbEntity
  8
0
100
AcDbSpline
 62
7
  6
CONTINUOUS
 70
0
 71
3
 72
9
 73
5
 74
0
 42
0.0000001
 43
0.0000001
 44
0.0000000001
 40
0.0
 40
0.0
 40
0.0
 40
0.0
 40
0.2497322087
 40
1.0
 40
1.0
 40
1.0
 40
1.0
 10
55.9904687472
 20
16.856062681
 30
0.0
 10
55.5421762084
 20
16.7231409826
 30
0.0
 10
53.7190429907
 20
16.2874184847
 30
0.0
 10
51.8180863693
 20
16.2047442002
 30
0.0
 10
50.4177630849
 20
16.3162556264
 30
0.0
  0
SPLINE
  5
32B
100
AcDbEntity
  8
0
100
AcDbSpline
 62
7
  6
CONTINUOUS
 70
0
 71
3
 72
18
 73
14
 74
0
 42
0.0000001
 43
0.0000001
 44
0.0000000001
 40
0.0
 40
0.0
 40
0.0
 40
0.0
 40
0.3325582534
 40
0.4898117242
 40
0.5631187932
 40
0.6318987364
 40
0.6954537179
 40
0.7522794187
 40
0.801564996
 40
0.8448830468
 40
0.8844250381
 40
0.9221340709
 40
1.0
 40
1.0
 40
1.0
 40
1.0
 10
57.1755334226
 20
12.9685715178
 30
0.0
 10
56.7325845636
 20
12.5462163821
 30
0.0
 10
56.0433741369
 20
11.9580684897
 30
0.0
 10
55.1643147962
 20
11.4046825302
 30
0.0
 10
54.6701918204
 20
11.1600063925
 30
0.0
 10
54.3183080016
 20
11.0193829799
 30
0.0
 10
53.9836830974
 20
10.9212211472
 30
0.0
 10
53.6744948107
 20
10.869964629
 30
0.0
 10
53.397555692
 20
10.8746673534
 30
0.0
 10
53.1592825162
 20
10.93367776
 30
0.0
 10
52.9614256472
 20
11.0396597704
 30
0.0
 10
52.7540483397
 20
11.2418474725
 30
0.0
 10
52.6791153999
 20
11.4527700617
 30
0.0
 10
52.6531137697
 20
11.593694764
 30
0.0
  0
SPLINE
  5
32C
100
AcDbEntity
  8
0
100
AcDbSpline
 62
7
  6
CONTINUOUS
 70
0
 71
3
 72
9
 73
5
 74
0
 42
0.0000001
 43
0.0000001
 44
0.0000000001
 40
0.0
 40
0.0
 40
0.0
 40
0.0
 40
0.2357550104
 40
1.0
 40
1.0
 40
1.0
 40
1.0
 10
52.6531137697
 20
11.593694764
 30
0.0
 10
52.6452787315
 20
11.6361594257
 30
0.0
 10
52.6206278082
 20
11.8178695788
 30
0.0
 10
52.6271943
 20
12.0028787712
 30
0.0
 10
52.6437183017
 20
12.1418809126
 30
0.0
  0
SPLINE
  5
32D
100
AcDbEntity
  8
0
100
AcDbSpline
 62
7
  6
CONTINUOUS
 70
0
 71
3
 72
15
 73
11
 74
0
 42
0.0000001
 43
0.0000001
 44
0.0000000001
 40
0.0
 40
0.0
 40
0.0
 40
0.0
 40
0.0944098455
 40
0.1993036459
 40
0.3136502915
 40
0.4368223808
 40
0.5679153346
 40
0.7062329797
 40
0.851142817
 40
1.0
 40
1.0
 40
1.0
 40
1.0
 10
52.6437183017
 20
12.1418809126
 30
0.0
 10
52.6655862708
 20
12.3258372321
 30
0.0
 10
52.7547320492
 20
12.709249566
 30
0.0
 10
52.9829600668
 20
13.282443657
 30
0.0
 10
53.305875554
 20
13.87335343
 30
0.0
 10
53.7166182238
 20
14.4698129705
 30
0.0
 10
54.1993854194
 20
15.0707766822
 30
0.0
 10
54.7485401821
 20
15.6710907744
 30
0.0
 10
55.3591873483
 20
16.2596239787
 30
0.0
 10
55.7800317246
 20
16.6534890252
 30
0.0
 10
55.9904610272
 20
16.856060392
 30
0.0
  0
SPLINE
  5
32E
100
AcDbEntity
  8
0
100
AcDbSpline
 62
7
  6
CONTINUOUS
 70
0
 71
3
 72
11
 73
7
 74
0
 42
0.0000001
 43
0.0000001
 44
0.0000000001
 40
0.0
 40
0.0
 40
0.0
 40
0.0
 40
0.2499627199
 40
0.4999636186
 40
0.750024114
 40
1.0
 40
1.0
 40
1.0
 40
1.0
 10
57.1199509844
 20
17.8470708568
 30
0.0
 10
57.72347359
 20
18.3658653756
 30
0.0
 10
58.8490821025
 20
19.5019113719
 30
0.0
 10
60.2717363211
 20
21.4284403376
 30
0.0
 10
61.4394557092
 20
23.5177774007
 30
0.0
 10
62.0557285567
 20
24.9898074033
 30
0.0
 10
62.322640184
 20
25.7396155101
 30
0.0
  0
LINE
  5
32F
100
AcDbEntity
  8
0
100
AcDbLine
 62
7
  6
CONTINUOUS
 10
55.9904685504
 20
16.8560629514
 11
56.0240543196
 21
16.8865822087
  0
SPLINE
  5
330
100
AcDbEntity
  8
0
100
AcDbSpline
 62
7
  6
CONTINUOUS
 70
0
 71
3
 72
20
 73
16
 74
0
 42
0.0000001
 43
0.0000001
 44
0.0000000001
 40
0.0
 40
0.0
 40
0.0
 40
0.0
 40
0.1714125998
 40
0.3386053212
 40
0.4960965786
 40
0.5685011893
 40
0.6349443539
 40
0.6941612055
 40
0.7457620601
 40
0.7904915767
 40
0.8306345575
 40
0.8694036681
 40
0.9096128567
 40
0.952946254
 40
1.0
 40
1.0
 40
1.0
 40
1.0
 10
20.8997726827
 20
13.254187876
 30
0.0
 10
21.1069488701
 20
13.0343507547
 30
0.0
 10
21.5315370439
 20
12.6140554131
 30
0.0
 10
22.202737162
 20
12.0523201203
 30
0.0
 10
22.7852660417
 20
11.6604489396
 30
0.0
 10
23.250746661
 20
11.4222899873
 30
0.0
 10
23.576322359
 20
11.2944539533
 30
0.0
 10
23.8806492865
 20
11.2188283928
 30
0.0
 10
24.156004543
 20
11.2004852568
 30
0.0
 10
24.3960636558
 20
11.2418390922
 30
0.0
 10
24.5925593548
 20
11.344802768
 30
0.0
 10
24.7390264354
 20
11.5001658351
 30
0.0
 10
24.8355810383
 20
11.6956245767
 30
0.0
 10
24.8893682938
 20
11.9208017185
 30
0.0
 10
24.8998119091
 20
12.080417093
 30
0.0
 10
24.900059463
 20
12.1633385176
 30
0.0
  0
SPLINE
  5
331
100
AcDbEntity
  8
0
100
AcDbSpline
 62
7
  6
CONTINUOUS
 70
0
 71
3
 72
9
 73
5
 74
0
 42
0.0000001
 43
0.0000001
 44
0.0000000001
 40
0.0
 40
0.0
 40
0.0
 40
0.0
 40
0.4998868725
 40
1.0
 40
1.0
 40
1.0
 40
1.0
 10
55.2999099222
 20
42.6896060865
 30
0.0
 10
55.030693214
 20
42.6896041742
 30
0.0
 10
54.4883469861
 20
42.777762758
 30
0.0
 10
54.0076086049
 20
43.0591461421
 30
0.0
 10
53.8134616532
 20
43.2458282796
 30
0.0
  0
SPLINE
  5
332
100
AcDbEntity
  8
0
100
AcDbSpline
 62
7
  6
CONTINUOUS
 70
0
 71
3
 72
9
 73
5
 74
0
 42
0.0000001
 43
0.0000001
 44
0.0000000001
 40
0.0
 40
0.0
 40
0.0
 40
0.0
 40
0.2477195606
 40
1.0
 40
1.0
 40
1.0
 40
1.0
 10
27.3820580761
 20
16.3162557416
 30
0.0
 10
26.9198343695
 20
16.2794475942
 30
0.0
 10
25.0495328969
 20
16.2077416142
 30
0.0
 10
23.1593910634
 20
16.4557668876
 30
0.0
 10
21.8093511014
 20
16.8560627621
 30
0.0
  0
ENDSEC
  0
SECTION
  2
OBJECTS
  0
DICTIONARY
  5
C
100
AcDbDictionary
280
0
281
1
  3
ACAD_GROUP
350
D
  3
ACAD_MLINESTYLE
350
17
  3
ACAD_LAYOUT
350
1A
  3
ACAD_PLOTSETTINGS
350
19
  3
ACAD_PLOTSTYLENAME
350
E
  0
DICTIONARY
  5
D
102
{ACAD_REACTORS
330
C
102
}
100
AcDbDictionary
280
0
281
1
  0
ACDBDICTIONARYWDFLT
  5
E
102
{ACAD_REACTORS
330
C
102
}
100
AcDbDictionary
281
1
  3
Normal
350
F
100
AcDbDictionaryWithDefault
340
F
  0
DICTIONARY
  5
17
102
{ACAD_REACTORS
330
C
102
}
100
AcDbDictionary
280
0
281
1
  3
Standard
350
18
  0
DICTIONARY
  5
19
102
{ACAD_REACTORS
330
C
102
}
100
AcDbDictionary
281
1
  0
DICTIONARY
  5
1A
102
{ACAD_REACTORS
330
C
102
}
100
AcDbDictionary
281
1
  3
Model
350
333
  3
Layout1
350
334
  0
ACDBPLACEHOLDER
  5
F
102
{ACAD_REACTORS
330
E
102
}
  0
MLINESTYLE
  5
18
102
{ACAD_REACTORS
330
17
102
}
100
AcDbMlineStyle
  2
STANDARD
 70
0
  3

 62
256
 51
90.0
 52
90.0
 71
2
 49
0.5
 62
256
  6
BYLAYER
 49
-0.5
 62
256
  6
BYLAYER
  0
LAYOUT
  5
333
102
{ACAD_REACTORS
330
1A
102
}
100
AcDbPlotSettings
  1

  2
none_device
  4

  6

 40
0.0
 41
0.0
 42
0.0
 43
0.0
 44
210.0
 45
297.0
 46
0.0
 47
0.0
 48
0.0
 49
0.0
140
0.0
141
0.0
142
1.0
143
1.0
 70
1024
 72
1
 73
0
 74
0
  7

 75
0
147
1.0
148
0.0
149
0.0
100
AcDbLayout
  1
Model
 70
0
 71
0
 10
0.0
 20
0.0
 11
210.0
 21
297.0
 12
0.0
 22
0.0
 32
0.0
 14
0.0
 24
0.0
 34
0.0
 15
0.0
 25
0.0
 35
0.0
146
0.0
 13
0.0
 23
0.0
 33
0.0
 16
1.0
 26
0.0
 36
0.0
 17
0.0
 27
1.0
 37
0.0
 76
0
330
210
345
0
346
0
  0
LAYOUT
  5
334
102
{ACAD_REACTORS
330
1A
102
}
100
AcDbPlotSettings
  1

  2
none_device
  4

  6

 40
0.0
 41
0.0
 42
0.0
 43
0.0
 44
210.0
 45
297.0
 46
0.0
 47
0.0
 48
0.0
 49
0.0
140
0.0
141
0.0
142
1.0
143
1.0
 70
0
 72
1
 73
0
 74
0
  7

 75
0
147
1.0
148
0.0
149
0.0
100
AcDbLayout
  1
Layout1
 70
0
 71
1
 10
0.0
 20
0.0
 11
210.0
 21
297.0
 12
0.0
 22
0.0
 32
0.0
 14
0.0
 24
0.0
 34
0.0
 15
0.0
 25
0.0
 35
0.0
146
0.0
 13
0.0
 23
0.0
 33
0.0
 16
1.0
 26
0.0
 36
0.0
 17
0.0
 27
1.0
 37
0.0
 76
0
330
211
345
0
346
0
  0
ENDSEC
  0
EOF
