999
DXF file: C:\Gen2D\CAD\GV2ME013_3D-CAD\drw0001_1.dxf
999
Pro/ENGINEER 2019471 by Parametric Technology Corporation
  0
SECTION
  2
HEADER
  9
$ACADVER
  1
AC1024
  9
$DWGCODEPAGE
  3
ANSI_1252
  9
$EXTMAX
 10
102.1004193855
 20
144.3991645595
 30
0.0
  9
$EXTMIN
 10
0.0
 20
0.0
 30
0.0
  9
$LIMMIN
 10
0.0
 20
0.0
  9
$LIMMAX
 10
102.1004193855
 20
144.3991645595
  9
$VIEWCTR
 10
51.0502096927
 20
72.1995822797
  9
$VIEWSIZE
 40
144.3991645595
  9
$CLAYER
  8
0
  9
$LTSCALE
 40
9.4126862824
  9
$CELTYPE
  6
BYLAYER
  9
$DIMSCALE
 40
1.0
  9
$DIMASZ
 40
1.2154811832
  9
$DIMEXO
 40
1.0
  9
$DIMDLI
 40
6.5033105224
  9
$DIMEXE
 40
1.0
  9
$DIMCEN
 40
1.5402577553
  9
$DIMLFAC
 40
1.0
  9
$DIMBLK
  1
_FILLED
  9
$DIMALT
 70
0
  9
$DIMALTF
 40
0.0393700787
  9
$DIMTXT
 40
1.7016736564
  9
$DIMTOL
 70
1
  9
$DIMLIM
 70
0
  9
$DIMTFAC
 40
1.0
  9
$DIMTP
 40
0.01
  9
$DIMTM
 40
0.01
  9
$DIMGAP
 40
0.625
  9
$DIMDSEP
 70
46
  9
$AUNITS
 70
0
  9
$PDMODE
 70
3
  9
$PDSIZE
 40
0.3125
  9
$HANDSEED
  5
43C
  9
$TILEMODE
 70
1
  9
$MEASUREMENT
 70
1
  9
$INSUNITS
 70
4
  0
ENDSEC
  0
SECTION
  2
CLASSES
  0
CLASS
  1
ACDBDICTIONARYWDFLT
  2
AcDbDictionaryWithDefault
  3
AutoCAD 2000
 90
0
 91
1
280
0
281
0
  0
CLASS
  1
ACDBPLACEHOLDER
  2
AcDbPlaceHolder
  3
AutoCAD 2000
 90
0
 91
1
280
0
281
0
  0
CLASS
  1
LAYOUT
  2
AcDbLayout
  3
AutoCAD 2000
 90
0
 91
0
280
0
281
0
  0
ENDSEC
  0
SECTION
  2
TABLES
  0
TABLE
  2
VPORT
  5
8
100
AcDbSymbolTable
 70
2
  0
VPORT
  5
1F4
100
AcDbSymbolTableRecord
100
AcDbViewportTableRecord
  2
*ACTIVE
 70
0
 10
0.0
 20
0.0
 11
1.0
 21
1.0
 12
51.0502096927
 22
72.1995822797
 13
0.0
 23
0.0
 14
1.0
 24
1.0
 15
0.0
 25
0.0
 16
0.0
 26
0.0
 36
1.0
 17
0.0
 27
0.0
 37
0.0
 40
144.3991645595
 41
0.7070707071
 42
50.0
 43
0.0
 44
0.0
 50
0.0
 51
0.0
 71
0
 72
100
 73
1
 74
1
 75
0
 76
0
 77
0
 78
0
  0
ENDTAB
  0
TABLE
  2
LTYPE
  5
5
100
AcDbSymbolTable
 70
6
  0
LTYPE
  5
14
100
AcDbSymbolTableRecord
100
AcDbLinetypeTableRecord
  2
BYBLOCK
 70
0
  3

 72
65
 73
0
 40
0.0
  0
LTYPE
  5
15
100
AcDbSymbolTableRecord
100
AcDbLinetypeTableRecord
  2
BYLAYER
 70
0
  3

 72
65
 73
0
 40
0.0
  0
LTYPE
  5
16
100
AcDbSymbolTableRecord
100
AcDbLinetypeTableRecord
  2
CONTINUOUS
 70
64
  3
Solid line
 72
65
 73
0
 40
0.0
  0
LTYPE
  5
1F5
100
AcDbSymbolTableRecord
100
AcDbLinetypeTableRecord
  2
CENTER
 70
64
  3
____ _ ____ _ ____ _ ____ _ ____ _ ____ _ ____
 72
65
 73
4
 40
0.6
 49
0.375
 74
0
 49
-0.075
 74
0
 49
0.075
 74
0
 49
-0.075
 74
0
  0
LTYPE
  5
1F6
100
AcDbSymbolTableRecord
100
AcDbLinetypeTableRecord
  2
HIDDEN
 70
64
  3
- - - - - - - - - - - - - - - - - - - -
 72
65
 73
2
 40
0.2
 49
0.1
 74
0
 49
-0.1
 74
0
  0
LTYPE
  5
1F7
100
AcDbSymbolTableRecord
100
AcDbLinetypeTableRecord
  2
PHANTOM
 70
64
  3
_____ _ _ _____ _ _ _____ _ _ _____
 72
65
 73
6
 40
0.8
 49
0.45
 74
0
 49
-0.05
 74
0
 49
0.1
 74
0
 49
-0.05
 74
0
 49
0.1
 74
0
 49
-0.05
 74
0
  0
LTYPE
  5
1F8
100
AcDbSymbolTableRecord
100
AcDbLinetypeTableRecord
  2
DOT
 70
64
  3
. . . . . . . . . . . . . . . . . . . .
 72
65
 73
2
 40
0.2
 49
0.1
 74
0
 49
-0.1
 74
0
  0
LTYPE
  5
1F9
100
AcDbSymbolTableRecord
100
AcDbLinetypeTableRecord
  2
DASHED
 70
64
  3
- - - - - - - - - - - - - - - - - - - -
 72
65
 73
2
 40
0.2
 49
0.1
 74
0
 49
-0.1
 74
0
  0
ENDTAB
  0
TABLE
  2
LAYER
  5
2
100
AcDbSymbolTable
 70
36
  0
LAYER
  5
10
100
AcDbSymbolTableRecord
100
AcDbLayerTableRecord
  2
0
 70
0
 62
7
  6
CONTINUOUS
370
-3
390
F
  0
LAYER
  5
1FA
100
AcDbSymbolTableRecord
100
AcDbLayerTableRecord
  2
DEFAULT_1
 70
0
 62
7
  6
CENTER
370
-3
390
F
  0
LAYER
  5
1FB
100
AcDbSymbolTableRecord
100
AcDbLayerTableRecord
  2
DEFAULT_2
 70
0
 62
8
  6
HIDDEN
370
-3
390
F
  0
LAYER
  5
1FC
100
AcDbSymbolTableRecord
100
AcDbLayerTableRecord
  2
DEFAULT_3
 70
0
 62
7
  6
PHANTOM
370
-3
390
F
  0
LAYER
  5
1FD
100
AcDbSymbolTableRecord
100
AcDbLayerTableRecord
  2
00_COMPONENTS
 70
0
 62
7
  6
CONTINUOUS
370
-3
390
F
  0
LAYER
  5
1FE
100
AcDbSymbolTableRecord
100
AcDbLayerTableRecord
  2
01_1_DEFAULT_DATUMS
 70
0
 62
7
  6
CONTINUOUS
370
-3
390
F
  0
LAYER
  5
1FF
100
AcDbSymbolTableRecord
100
AcDbLayerTableRecord
  2
01_PLANES
 70
0
 62
7
  6
CONTINUOUS
370
-3
390
F
  0
LAYER
  5
200
100
AcDbSymbolTableRecord
100
AcDbLayerTableRecord
  2
02_COORD_SYS
 70
0
 62
7
  6
CONTINUOUS
370
-3
390
F
  0
LAYER
  5
201
100
AcDbSymbolTableRecord
100
AcDbLayerTableRecord
  2
03_AXES
 70
0
 62
7
  6
CONTINUOUS
370
-3
390
F
  0
LAYER
  5
202
100
AcDbSymbolTableRecord
100
AcDbLayerTableRecord
  2
04_POINTS
 70
0
 62
7
  6
CONTINUOUS
370
-3
390
F
  0
LAYER
  5
203
100
AcDbSymbolTableRecord
100
AcDbLayerTableRecord
  2
05_CURVES
 70
0
 62
7
  6
CONTINUOUS
370
-3
390
F
  0
LAYER
  5
204
100
AcDbSymbolTableRecord
100
AcDbLayerTableRecord
  2
06_SURFS
 70
0
 62
7
  6
CONTINUOUS
370
-3
390
F
  0
LAYER
  5
205
100
AcDbSymbolTableRecord
100
AcDbLayerTableRecord
  2
07_COSMETICS
 70
0
 62
7
  6
CONTINUOUS
370
-3
390
F
  0
LAYER
  5
206
100
AcDbSymbolTableRecord
100
AcDbLayerTableRecord
  2
10_NOTES
 70
0
 62
7
  6
CONTINUOUS
370
-3
390
F
  0
LAYER
  5
207
100
AcDbSymbolTableRecord
100
AcDbLayerTableRecord
  2
11_NOTES_PUB
 70
0
 62
7
  6
CONTINUOUS
370
-3
390
F
  0
LAYER
  5
208
100
AcDbSymbolTableRecord
100
AcDbLayerTableRecord
  2
13_REF_GTOL
 70
0
 62
7
  6
CONTINUOUS
370
-3
390
F
  0
LAYER
  5
209
100
AcDbSymbolTableRecord
100
AcDbLayerTableRecord
  2
16_MISC
 70
0
 62
7
  6
CONTINUOUS
370
-3
390
F
  0
LAYER
  5
20A
100
AcDbSymbolTableRecord
100
AcDbLayerTableRecord
  2
17_NO_PRINT
 70
0
 62
7
  6
CONTINUOUS
370
-3
390
F
  0
LAYER
  5
20B
100
AcDbSymbolTableRecord
100
AcDbLayerTableRecord
  2
18_DATUM_CAMS_JOINTS
 70
0
 62
7
  6
CONTINUOUS
370
-3
390
F
  0
LAYER
  5
20C
100
AcDbSymbolTableRecord
100
AcDbLayerTableRecord
  2
19_DATUM_FUNCTIONAL
 70
0
 62
7
  6
CONTINUOUS
370
-3
390
F
  0
LAYER
  5
20D
100
AcDbSymbolTableRecord
100
AcDbLayerTableRecord
  2
20_DATUM_KINEMATIC_SCHEME
 70
0
 62
7
  6
CONTINUOUS
370
-3
390
F
  0
LAYER
  5
20E
100
AcDbSymbolTableRecord
100
AcDbLayerTableRecord
  2
INTFCLR_65
 70
0
 62
7
  6
CONTINUOUS
370
-3
390
F
  0
ENDTAB
  0
TABLE
  2
STYLE
  5
3
100
AcDbSymbolTable
 70
1
  0
STYLE
  5
11
100
AcDbSymbolTableRecord
100
AcDbTextStyleTableRecord
  2
STANDARD
 70
0
 40
0.0
 41
0.8
 50
0.0
 71
0
 42
0.2
  3
txt
  4

  0
STYLE
  5
20F
100
AcDbSymbolTableRecord
100
AcDbTextStyleTableRecord
  2
TEXTSTYLE_1
 70
0
 40
0.0
 41
0.8
 50
0.0
 71
0
 42
0.2
  3
gdt
  4

  0
ENDTAB
  0
TABLE
  2
VIEW
  5
6
100
AcDbSymbolTable
 70
0
  0
ENDTAB
  0
TABLE
  2
UCS
  5
7
100
AcDbSymbolTable
 70
0
  0
ENDTAB
  0
TABLE
  2
APPID
  5
9
100
AcDbSymbolTable
 70
1
  0
APPID
  5
210
100
AcDbSymbolTableRecord
100
AcDbRegAppTableRecord
  2
ACAD
 70
0
  0
ENDTAB
  0
TABLE
  2
BLOCK_RECORD
  5
1
100
AcDbSymbolTable
 70
0
  0
BLOCK_RECORD
  5
211
100
AcDbSymbolTableRecord
100
AcDbBlockTableRecord
  2
*Model_Space
  0
BLOCK_RECORD
  5
212
100
AcDbSymbolTableRecord
100
AcDbBlockTableRecord
  2
*Paper_Space
  0
BLOCK_RECORD
  5
213
100
AcDbSymbolTableRecord
100
AcDbBlockTableRecord
  2
_FILLED
  0
ENDTAB
  0
TABLE
  2
DIMSTYLE
  5
A
100
AcDbSymbolTable
 70
1
100
AcDbDimStyleTable
 71
0
  0
DIMSTYLE
105
214
100
AcDbSymbolTableRecord
100
AcDbDimStyleTableRecord
  2
STANDARD
 70
0
  3

  4

 40
1.0
 41
1.2154811832
 42
1.0
 43
0.38
 44
1.0
 45
0.0
 46
0.0
 47
0.01
 48
0.01
140
1.7016736564
141
0.09
142
0.0
143
25.4
144
1.0
145
0.0
146
1.0
147
0.625
 71
1
 72
0
 73
0
 74
0
 75
0
 76
0
 77
1
 78
8
 79
2
170
0
171
1
172
0
173
0
174
0
175
0
176
0
177
0
178
0
270
2
179
2
271
2
272
2
273
2
274
2
275
0
280
0
281
0
282
0
283
1
284
8
285
0
286
0
287
3
288
0
340
11
278
46
341
213
342
213
343
213
344
213
  0
ENDTAB
  0
ENDSEC
  0
SECTION
  2
BLOCKS
  0
BLOCK
  5
20
100
AcDbEntity
  8
0
100
AcDbBlockBegin
  2
*Model_Space
 70
0
 10
0.0
 20
0.0
 30
0.0
  3
*Model_Space
  1

  0
ENDBLK
  5
21
100
AcDbEntity
  8
0
100
AcDbBlockEnd
  0
BLOCK
  5
1C
100
AcDbEntity
  8
0
100
AcDbBlockBegin
  2
*Paper_Space
 70
0
 10
0.0
 20
0.0
 30
0.0
  3
*Paper_Space
  1

  0
ENDBLK
  5
1D
100
AcDbEntity
  8
0
100
AcDbBlockEnd
  0
BLOCK
  5
215
100
AcDbEntity
  8
0
100
AcDbBlockBegin
  2
_FILLED
 70
64
 10
0.0
 20
0.0
  3
_FILLED
  1

  0
SOLID
  5
216
100
AcDbEntity
  8
0
  6
BYBLOCK
 62
0
100
AcDbTrace
 10
0.0
 20
0.0
 11
-1.0
 21
0.25
 12
-1.0
 22
-0.25
 13
-1.0
 23
-0.25
  0
ENDBLK
  5
217
100
AcDbEntity
  8
0
  6
BYBLOCK
 62
0
100
AcDbBlockEnd
  0
ENDSEC
  0
SECTION
  2
ENTITIES
  0
LINE
  5
218
100
AcDbEntity
  8
0
100
AcDbLine
 62
7
  6
CONTINUOUS
 10
55.260826222
 20
11.1920412916
 11
55.0108358869
 21
11.1672867427
  0
LINE
  5
219
100
AcDbEntity
  8
0
100
AcDbLine
 62
7
  6
CONTINUOUS
 10
53.8466185476
 20
13.9681636192
 11
53.5966282125
 21
13.9434090703
  0
LINE
  5
21A
100
AcDbEntity
  8
0
100
AcDbLine
 62
7
  6
CONTINUOUS
 10
22.3802357785
 20
113.4993430623
 11
57.1740076523
 21
133.5874167101
  0
LINE
  5
21B
100
AcDbEntity
  8
0
100
AcDbLine
 62
7
  6
CONTINUOUS
 10
23.5444476947
 20
29.3339909255
 11
24.9611765811
 21
28.5160606256
  0
LINE
  5
21C
100
AcDbEntity
  8
0
100
AcDbLine
 62
7
  6
CONTINUOUS
 10
53.5941015774
 20
11.9852076492
 11
55.0108304638
 21
11.1672773493
  0
LINE
  5
21D
100
AcDbEntity
  8
0
100
AcDbLine
 62
7
  6
CONTINUOUS
 10
23.4408915344
 20
29.5628839994
 11
24.9611774434
 21
28.6851663772
  0
LINE
  5
21E
100
AcDbEntity
  8
0
100
AcDbLine
 62
7
  6
CONTINUOUS
 10
53.3869883943
 20
12.2738880454
 11
54.9072743034
 21
11.3961704232
  0
LINE
  5
21F
100
AcDbEntity
  8
0
100
AcDbLine
 62
7
  6
CONTINUOUS
 10
24.9611774434
 20
29.6654803642
 11
24.3247786908
 21
30.0328970433
  0
LINE
  5
220
100
AcDbEntity
  8
0
100
AcDbLine
 62
7
  6
CONTINUOUS
 10
53.3869883943
 20
13.2542020325
 11
54.023387147
 21
12.8867853534
  0
LINE
  5
221
100
AcDbEntity
  8
0
100
AcDbLine
 62
7
  6
CONTINUOUS
 10
22.1302400203
 20
32.1101132531
 11
34.577880619
 21
24.9236271827
  0
LINE
  5
222
100
AcDbEntity
  8
0
100
AcDbLine
 62
7
  6
CONTINUOUS
 10
41.1489821906
 20
21.1298857473
 11
53.5966227893
 21
13.9433996769
  0
LINE
  5
223
100
AcDbEntity
  8
0
100
AcDbLine
 62
7
  6
CONTINUOUS
 10
22.0266838599
 20
32.339006327
 11
34.5778814813
 21
25.0927329343
  0
LINE
  5
224
100
AcDbEntity
  8
0
100
AcDbLine
 62
7
  6
CONTINUOUS
 10
40.9418690076
 20
21.4185661436
 11
53.493066629
 21
14.1722927508
  0
LINE
  5
225
100
AcDbEntity
  8
0
100
AcDbLine
 62
7
  6
CONTINUOUS
 10
40.9418631197
 20
21.7206545292
 11
35.9920950437
 21
24.5783398108
  0
LINE
  5
226
100
AcDbEntity
  8
0
100
AcDbLine
 62
7
  6
CONTINUOUS
 10
40.9418631197
 20
22.3411963662
 11
35.9920950437
 21
25.1988816478
  0
LINE
  5
227
100
AcDbEntity
  8
0
100
AcDbLine
 62
7
  6
CONTINUOUS
 10
34.5778814813
 20
26.3991368017
 11
40.9418690076
 21
22.724970011
  0
LINE
  5
228
100
AcDbEntity
  8
0
100
AcDbLine
 62
7
  6
CONTINUOUS
 10
51.3589975958
 20
16.9802198734
 11
47.9860842068
 21
18.9275282724
  0
LINE
  5
229
100
AcDbEntity
  8
0
100
AcDbLine
 62
7
  6
CONTINUOUS
 10
46.6213624373
 20
19.7154329287
 11
43.2484490484
 21
21.6627413277
  0
LINE
  5
22A
100
AcDbEntity
  8
0
100
AcDbLine
 62
7
  6
CONTINUOUS
 10
41.8130163063
 20
22.4914700594
 11
38.4401029174
 21
24.4387784585
  0
LINE
  5
22B
100
AcDbEntity
  8
0
100
AcDbLine
 62
7
  6
CONTINUOUS
 10
37.0753811478
 20
25.2266831147
 11
33.7024677589
 21
27.1739915137
  0
LINE
  5
22C
100
AcDbEntity
  8
0
100
AcDbLine
 62
7
  6
CONTINUOUS
 10
32.2670350168
 20
28.0027202454
 11
28.8941216279
 21
29.9500286445
  0
LINE
  5
22D
100
AcDbEntity
  8
0
100
AcDbLine
 62
7
  6
CONTINUOUS
 10
27.5293998583
 20
30.7379333007
 11
24.1564864694
 21
32.6852416998
  0
LINE
  5
22E
100
AcDbEntity
  8
0
100
AcDbLine
 62
7
  6
CONTINUOUS
 10
25.5636880563
 20
108.9261449689
 11
24.2187240079
 21
108.1496342487
  0
LINE
  5
22F
100
AcDbEntity
  8
0
100
AcDbLine
 62
7
  6
CONTINUOUS
 10
24.3000416263
 20
38.2770537653
 11
27.3901111252
 21
36.4930416681
  0
LINE
  5
230
100
AcDbEntity
  8
0
100
AcDbLine
 62
7
  6
CONTINUOUS
 10
29.0376767848
 20
35.54184071
 11
32.1277462837
 21
33.7578286128
  0
LINE
  5
231
100
AcDbEntity
  8
0
100
AcDbLine
 62
7
  6
CONTINUOUS
 10
33.8460229158
 20
32.7658035793
 11
36.9360924147
 21
30.9817914821
  0
LINE
  5
232
100
AcDbEntity
  8
0
100
AcDbLine
 62
7
  6
CONTINUOUS
 10
38.5836580743
 20
30.030590524
 11
41.6737275731
 21
28.2465784268
  0
LINE
  5
233
100
AcDbEntity
  8
0
100
AcDbLine
 62
7
  6
CONTINUOUS
 10
43.3920042053
 20
27.2545533933
 11
46.4820737041
 21
25.470541296
  0
LINE
  5
234
100
AcDbEntity
  8
0
100
AcDbLine
 62
7
  6
CONTINUOUS
 10
48.1296393637
 20
24.519340338
 11
51.2197088626
 21
22.7353282407
  0
LINE
  5
235
100
AcDbEntity
  8
0
100
AcDbLine
 62
7
  6
CONTINUOUS
 10
13.3053429412
 20
48.5042506804
 11
13.5124883696
 21
48.1539836102
  0
LINE
  5
236
100
AcDbEntity
  8
0
100
AcDbLine
 62
7
  6
CONTINUOUS
 10
22.0266838599
 20
32.339006327
 11
22.1302454434
 21
32.1101226465
  0
LINE
  5
237
100
AcDbEntity
  8
0
100
AcDbLine
 62
7
  6
CONTINUOUS
 10
23.4408915344
 20
29.5628839994
 11
23.5444531179
 21
29.3340003188
  0
LINE
  5
238
100
AcDbEntity
  8
0
100
AcDbLine
 62
7
  6
CONTINUOUS
 10
13.1352965168
 20
61.1590080665
 11
13.0257079088
 21
83.1409395062
  0
LINE
  5
239
100
AcDbEntity
  8
0
100
AcDbLine
 62
7
  6
CONTINUOUS
 10
13.12412186
 20
84.8314473363
 11
13.1322395346
 21
83.2031561185
  0
LINE
  5
23A
100
AcDbEntity
  8
0
100
AcDbLine
 62
7
  6
CONTINUOUS
 10
13.2430490776
 20
60.9763223249
 11
13.3052272811
 21
48.5042503447
  0
LINE
  5
23B
100
AcDbEntity
  8
0
100
AcDbLine
 62
7
  6
CONTINUOUS
 10
13.3425628625
 20
60.8074227784
 11
13.2329742545
 21
82.7893542181
  0
LINE
  5
23C
100
AcDbEntity
  8
0
100
AcDbLine
 62
7
  6
CONTINUOUS
 10
13.3313895287
 20
84.4798606835
 11
13.3395072034
 21
82.8515694657
  0
LINE
  5
23D
100
AcDbEntity
  8
0
100
AcDbLine
 62
7
  6
CONTINUOUS
 10
13.4497974856
 20
60.7288920681
 11
13.5124883696
 21
48.1539836102
  0
LINE
  5
23E
100
AcDbEntity
  8
0
100
AcDbLine
 62
7
  6
CONTINUOUS
 10
24.6868187632
 20
109.4323942384
 11
24.2187240079
 21
108.1496342487
  0
LINE
  5
23F
100
AcDbEntity
  8
0
100
AcDbLine
 62
7
  6
CONTINUOUS
 10
13.1242372364
 20
84.8314480552
 11
13.4169914711
 21
85.2446638168
  0
LINE
  5
240
100
AcDbEntity
  8
0
100
AcDbLine
 62
7
  6
CONTINUOUS
 10
24.2187240079
 20
105.7654471907
 11
27.5551539526
 21
107.6917244191
  0
LINE
  5
241
100
AcDbEntity
  8
0
100
AcDbLine
 62
7
  6
CONTINUOUS
 10
28.0017610374
 20
105.5058129822
 11
24.8303739201
 21
103.6748227059
  0
LINE
  5
242
100
AcDbEntity
  8
0
100
AcDbLine
 62
7
  6
CONTINUOUS
 10
29.7523821639
 20
106.5078560073
 11
28.4260268725
 21
105.7420889938
  0
LINE
  5
243
100
AcDbEntity
  8
0
100
AcDbLine
 62
7
  6
CONTINUOUS
 10
31.8171782415
 20
105.3157724046
 11
28.4260268725
 21
103.3579019358
  0
LINE
  5
244
100
AcDbEntity
  8
0
100
AcDbLine
 62
7
  6
CONTINUOUS
 10
47.9422552866
 20
31.9760458921
 11
47.692261829
 21
32.0007986383
  0
LINE
  5
245
100
AcDbEntity
  8
0
100
AcDbLine
 62
7
  6
CONTINUOUS
 10
42.5083598104
 20
31.0967366833
 11
42.6318565773
 21
31.0411514079
  0
LINE
  5
246
100
AcDbEntity
  8
0
100
AcDbLine
 62
7
  6
CONTINUOUS
 10
42.5214207816
 20
31.106399657
 11
42.6434608688
 21
31.0497535719
  0
LINE
  5
247
100
AcDbEntity
  8
0
100
AcDbLine
 62
7
  6
CONTINUOUS
 10
50.5585612696
 20
24.4234372136
 11
47.588700424
 21
26.1380483826
  0
LINE
  5
248
100
AcDbEntity
  8
0
100
AcDbLine
 62
7
  6
CONTINUOUS
 10
47.0230126439
 20
26.4646409862
 11
44.0531517983
 21
28.1792521552
  0
LINE
  5
249
100
AcDbEntity
  8
0
100
AcDbLine
 62
7
  6
CONTINUOUS
 10
41.0125799801
 20
29.9346873997
 11
38.0427191345
 21
31.6492985686
  0
LINE
  5
24A
100
AcDbEntity
  8
0
100
AcDbLine
 62
7
  6
CONTINUOUS
 10
37.4770313544
 20
31.9758911723
 11
34.5071705088
 21
33.6905023412
  0
LINE
  5
24B
100
AcDbEntity
  8
0
100
AcDbLine
 62
7
  6
CONTINUOUS
 10
31.4665986906
 20
35.4459375857
 11
28.496737845
 21
37.1605487547
  0
LINE
  5
24C
100
AcDbEntity
  8
0
100
AcDbLine
 62
7
  6
CONTINUOUS
 10
27.9310500649
 20
37.4871413583
 11
24.9611892193
 21
39.2017525273
  0
LINE
  5
24D
100
AcDbEntity
  8
0
100
AcDbLine
 62
7
  6
CONTINUOUS
 10
25.0036154495
 20
39.2262471765
 11
27.9310500649
 21
37.5361302488
  0
LINE
  5
24E
100
AcDbEntity
  8
0
100
AcDbLine
 62
7
  6
CONTINUOUS
 10
28.5391640753
 20
37.1850434039
 11
31.4665986906
 21
35.4949264762
  0
LINE
  5
24F
100
AcDbEntity
  8
0
100
AcDbLine
 62
7
  6
CONTINUOUS
 10
34.549596739
 20
33.7149969905
 11
37.4770313544
 21
32.0248800628
  0
LINE
  5
250
100
AcDbEntity
  8
0
100
AcDbLine
 62
7
  6
CONTINUOUS
 10
38.0851453647
 20
31.6737932179
 11
41.0125799801
 21
29.9836762902
  0
LINE
  5
251
100
AcDbEntity
  8
0
100
AcDbLine
 62
7
  6
CONTINUOUS
 10
44.0955780285
 20
28.2037468044
 11
47.0230126439
 21
26.5136298768
  0
LINE
  5
252
100
AcDbEntity
  8
0
100
AcDbLine
 62
7
  6
CONTINUOUS
 10
47.6311266542
 20
26.1625430318
 11
50.5585612696
 21
24.4724261042
  0
LINE
  5
253
100
AcDbEntity
  8
0
100
AcDbLine
 62
7
  6
CONTINUOUS
 10
41.8187706773
 20
30.7514563114
 11
31.4392833436
 21
36.74392055
  0
LINE
  5
254
100
AcDbEntity
  8
0
100
AcDbLine
 62
7
  6
CONTINUOUS
 10
45.9906949161
 20
31.1188752687
 11
45.7078473603
 21
31.2821736869
  0
LINE
  5
255
100
AcDbEntity
  8
0
100
AcDbLine
 62
7
  6
CONTINUOUS
 10
13.1354121909
 20
61.1590087876
 11
13.3425628625
 21
60.8074227784
  0
LINE
  5
256
100
AcDbEntity
  8
0
100
AcDbLine
 62
7
  6
CONTINUOUS
 10
17.8772443832
 20
63.7221614628
 11
17.8821150683
 21
62.7451706368
  0
LINE
  5
257
100
AcDbEntity
  8
0
100
AcDbLine
 62
7
  6
CONTINUOUS
 10
14.5996829572
 20
64.2929974138
 11
14.5996829572
 21
63.3131945132
  0
LINE
  5
258
100
AcDbEntity
  8
0
100
AcDbLine
 62
7
  6
CONTINUOUS
 10
15.0829616257
 20
63.6193945599
 11
15.0829616257
 21
62.6395916593
  0
LINE
  5
259
100
AcDbEntity
  8
0
100
AcDbLine
 62
7
  6
CONTINUOUS
 10
15.2243835708
 20
62.5579435084
 11
15.2243835708
 21
63.537746409
  0
LINE
  5
25A
100
AcDbEntity
  8
0
100
AcDbLine
 62
7
  6
CONTINUOUS
 10
15.8537009812
 20
64.5950958781
 11
15.8537009812
 21
63.992058273
  0
LINE
  5
25B
100
AcDbEntity
  8
0
100
AcDbLine
 62
7
  6
CONTINUOUS
 10
17.5578359487
 20
63.5377520179
 11
17.5578359487
 21
62.5579491174
  0
LINE
  5
25C
100
AcDbEntity
  8
0
100
AcDbLine
 62
7
  6
CONTINUOUS
 10
28.8927192911
 20
107.0041713702
 11
28.4260268725
 21
105.7420889938
  0
LINE
  5
25D
100
AcDbEntity
  8
0
100
AcDbLine
 62
7
  6
CONTINUOUS
 10
36.55435599
 20
106.3366761064
 11
34.5778814813
 21
105.0759565454
  0
LINE
  5
25E
100
AcDbEntity
  8
0
100
AcDbLine
 62
7
  6
CONTINUOUS
 10
37.2648760627
 20
107.6002753774
 11
34.9314333999
 21
106.2530696696
  0
LINE
  5
25F
100
AcDbEntity
  8
0
100
AcDbLine
 62
7
  6
CONTINUOUS
 10
36.9113241441
 20
106.1305745539
 11
37.2648760627
 21
106.3346966308
  0
LINE
  5
260
100
AcDbEntity
  8
0
100
AcDbLine
 62
7
  6
CONTINUOUS
 10
32.6530303227
 20
103.5479260165
 11
28.851632018
 21
101.3532007827
  0
LINE
  5
261
100
AcDbEntity
  8
0
100
AcDbLine
 62
7
  6
CONTINUOUS
 10
22.0266838599
 20
97.2917736097
 11
22.7513907417
 21
97.7101808254
  0
LINE
  5
262
100
AcDbEntity
  8
0
100
AcDbLine
 62
7
  6
CONTINUOUS
 10
34.5607282949
 20
103.7318188766
 11
33.2343730035
 21
102.9660518631
  0
LINE
  5
263
100
AcDbEntity
  8
0
100
AcDbLine
 62
7
  6
CONTINUOUS
 10
24.9892574815
 20
96.4302820175
 11
27.9310500649
 21
98.1287166192
  0
LINE
  5
264
100
AcDbEntity
  8
0
100
AcDbLine
 62
7
  6
CONTINUOUS
 10
27.9310500649
 20
97.8021184742
 11
25.3137356925
 21
96.2910203368
  0
LINE
  5
265
100
AcDbEntity
  8
0
100
AcDbLine
 62
7
  6
CONTINUOUS
 10
36.6255243725
 20
102.5397352739
 11
33.2343730035
 21
100.5818648051
  0
LINE
  5
266
100
AcDbEntity
  8
0
100
AcDbLine
 62
7
  6
CONTINUOUS
 10
47.9422552866
 20
31.9760458921
 11
50.205006407
 21
30.6696754776
  0
LINE
  5
267
100
AcDbEntity
  8
0
100
AcDbLine
 62
7
  6
CONTINUOUS
 10
31.4392833436
 20
43.2351147661
 11
41.8187706773
 21
37.2426505276
  0
LINE
  5
268
100
AcDbEntity
  8
0
100
AcDbLine
 62
7
  6
CONTINUOUS
 10
23.688391714
 20
34.5084987278
 11
24.1564864694
 21
32.6852416998
  0
LINE
  5
269
100
AcDbEntity
  8
0
100
AcDbLine
 62
7
  6
CONTINUOUS
 10
21.2252644193
 20
77.2337213185
 11
21.2805726627
 21
66.139666598
  0
LINE
  5
26A
100
AcDbEntity
  8
0
100
AcDbLine
 62
7
  6
CONTINUOUS
 10
21.3185239353
 20
58.5271757802
 11
21.3348530273
 21
55.2517898788
  0
LINE
  5
26B
100
AcDbEntity
  8
0
100
AcDbLine
 62
7
  6
CONTINUOUS
 10
21.4413983957
 20
55.3139881276
 11
21.4256878314
 21
58.4653060756
  0
LINE
  5
26C
100
AcDbEntity
  8
0
100
AcDbLine
 62
7
  6
CONTINUOUS
 10
21.3821679073
 20
67.1947899685
 11
21.3318097877
 21
77.2959195672
  0
LINE
  5
26D
100
AcDbEntity
  8
0
100
AcDbLine
 62
7
  6
CONTINUOUS
 10
21.6642417057
 20
54.8532077732
 11
21.6468705896
 21
58.3376090396
  0
LINE
  5
26E
100
AcDbEntity
  8
0
100
AcDbLine
 62
7
  6
CONTINUOUS
 10
21.5668708959
 20
74.3844209593
 11
21.5449465034
 21
78.7821453393
  0
LINE
  5
26F
100
AcDbEntity
  8
0
100
AcDbLine
 62
7
  6
CONTINUOUS
 10
22.3870224806
 20
79.2738967324
 11
22.387387776
 21
79.2006236276
  0
LINE
  5
270
100
AcDbEntity
  8
0
100
AcDbLine
 62
7
  6
CONTINUOUS
 10
21.6923576825
 20
54.7037426751
 11
21.6923576825
 21
42.2765758864
  0
LINE
  5
271
100
AcDbEntity
  8
0
100
AcDbLine
 62
7
  6
CONTINUOUS
 10
22.0266838599
 20
32.339006327
 11
22.0266838599
 21
42.0665785827
  0
LINE
  5
272
100
AcDbEntity
  8
0
100
AcDbLine
 62
7
  6
CONTINUOUS
 10
22.0266838599
 20
90.6781040309
 11
22.0266838599
 21
97.2917736097
  0
LINE
  5
273
100
AcDbEntity
  8
0
100
AcDbLine
 62
7
  6
CONTINUOUS
 10
22.0266838599
 20
98.2300448228
 11
22.0266838599
 21
112.8869697768
  0
LINE
  5
274
100
AcDbEntity
  8
0
100
AcDbLine
 62
7
  6
CONTINUOUS
 10
22.387387776
 20
55.2707138593
 11
22.387387776
 21
57.9100809146
  0
LINE
  5
275
100
AcDbEntity
  8
0
100
AcDbLine
 62
7
  6
CONTINUOUS
 10
22.387387776
 20
75.2778033191
 11
22.387387776
 21
79.2006236276
  0
LINE
  5
276
100
AcDbEntity
  8
0
100
AcDbLine
 62
7
  6
CONTINUOUS
 10
23.4408915344
 20
31.3534253672
 11
23.4408915344
 21
29.5628839994
  0
LINE
  5
277
100
AcDbEntity
  8
0
100
AcDbLine
 62
7
  6
CONTINUOUS
 10
22.3685068553
 20
90.4807568971
 11
14.5912120982
 21
85.9390105049
  0
LINE
  5
278
100
AcDbEntity
  8
0
100
AcDbLine
 62
7
  6
CONTINUOUS
 10
13.4169914711
 20
85.2446638168
 11
14.5949706684
 21
85.9325743226
  0
LINE
  5
279
100
AcDbEntity
  8
0
100
AcDbLine
 62
7
  6
CONTINUOUS
 10
37.4613764537
 20
100.7718888857
 11
33.659978149
 21
98.5771636519
  0
LINE
  5
27A
100
AcDbEntity
  8
0
100
AcDbLine
 62
7
  6
CONTINUOUS
 10
43.628863589
 20
103.9261085867
 11
41.2954209262
 21
102.5789028789
  0
LINE
  5
27B
100
AcDbEntity
  8
0
100
AcDbLine
 62
7
  6
CONTINUOUS
 10
28.496737845
 20
94.9444248149
 11
31.4665986906
 21
96.6590645386
  0
LINE
  5
27C
100
AcDbEntity
  8
0
100
AcDbLine
 62
7
  6
CONTINUOUS
 10
39.3690744259
 20
100.9557817458
 11
38.0427191345
 21
100.1900147323
  0
LINE
  5
27D
100
AcDbEntity
  8
0
100
AcDbLine
 62
7
  6
CONTINUOUS
 10
31.4665986906
 20
96.3324663936
 11
28.6381597901
 21
94.6994761806
  0
LINE
  5
27E
100
AcDbEntity
  8
0
100
AcDbLine
 62
7
  6
CONTINUOUS
 10
41.4338705035
 20
99.7636981432
 11
38.0427191345
 21
97.8058276743
  0
LINE
  5
27F
100
AcDbEntity
  8
0
100
AcDbLine
 62
7
  6
CONTINUOUS
 10
41.6256205675
 20
44.1637662512
 11
33.7011433783
 21
48.738861787
  0
LINE
  5
280
100
AcDbEntity
  8
0
100
AcDbLine
 62
7
  6
CONTINUOUS
 10
29.5517477963
 20
51.1344622475
 11
22.387387776
 21
55.2707138593
  0
LINE
  5
281
100
AcDbEntity
  8
0
100
AcDbLine
 62
7
  6
CONTINUOUS
 10
25.225474371
 20
53.8989644239
 11
33.0036813476
 21
49.4083161242
  0
LINE
  5
282
100
AcDbEntity
  8
0
100
AcDbLine
 62
7
  6
CONTINUOUS
 10
32.9536842766
 20
50.4699891107
 11
25.1754773
 21
54.9606374104
  0
LINE
  5
283
100
AcDbEntity
  8
0
100
AcDbLine
 62
7
  6
CONTINUOUS
 10
21.8003969575
 20
54.7661188073
 11
21.7520368122
 21
54.7970481736
  0
LINE
  5
284
100
AcDbEntity
  8
0
100
AcDbLine
 62
7
  6
CONTINUOUS
 10
28.4260268725
 20
31.7732856725
 11
28.8941216279
 21
29.9500286445
  0
LINE
  5
285
100
AcDbEntity
  8
0
100
AcDbLine
 62
7
  6
CONTINUOUS
 10
33.2343730035
 20
28.9972485418
 11
33.7024677589
 21
27.1739915137
  0
LINE
  5
286
100
AcDbEntity
  8
0
100
AcDbLine
 62
7
  6
CONTINUOUS
 10
23.688391714
 20
34.5084987278
 11
23.688391714
 21
36.8926857858
  0
LINE
  5
287
100
AcDbEntity
  8
0
100
AcDbLine
 62
7
  6
CONTINUOUS
 10
24.2187240079
 20
105.7654471907
 11
24.2187240079
 21
108.1496342487
  0
LINE
  5
288
100
AcDbEntity
  8
0
100
AcDbLine
 62
7
  6
CONTINUOUS
 10
24.3247786908
 20
30.8431244241
 11
24.3247786908
 21
30.0328970433
  0
LWPOLYLINE
  5
289
100
AcDbEntity
  8
0
100
AcDbPolyline
 62
7
  6
CONTINUOUS
 90
3
 70
0
 10
24.9611774434
 20
28.6851663772
 10
24.9611883789
 20
28.5242007059
 10
24.9612452686
 20
28.516020972
  0
LINE
  5
28A
100
AcDbEntity
  8
0
100
AcDbLine
 62
7
  6
CONTINUOUS
 10
24.9611781842
 20
28.5160566483
 11
24.9611774434
 21
29.6654803642
  0
LINE
  5
28B
100
AcDbEntity
  8
0
100
AcDbLine
 62
7
  6
CONTINUOUS
 10
24.9611892193
 20
102.2928942989
 11
24.9611892193
 21
96.5358456916
  0
LINE
  5
28C
100
AcDbEntity
  8
0
100
AcDbLine
 62
7
  6
CONTINUOUS
 10
24.9611892193
 20
39.2017525273
 11
24.9611892193
 21
40.2524729459
  0
LINE
  5
28D
100
AcDbEntity
  8
0
100
AcDbLine
 62
7
  6
CONTINUOUS
 10
27.9310500649
 20
100.5782831299
 11
27.9310500649
 21
94.8212345226
  0
LINE
  5
28E
100
AcDbEntity
  8
0
100
AcDbLine
 62
7
  6
CONTINUOUS
 10
27.9310500649
 20
38.5163004225
 11
27.9310500649
 21
37.4871413583
  0
LINE
  5
28F
100
AcDbEntity
  8
0
100
AcDbLine
 62
7
  6
CONTINUOUS
 10
28.0017610374
 20
105.965546212
 11
28.0017610374
 21
103.581359154
  0
LINE
  5
290
100
AcDbEntity
  8
0
100
AcDbLine
 62
7
  6
CONTINUOUS
 10
28.0017610374
 20
34.4024171833
 11
28.0017610374
 21
32.0182301252
  0
LINE
  5
291
100
AcDbEntity
  8
0
100
AcDbLine
 62
7
  6
CONTINUOUS
 10
32.3235407685
 20
99.348738678
 11
32.7393961959
 21
100.8273387244
  0
LINE
  5
292
100
AcDbEntity
  8
0
100
AcDbLine
 62
7
  6
CONTINUOUS
 10
33.7010654221
 20
104.2281342395
 11
33.2343730035
 21
102.9660518631
  0
LINE
  5
293
100
AcDbEntity
  8
0
100
AcDbLine
 62
7
  6
CONTINUOUS
 10
22.5641652073
 20
75.4702793578
 11
21.5158971517
 21
74.3289205242
  0
LINE
  5
294
100
AcDbEntity
  8
0
100
AcDbLine
 62
7
  6
CONTINUOUS
 10
31.3251767456
 20
93.1481613134
 11
31.4665999126
 21
93.2298115295
  0
LINE
  5
295
100
AcDbEntity
  8
0
100
AcDbLine
 62
7
  6
CONTINUOUS
 10
42.2697225847
 20
97.995851755
 11
38.46832428
 21
95.8011265212
  0
LINE
  5
296
100
AcDbEntity
  8
0
100
AcDbLine
 62
7
  6
CONTINUOUS
 10
44.1774205569
 20
98.1797446151
 11
42.8510652655
 21
97.4139776016
  0
LINE
  5
297
100
AcDbEntity
  8
0
100
AcDbLine
 62
7
  6
CONTINUOUS
 10
34.535238771
 20
90.9190318315
 11
37.4770313544
 21
92.6174664332
  0
LINE
  5
298
100
AcDbEntity
  8
0
100
AcDbLine
 62
7
  6
CONTINUOUS
 10
37.4770313544
 20
92.2908682882
 11
34.8597169819
 21
90.7797701507
  0
LINE
  5
299
100
AcDbEntity
  8
0
100
AcDbLine
 62
7
  6
CONTINUOUS
 10
46.2422166345
 20
96.9876610124
 11
42.8510652655
 21
95.0297905436
  0
LINE
  5
29A
100
AcDbEntity
  8
0
100
AcDbLine
 62
7
  6
CONTINUOUS
 10
33.2058448885
 20
49.3618527719
 11
33.0037091464
 21
49.4083642782
  0
LINE
  5
29B
100
AcDbEntity
  8
0
100
AcDbLine
 62
7
  6
CONTINUOUS
 10
25.6561390459
 20
56.0229091825
 11
20.5769008037
 21
58.9553424085
  0
LINE
  5
29C
100
AcDbEntity
  8
0
100
AcDbLine
 62
7
  6
CONTINUOUS
 10
15.2243835708
 20
62.5579435084
 11
15.0829616257
 21
62.6395916593
  0
LINE
  5
29D
100
AcDbEntity
  8
0
100
AcDbLine
 62
7
  6
CONTINUOUS
 10
20.3908731898
 20
59.6232049329
 11
25.8572119421
 21
56.4672841792
  0
LINE
  5
29E
100
AcDbEntity
  8
0
100
AcDbLine
 62
7
  6
CONTINUOUS
 10
15.0829616257
 20
63.6193945599
 11
15.2243835708
 21
63.537746409
  0
LINE
  5
29F
100
AcDbEntity
  8
0
100
AcDbLine
 62
7
  6
CONTINUOUS
 10
13.1322502415
 20
83.2031561703
 11
13.3395072034
 21
82.8515694657
  0
LINE
  5
2A0
100
AcDbEntity
  8
0
100
AcDbLine
 62
7
  6
CONTINUOUS
 10
13.2329742545
 20
82.7893542181
 11
13.0258235829
 21
83.1409402272
  0
LINE
  5
2A1
100
AcDbEntity
  8
0
100
AcDbLine
 62
7
  6
CONTINUOUS
 10
13.3313895288
 20
84.4798606835
 11
13.1242372364
 21
84.8314480552
  0
LINE
  5
2A2
100
AcDbEntity
  8
0
100
AcDbLine
 62
7
  6
CONTINUOUS
 10
37.972008162
 20
26.2620354865
 11
38.4401029174
 21
24.4387784585
  0
LINE
  5
2A3
100
AcDbEntity
  8
0
100
AcDbLine
 62
7
  6
CONTINUOUS
 10
29.551382501
 20
74.0141894929
 11
29.5517477963
 21
73.9409163881
  0
LINE
  5
2A4
100
AcDbEntity
  8
0
100
AcDbLine
 62
7
  6
CONTINUOUS
 10
32.8351197361
 20
72.2365217506
 11
32.8354850315
 21
72.1632486458
  0
LINE
  5
2A5
100
AcDbEntity
  8
0
100
AcDbLine
 62
7
  6
CONTINUOUS
 10
28.4260268725
 20
31.7732856725
 11
28.4260268725
 21
34.1574727305
  0
LINE
  5
2A6
100
AcDbEntity
  8
0
100
AcDbLine
 62
7
  6
CONTINUOUS
 10
28.4260268725
 20
103.3579019358
 11
28.4260268725
 21
105.7420889938
  0
LINE
  5
2A7
100
AcDbEntity
  8
0
100
AcDbLine
 62
7
  6
CONTINUOUS
 10
28.496737845
 20
37.1605487547
 11
28.496737845
 21
38.2035508961
  0
LINE
  5
2A8
100
AcDbEntity
  8
0
100
AcDbLine
 62
7
  6
CONTINUOUS
 10
28.496737845
 20
94.9444248149
 11
28.496737845
 21
100.2516905263
  0
LINE
  5
2A9
100
AcDbEntity
  8
0
100
AcDbLine
 62
7
  6
CONTINUOUS
 10
29.5517477963
 20
50.0174188158
 11
29.5517477963
 21
51.4012458032
  0
LINE
  5
2AA
100
AcDbEntity
  8
0
100
AcDbLine
 62
7
  6
CONTINUOUS
 10
29.5517477963
 20
65.4900668322
 11
29.5517477963
 21
73.9409163881
  0
LINE
  5
2AB
100
AcDbEntity
  8
0
100
AcDbLine
 62
7
  6
CONTINUOUS
 10
31.4392833436
 20
43.2351147661
 11
31.4392833436
 21
36.74392055
  0
LINE
  5
2AC
100
AcDbEntity
  8
0
100
AcDbLine
 62
7
  6
CONTINUOUS
 10
31.4665986906
 20
98.5370793573
 11
31.4665986906
 21
93.2298136459
  0
LINE
  5
2AD
100
AcDbEntity
  8
0
100
AcDbLine
 62
7
  6
CONTINUOUS
 10
31.4665986906
 20
36.5616158829
 11
31.4665986906
 21
35.4459375857
  0
LINE
  5
2AE
100
AcDbEntity
  8
0
100
AcDbLine
 62
7
  6
CONTINUOUS
 10
32.7393961959
 20
103.2115257824
 11
32.7393961959
 21
100.8273387244
  0
LINE
  5
2AF
100
AcDbEntity
  8
0
100
AcDbLine
 62
7
  6
CONTINUOUS
 10
32.7393961959
 20
31.667204128
 11
32.7393961959
 21
29.28301707
  0
LINE
  5
2B0
100
AcDbEntity
  8
0
100
AcDbLine
 62
7
  6
CONTINUOUS
 10
32.8354850315
 20
72.1632486458
 11
32.8354850315
 21
71.5531236117
  0
LINE
  5
2B1
100
AcDbEntity
  8
0
100
AcDbLine
 62
7
  6
CONTINUOUS
 10
32.8354850315
 20
49.5054221158
 11
32.8354850315
 21
48.2390766907
  0
LINE
  5
2B2
100
AcDbEntity
  8
0
100
AcDbLine
 62
7
  6
CONTINUOUS
 10
37.1318868995
 20
96.5727015472
 11
37.5477423269
 21
98.0513015936
  0
LINE
  5
2B3
100
AcDbEntity
  8
0
100
AcDbLine
 62
7
  6
CONTINUOUS
 10
38.5094115531
 20
101.4520971087
 11
38.0427191345
 21
100.1900147323
  0
LINE
  5
2B4
100
AcDbEntity
  8
0
100
AcDbLine
 62
7
  6
CONTINUOUS
 10
22.3870224806
 20
79.2738967324
 11
21.5449465034
 21
78.7821453393
  0
LINE
  5
2B5
100
AcDbEntity
  8
0
100
AcDbLine
 62
7
  6
CONTINUOUS
 10
21.3318097877
 20
77.2959195672
 11
21.2252644193
 21
77.2337213185
  0
LINE
  5
2B6
100
AcDbEntity
  8
0
100
AcDbLine
 62
7
  6
CONTINUOUS
 10
47.0780687157
 20
95.2198146243
 11
43.276670411
 21
93.0250893905
  0
LINE
  5
2B7
100
AcDbEntity
  8
0
100
AcDbLine
 62
7
  6
CONTINUOUS
 10
38.0427191345
 20
89.4331746289
 11
41.0125799801
 21
91.1478143526
  0
LINE
  5
2B8
100
AcDbEntity
  8
0
100
AcDbLine
 62
7
  6
CONTINUOUS
 10
48.8629534998
 20
95.4746121075
 11
47.5179894515
 21
94.6981013873
  0
LINE
  5
2B9
100
AcDbEntity
  8
0
100
AcDbLine
 62
7
  6
CONTINUOUS
 10
41.0125799801
 20
90.8212162076
 11
38.1841410795
 21
89.1882259946
  0
LINE
  5
2BA
100
AcDbEntity
  8
0
100
AcDbLine
 62
7
  6
CONTINUOUS
 10
47.5179894515
 20
92.3139143292
 11
50.8544193962
 21
94.2401915576
  0
LINE
  5
2BB
100
AcDbEntity
  8
0
100
AcDbLine
 62
7
  6
CONTINUOUS
 10
53.8466185476
 20
95.3326294862
 11
88.6403904213
 21
115.420703134
  0
LINE
  5
2BC
100
AcDbEntity
  8
0
100
AcDbLine
 62
7
  6
CONTINUOUS
 10
40.8711580351
 20
87.6369111274
 11
41.012581202
 21
87.7185613435
  0
LINE
  5
2BD
100
AcDbEntity
  8
0
100
AcDbLine
 62
7
  6
CONTINUOUS
 10
34.616465335
 20
49.41983158
 11
33.2058448885
 21
49.3618527719
  0
LINE
  5
2BE
100
AcDbEntity
  8
0
100
AcDbLine
 62
7
  6
CONTINUOUS
 10
39.212047475
 20
58.081747707
 11
38.2220938598
 21
58.6532847634
  0
LINE
  5
2BF
100
AcDbEntity
  8
0
100
AcDbLine
 62
7
  6
CONTINUOUS
 10
39.2120705997
 20
58.081787764
 11
38.1372308867
 21
58.9046904635
  0
LINE
  5
2C0
100
AcDbEntity
  8
0
100
AcDbLine
 62
7
  6
CONTINUOUS
 10
53.5966282125
 20
13.9434090703
 11
53.493066629
 21
14.1722927508
  0
LINE
  5
2C1
100
AcDbEntity
  8
0
100
AcDbLine
 62
7
  6
CONTINUOUS
 10
55.0108358869
 20
11.1672867427
 11
54.9072743034
 21
11.3961704232
  0
LINE
  5
2C2
100
AcDbEntity
  8
0
100
AcDbLine
 62
7
  6
CONTINUOUS
 10
42.780354293
 20
23.4859983558
 11
43.2484490484
 21
21.6627413277
  0
LINE
  5
2C3
100
AcDbEntity
  8
0
100
AcDbLine
 62
7
  6
CONTINUOUS
 10
33.700778083
 20
72.7420446601
 11
33.7011433783
 21
72.6687715553
  0
LINE
  5
2C4
100
AcDbEntity
  8
0
100
AcDbLine
 62
7
  6
CONTINUOUS
 10
33.2343730035
 20
28.9972485418
 11
33.2343730035
 21
31.3814355998
  0
LINE
  5
2C5
100
AcDbEntity
  8
0
100
AcDbLine
 62
7
  6
CONTINUOUS
 10
33.2343730035
 20
100.5818648051
 11
33.2343730035
 21
102.9660518631
  0
LINE
  5
2C6
100
AcDbEntity
  8
0
100
AcDbLine
 62
7
  6
CONTINUOUS
 10
33.7011433783
 20
48.738861787
 11
33.7011433783
 21
49.3822103502
  0
LINE
  5
2C7
100
AcDbEntity
  8
0
100
AcDbLine
 62
7
  6
CONTINUOUS
 10
33.7011433783
 20
72.0351118136
 11
33.7011433783
 21
72.6687715553
  0
LINE
  5
2C8
100
AcDbEntity
  8
0
100
AcDbLine
 62
7
  6
CONTINUOUS
 10
34.5071705088
 20
96.7816441128
 11
34.5071705088
 21
91.0245955056
  0
LINE
  5
2C9
100
AcDbEntity
  8
0
100
AcDbLine
 62
7
  6
CONTINUOUS
 10
34.5071705088
 20
33.6905023412
 11
34.5071705088
 21
34.9707764958
  0
LWPOLYLINE
  5
2CA
100
AcDbEntity
  8
0
100
AcDbPolyline
 62
7
  6
CONTINUOUS
 90
3
 70
0
 10
34.5778814813
 20
25.0927329343
 10
34.5778924167
 20
24.931767263
 10
34.5779493065
 20
24.9235875291
  0
LINE
  5
2CB
100
AcDbEntity
  8
0
100
AcDbLine
 62
7
  6
CONTINUOUS
 10
34.5778814813
 20
26.3991368017
 11
34.5778822221
 21
24.9236232054
  0
LINE
  5
2CC
100
AcDbEntity
  8
0
100
AcDbLine
 62
7
  6
CONTINUOUS
 10
34.5778814813
 20
105.0759565454
 11
34.5778814813
 21
105.6406963841
  0
LINE
  5
2CD
100
AcDbEntity
  8
0
100
AcDbLine
 62
7
  6
CONTINUOUS
 10
35.9920950437
 20
25.1988816478
 11
35.9920950437
 21
24.5783398108
  0
LINE
  5
2CE
100
AcDbEntity
  8
0
100
AcDbLine
 62
7
  6
CONTINUOUS
 10
37.2648760627
 20
106.3346966308
 11
37.2648760627
 21
107.6002753774
  0
LINE
  5
2CF
100
AcDbEntity
  8
0
100
AcDbLine
 62
7
  6
CONTINUOUS
 10
37.4770313544
 20
95.0670329439
 11
37.4770313544
 21
89.3099843366
  0
LINE
  5
2D0
100
AcDbEntity
  8
0
100
AcDbLine
 62
7
  6
CONTINUOUS
 10
37.4770313544
 20
33.2581039703
 11
37.4770313544
 21
31.9758911723
  0
LINE
  5
2D1
100
AcDbEntity
  8
0
100
AcDbLine
 62
7
  6
CONTINUOUS
 10
37.5477423269
 20
100.4354886517
 11
37.5477423269
 21
98.0513015936
  0
LINE
  5
2D2
100
AcDbEntity
  8
0
100
AcDbLine
 62
7
  6
CONTINUOUS
 10
37.5477423269
 20
28.8911669972
 11
37.5477423269
 21
26.5069799392
  0
LINE
  5
2D3
100
AcDbEntity
  8
0
100
AcDbLine
 62
7
  6
CONTINUOUS
 10
37.972008162
 20
26.2620354865
 11
37.972008162
 21
28.6462225445
  0
LINE
  5
2D4
100
AcDbEntity
  8
0
100
AcDbLine
 62
7
  6
CONTINUOUS
 10
41.9402330305
 20
93.7966644165
 11
42.3560884579
 21
95.2752644629
  0
LINE
  5
2D5
100
AcDbEntity
  8
0
100
AcDbLine
 62
7
  6
CONTINUOUS
 10
43.3177576841
 20
98.676059978
 11
42.8510652655
 21
97.4139776016
  0
LINE
  5
2D6
100
AcDbEntity
  8
0
100
AcDbLine
 62
7
  6
CONTINUOUS
 10
29.2941041283
 20
69.8382722245
 11
29.5517477963
 21
70.1187957746
  0
LINE
  5
2D7
100
AcDbEntity
  8
0
100
AcDbLine
 62
7
  6
CONTINUOUS
 10
51.301026481
 20
92.0542801207
 11
48.1296393637
 21
90.2232898444
  0
LINE
  5
2D8
100
AcDbEntity
  8
0
100
AcDbLine
 62
7
  6
CONTINUOUS
 10
44.0812200604
 20
85.4077816455
 11
47.0230126439
 21
87.1062162471
  0
LINE
  5
2D9
100
AcDbEntity
  8
0
100
AcDbLine
 62
7
  6
CONTINUOUS
 10
47.0230126439
 20
86.7796181022
 11
44.4056982714
 21
85.2685199647
  0
LINE
  5
2DA
100
AcDbEntity
  8
0
100
AcDbLine
 62
7
  6
CONTINUOUS
 10
38.1193834238
 20
58.9085302607
 11
38.1719306529
 21
58.8781927901
  0
LINE
  5
2DB
100
AcDbEntity
  8
0
100
AcDbLine
 62
7
  6
CONTINUOUS
 10
28.0017610374
 20
105.965546212
 11
27.5293998583
 21
107.7912664052
  0
LINE
  5
2DC
100
AcDbEntity
  8
0
100
AcDbLine
 62
7
  6
CONTINUOUS
 10
47.5179894515
 20
20.7507853005
 11
47.9860842068
 21
18.9275282724
  0
LINE
  5
2DD
100
AcDbEntity
  8
0
100
AcDbLine
 62
7
  6
CONTINUOUS
 10
28.4260268725
 20
103.3579019358
 11
28.851632018
 21
101.3532007827
  0
LINE
  5
2DE
100
AcDbEntity
  8
0
100
AcDbLine
 62
7
  6
CONTINUOUS
 10
41.6252552721
 20
67.9262269113
 11
41.6256205675
 21
67.8529538065
  0
LINE
  5
2DF
100
AcDbEntity
  8
0
100
AcDbLine
 62
7
  6
CONTINUOUS
 10
38.0427191345
 20
31.6492985686
 11
38.0427191345
 21
32.9315113667
  0
LINE
  5
2E0
100
AcDbEntity
  8
0
100
AcDbLine
 62
7
  6
CONTINUOUS
 10
38.0427191345
 20
89.4331746289
 11
38.0427191345
 21
94.7404403402
  0
LINE
  5
2E1
100
AcDbEntity
  8
0
100
AcDbLine
 62
7
  6
CONTINUOUS
 10
38.0427191345
 20
97.8058276743
 11
38.0427191345
 21
100.1900147323
  0
LINE
  5
2E2
100
AcDbEntity
  8
0
100
AcDbLine
 62
7
  6
CONTINUOUS
 10
40.6378900176
 20
57.6136267109
 11
40.6378900176
 21
50.27644935
  0
LINE
  5
2E3
100
AcDbEntity
  8
0
100
AcDbLine
 62
7
  6
CONTINUOUS
 10
40.9418690076
 20
22.724970011
 11
40.9418690076
 21
21.4185661436
  0
LINE
  5
2E4
100
AcDbEntity
  8
0
100
AcDbLine
 62
7
  6
CONTINUOUS
 10
40.9418690076
 20
101.4017897547
 11
40.9418690076
 21
101.9665295934
  0
LINE
  5
2E5
100
AcDbEntity
  8
0
100
AcDbLine
 62
7
  6
CONTINUOUS
 10
41.0125799801
 20
93.0258291713
 11
41.0125799801
 21
87.7185634599
  0
LINE
  5
2E6
100
AcDbEntity
  8
0
100
AcDbLine
 62
7
  6
CONTINUOUS
 10
41.0125799801
 20
31.2169001977
 11
41.0125799801
 21
29.9346873997
  0
LINE
  5
2E7
100
AcDbEntity
  8
0
100
AcDbLine
 62
7
  6
CONTINUOUS
 10
41.6256205675
 20
43.9244179759
 11
41.6256205675
 21
67.8529538065
  0
LINE
  5
2E8
100
AcDbEntity
  8
0
100
AcDbLine
 62
7
  6
CONTINUOUS
 10
41.9248371361
 20
37.0589390519
 11
41.9248371361
 21
30.8126955608
  0
LINE
  5
2E9
100
AcDbEntity
  8
0
100
AcDbLine
 62
7
  6
CONTINUOUS
 10
42.2853774854
 20
26.1559539419
 11
42.2853774854
 21
23.7717668839
  0
LINE
  5
2EA
100
AcDbEntity
  8
0
100
AcDbLine
 62
7
  6
CONTINUOUS
 10
42.3560884579
 20
97.6594515209
 11
42.3560884579
 21
95.2752644629
  0
LINE
  5
2EB
100
AcDbEntity
  8
0
100
AcDbLine
 62
7
  6
CONTINUOUS
 10
42.7590121334
 20
31.2943038453
 11
42.7590121334
 21
37.5405473363
  0
LINE
  5
2EC
100
AcDbEntity
  8
0
100
AcDbLine
 62
7
  6
CONTINUOUS
 10
42.780354293
 20
23.4859983558
 11
42.780354293
 21
25.8701854138
  0
LINE
  5
2ED
100
AcDbEntity
  8
0
100
AcDbLine
 62
7
  6
CONTINUOUS
 10
46.7485791615
 20
91.0206272858
 11
47.1644345889
 21
92.4992273322
  0
LINE
  5
2EE
100
AcDbEntity
  8
0
100
AcDbLine
 62
7
  6
CONTINUOUS
 10
37.5666031679
 20
58.4585461102
 11
34.616465335
 21
49.41983158
  0
LINE
  5
2EF
100
AcDbEntity
  8
0
100
AcDbLine
 62
7
  6
CONTINUOUS
 10
47.9860842068
 20
95.980861377
 11
47.5179894515
 21
94.6981013873
  0
LINE
  5
2F0
100
AcDbEntity
  8
0
100
AcDbLine
 62
7
  6
CONTINUOUS
 10
29.551382501
 20
74.0141894929
 11
30.5187843198
 21
74.5791280555
  0
LINE
  5
2F1
100
AcDbEntity
  8
0
100
AcDbLine
 62
7
  6
CONTINUOUS
 10
33.700778083
 20
72.7420446601
 11
32.8351197361
 21
72.2365217506
  0
LINE
  5
2F2
100
AcDbEntity
  8
0
100
AcDbLine
 62
7
  6
CONTINUOUS
 10
47.588700424
 20
83.9219244429
 11
50.5585612696
 21
85.6365641665
  0
LINE
  5
2F3
100
AcDbEntity
  8
0
100
AcDbLine
 62
7
  6
CONTINUOUS
 10
15.0829519107
 20
64.9665946587
 11
15.6413375291
 21
65.2889768215
  0
LINE
  5
2F4
100
AcDbEntity
  8
0
100
AcDbLine
 62
7
  6
CONTINUOUS
 10
50.5585612696
 20
85.3099660215
 11
47.730122369
 21
83.6769758085
  0
LINE
  5
2F5
100
AcDbEntity
  8
0
100
AcDbLine
 62
7
  6
CONTINUOUS
 10
15.8537009812
 20
64.5950958781
 11
16.2747101133
 21
64.8381641629
  0
LINE
  5
2F6
100
AcDbEntity
  8
0
100
AcDbLine
 62
7
  6
CONTINUOUS
 10
17.0406694522
 20
64.3005854531
 11
16.2795807983
 21
63.8611733369
  0
LINE
  5
2F7
100
AcDbEntity
  8
0
100
AcDbLine
 62
7
  6
CONTINUOUS
 10
16.9143655689
 20
63.9827347463
 11
17.2329607401
 21
64.1666746562
  0
LINE
  5
2F8
100
AcDbEntity
  8
0
100
AcDbLine
 62
7
  6
CONTINUOUS
 10
17.5578359487
 20
63.5377520179
 11
17.8772443832
 21
63.7221614628
  0
LINE
  5
2F9
100
AcDbEntity
  8
0
100
AcDbLine
 62
7
  6
CONTINUOUS
 10
50.4171393246
 20
82.1256609414
 11
50.5585624915
 21
82.2073111575
  0
LINE
  5
2FA
100
AcDbEntity
  8
0
100
AcDbLine
 62
7
  6
CONTINUOUS
 10
21.3903220267
 20
74.0133430181
 11
29.1685290033
 21
69.5226947184
  0
LINE
  5
2FB
100
AcDbEntity
  8
0
100
AcDbLine
 62
7
  6
CONTINUOUS
 10
21.5158971517
 20
74.3289205242
 11
29.2941041283
 21
69.8382722245
  0
LINE
  5
2FC
100
AcDbEntity
  8
0
100
AcDbLine
 62
7
  6
CONTINUOUS
 10
38.8644390821
 20
65.8169651076
 11
31.0862321055
 21
70.3076134073
  0
LINE
  5
2FD
100
AcDbEntity
  8
0
100
AcDbLine
 62
7
  6
CONTINUOUS
 10
22.5641652073
 20
75.4702793578
 11
29.5517477963
 21
71.4360879346
  0
LINE
  5
2FE
100
AcDbEntity
  8
0
100
AcDbLine
 62
7
  6
CONTINUOUS
 10
31.4234931816
 20
70.7669434574
 11
39.2017001583
 21
66.2762951577
  0
LINE
  5
2FF
100
AcDbEntity
  8
0
100
AcDbLine
 62
7
  6
CONTINUOUS
 10
41.6278436328
 20
67.6271427928
 11
33.8496366561
 21
72.1177910926
  0
LINE
  5
300
100
AcDbEntity
  8
0
100
AcDbLine
 62
7
  6
CONTINUOUS
 10
32.7393961959
 20
103.2115257824
 11
32.2656326801
 21
105.0568629711
  0
LINE
  5
301
100
AcDbEntity
  8
0
100
AcDbLine
 62
7
  6
CONTINUOUS
 10
33.2343730035
 20
100.5818648051
 11
33.659978149
 21
98.5771636519
  0
LINE
  5
302
100
AcDbEntity
  8
0
100
AcDbLine
 62
7
  6
CONTINUOUS
 10
43.4366085062
 20
67.1117325775
 11
43.4369738016
 21
67.0384594727
  0
LINE
  5
303
100
AcDbEntity
  8
0
100
AcDbLine
 62
7
  6
CONTINUOUS
 10
44.7528973169
 20
67.1659900116
 11
44.7532626122
 21
67.0927169068
  0
LINE
  5
304
100
AcDbEntity
  8
0
100
AcDbLine
 62
7
  6
CONTINUOUS
 10
42.8510652655
 20
95.0297905436
 11
42.8510652655
 21
97.4139776016
  0
LINE
  5
305
100
AcDbEntity
  8
0
100
AcDbLine
 62
7
  6
CONTINUOUS
 10
43.4369738016
 20
67.037785255
 11
43.4369738016
 21
30.6814368804
  0
LINE
  5
306
100
AcDbEntity
  8
0
100
AcDbLine
 62
7
  6
CONTINUOUS
 10
44.0531517983
 20
91.2703939268
 11
44.0531517983
 21
85.5133453195
  0
LINE
  5
307
100
AcDbEntity
  8
0
100
AcDbLine
 62
7
  6
CONTINUOUS
 10
44.0531517983
 20
28.1792521552
 11
44.0531517983
 21
30.5733775671
  0
LINE
  5
308
100
AcDbEntity
  8
0
100
AcDbLine
 62
7
  6
CONTINUOUS
 10
44.7532626122
 20
67.0927169068
 11
44.7532626122
 21
30.7310472154
  0
LINE
  5
309
100
AcDbEntity
  8
0
100
AcDbLine
 62
7
  6
CONTINUOUS
 10
45.9199314924
 20
67.8475088973
 11
45.9199839436
 21
31.4046500693
  0
LINE
  5
30A
100
AcDbEntity
  8
0
100
AcDbLine
 62
7
  6
CONTINUOUS
 10
45.9906949161
 20
31.1188752687
 11
45.9906949161
 21
67.7332290239
  0
LINE
  5
30B
100
AcDbEntity
  8
0
100
AcDbLine
 62
7
  6
CONTINUOUS
 10
47.0230126439
 20
89.5557827578
 11
47.0230126439
 21
83.7987341506
  0
LINE
  5
30C
100
AcDbEntity
  8
0
100
AcDbLine
 62
7
  6
CONTINUOUS
 10
47.0230126439
 20
31.7080149456
 11
47.0230126439
 21
26.4646409862
  0
LINE
  5
30D
100
AcDbEntity
  8
0
100
AcDbLine
 62
7
  6
CONTINUOUS
 10
47.0937236164
 20
23.3799168112
 11
47.0937236164
 21
20.9957297532
  0
LINE
  5
30E
100
AcDbEntity
  8
0
100
AcDbLine
 62
7
  6
CONTINUOUS
 10
47.1644345889
 20
94.8834143902
 11
47.1644345889
 21
92.4992273322
  0
LINE
  5
30F
100
AcDbEntity
  8
0
100
AcDbLine
 62
7
  6
CONTINUOUS
 10
47.5179894515
 20
20.7507853005
 11
47.5179894515
 21
23.1349723585
  0
LINE
  5
310
100
AcDbEntity
  8
0
100
AcDbLine
 62
7
  6
CONTINUOUS
 10
47.5179894515
 20
92.3139143292
 11
47.5179894515
 21
94.6981013873
  0
LINE
  5
311
100
AcDbEntity
  8
0
100
AcDbLine
 62
7
  6
CONTINUOUS
 10
47.588700424
 20
26.1380483826
 11
47.588700424
 21
31.7719150608
  0
LINE
  5
312
100
AcDbEntity
  8
0
100
AcDbLine
 62
7
  6
CONTINUOUS
 10
47.588700424
 20
83.9219244429
 11
47.588700424
 21
89.2291901542
  0
LINE
  5
313
100
AcDbEntity
  8
0
100
AcDbLine
 62
7
  6
CONTINUOUS
 10
27.5293998583
 20
30.7379333007
 11
28.0017610374
 21
32.0182301252
  0
LINE
  5
314
100
AcDbEntity
  8
0
100
AcDbLine
 62
7
  6
CONTINUOUS
 10
17.5578359487
 20
62.5579491174
 11
17.8821150683
 21
62.7451706368
  0
LINE
  5
315
100
AcDbEntity
  8
0
100
AcDbLine
 62
7
  6
CONTINUOUS
 10
53.493066629
 20
79.1250600335
 11
54.6456458836
 21
79.7904980043
  0
LINE
  5
316
100
AcDbEntity
  8
0
100
AcDbLine
 62
7
  6
CONTINUOUS
 10
33.8496366561
 20
72.1177910926
 11
31.4234931816
 21
70.7669434574
  0
LINE
  5
317
100
AcDbEntity
  8
0
100
AcDbLine
 62
7
  6
CONTINUOUS
 10
41.7696264351
 20
68.0105360739
 11
33.7011433783
 21
72.6687715553
  0
LINE
  5
318
100
AcDbEntity
  8
0
100
AcDbLine
 62
7
  6
CONTINUOUS
 10
30.4558708327
 20
74.5423881463
 11
22.387387776
 21
79.2006236276
  0
LINE
  5
319
100
AcDbEntity
  8
0
100
AcDbLine
 62
7
  6
CONTINUOUS
 10
41.8325399222
 20
68.0472759831
 11
33.700778083
 21
72.7420446601
  0
LINE
  5
31A
100
AcDbEntity
  8
0
100
AcDbLine
 62
7
  6
CONTINUOUS
 10
30.5187843198
 20
74.5791280555
 11
22.3870224806
 21
79.2738967324
  0
LINE
  5
31B
100
AcDbEntity
  8
0
100
AcDbLine
 62
7
  6
CONTINUOUS
 10
45.9199839436
 20
67.7740541361
 11
45.9906949161
 21
67.7332290239
  0
LINE
  5
31C
100
AcDbEntity
  8
0
100
AcDbLine
 62
7
  6
CONTINUOUS
 10
14.5949706684
 20
85.9325743226
 11
45.9199314924
 21
67.8475088973
  0
LINE
  5
31D
100
AcDbEntity
  8
0
100
AcDbLine
 62
7
  6
CONTINUOUS
 10
37.5477423269
 20
100.4354886517
 11
37.0739788111
 21
102.2808258404
  0
LINE
  5
31E
100
AcDbEntity
  8
0
100
AcDbLine
 62
7
  6
CONTINUOUS
 10
38.0427191345
 20
97.8058276743
 11
38.46832428
 21
95.8011265212
  0
LINE
  5
31F
100
AcDbEntity
  8
0
100
AcDbLine
 62
7
  6
CONTINUOUS
 10
50.5585612696
 20
87.5145789852
 11
50.5585612696
 21
82.2073132739
  0
LINE
  5
320
100
AcDbEntity
  8
0
100
AcDbLine
 62
7
  6
CONTINUOUS
 10
50.5585612696
 20
30.0573038918
 11
50.5585612696
 21
24.4234372136
  0
LINE
  5
321
100
AcDbEntity
  8
0
100
AcDbLine
 62
7
  6
CONTINUOUS
 10
51.301026481
 20
92.5140133506
 11
51.301026481
 21
90.1298262926
  0
LINE
  5
322
100
AcDbEntity
  8
0
100
AcDbLine
 62
7
  6
CONTINUOUS
 10
51.8313587749
 20
20.6447037559
 11
51.8313587749
 21
18.2605166979
  0
LINE
  5
323
100
AcDbEntity
  8
0
100
AcDbLine
 62
7
  6
CONTINUOUS
 10
32.2670350168
 20
28.0027202454
 11
32.7393961959
 21
29.28301707
  0
LINE
  5
324
100
AcDbEntity
  8
0
100
AcDbLine
 62
7
  6
CONTINUOUS
 10
41.6252552721
 20
67.9262269113
 11
41.8325399222
 21
68.0472759831
  0
LINE
  5
325
100
AcDbEntity
  8
0
100
AcDbLine
 62
7
  6
CONTINUOUS
 10
21.4413983957
 20
55.3139881276
 11
21.3348530273
 21
55.2517898788
  0
LINE
  5
326
100
AcDbEntity
  8
0
100
AcDbLine
 62
7
  6
CONTINUOUS
 10
22.387387776
 20
55.2707138593
 11
21.6642417057
 21
54.8532077732
  0
LINE
  5
327
100
AcDbEntity
  8
0
100
AcDbLine
 62
7
  6
CONTINUOUS
 10
21.8003969575
 20
54.7661188073
 11
21.6923576825
 21
54.7037426751
  0
LINE
  5
328
100
AcDbEntity
  8
0
100
AcDbLine
 62
7
  6
CONTINUOUS
 10
39.2017001582
 20
66.2762951576
 11
41.6278436328
 21
67.6271427928
  0
LINE
  5
329
100
AcDbEntity
  8
0
100
AcDbLine
 62
7
  6
CONTINUOUS
 10
88.1835808827
 20
60.3941484813
 11
90.6372311978
 21
59.8266548216
  0
LINE
  5
32A
100
AcDbEntity
  8
0
100
AcDbLine
 62
7
  6
CONTINUOUS
 10
42.3560884579
 20
97.6594515209
 11
41.8823249421
 21
99.5047887097
  0
LINE
  5
32B
100
AcDbEntity
  8
0
100
AcDbLine
 62
7
  6
CONTINUOUS
 10
42.8510652655
 20
95.0297905436
 11
43.276670411
 21
93.0250893905
  0
LINE
  5
32C
100
AcDbEntity
  8
0
100
AcDbLine
 62
7
  6
CONTINUOUS
 10
53.3869883943
 20
13.2542020325
 11
53.3869883943
 21
12.2738880454
  0
LINE
  5
32D
100
AcDbEntity
  8
0
100
AcDbLine
 62
7
  6
CONTINUOUS
 10
53.493066629
 20
14.1722927508
 11
53.493066629
 21
35.4004493693
  0
LINE
  5
32E
100
AcDbEntity
  8
0
100
AcDbLine
 62
7
  6
CONTINUOUS
 10
53.493066629
 20
72.5113904548
 11
53.493066629
 21
79.1250600335
  0
LINE
  5
32F
100
AcDbEntity
  8
0
100
AcDbLine
 62
7
  6
CONTINUOUS
 10
53.493066629
 20
80.0633312467
 11
53.493066629
 21
94.7202562007
  0
LINE
  5
330
100
AcDbEntity
  8
0
100
AcDbLine
 62
7
  6
CONTINUOUS
 10
54.023387147
 20
14.0702204085
 11
54.023387147
 21
12.8867853534
  0
LINE
  5
331
100
AcDbEntity
  8
0
100
AcDbLine
 62
7
  6
CONTINUOUS
 10
54.9072743034
 20
11.3961704232
 11
54.9072743034
 21
14.58052985
  0
LINE
  5
332
100
AcDbEntity
  8
0
100
AcDbLine
 62
7
  6
CONTINUOUS
 10
56.7174601267
 20
73.9973926845
 11
56.7174601267
 21
74.3729837964
  0
LINE
  5
333
100
AcDbEntity
  8
0
100
AcDbLine
 62
7
  6
CONTINUOUS
 10
37.0753811478
 20
25.2266831147
 11
37.5477423269
 21
26.5069799392
  0
LINE
  5
334
100
AcDbEntity
  8
0
100
AcDbLine
 62
7
  6
CONTINUOUS
 10
25.5700100678
 20
39.8847447076
 11
25.0036154495
 21
39.2262471765
  0
LINE
  5
335
100
AcDbEntity
  8
0
100
AcDbLine
 62
7
  6
CONTINUOUS
 10
29.1192071465
 20
37.8594087986
 11
28.5391640753
 21
37.1850434039
  0
LINE
  5
336
100
AcDbEntity
  8
0
100
AcDbLine
 62
7
  6
CONTINUOUS
 10
45.9199314924
 20
67.8475088973
 11
44.7528973169
 21
67.1659900116
  0
LINE
  5
337
100
AcDbEntity
  8
0
100
AcDbLine
 62
7
  6
CONTINUOUS
 10
45.9906949161
 20
67.7332290239
 11
56.7174601267
 21
73.9973926845
  0
LINE
  5
338
100
AcDbEntity
  8
0
100
AcDbLine
 62
7
  6
CONTINUOUS
 10
56.7174601267
 20
74.3729837964
 11
53.493066629
 21
72.5113904548
  0
LINE
  5
339
100
AcDbEntity
  8
0
100
AcDbLine
 62
7
  6
CONTINUOUS
 10
86.5855262106
 20
89.1840396529
 11
90.6584443129
 21
91.5365583386
  0
LINE
  5
33A
100
AcDbEntity
  8
0
100
AcDbLine
 62
7
  6
CONTINUOUS
 10
88.2542712474
 20
89.5758846343
 11
86.5855262106
 21
88.6124399891
  0
LINE
  5
33B
100
AcDbEntity
  8
0
100
AcDbLine
 62
7
  6
CONTINUOUS
 10
86.5855262106
 20
86.5712319181
 11
86.7693732083
 21
86.6773753981
  0
LINE
  5
33C
100
AcDbEntity
  8
0
100
AcDbLine
 62
7
  6
CONTINUOUS
 10
53.493066629
 20
72.5113904548
 11
22.0266838599
 21
90.6781040309
  0
LINE
  5
33D
100
AcDbEntity
  8
0
100
AcDbLine
 62
7
  6
CONTINUOUS
 10
56.7174601267
 20
73.9973926845
 11
56.3921840323
 21
74.1851866767
  0
LINE
  5
33E
100
AcDbEntity
  8
0
100
AcDbLine
 62
7
  6
CONTINUOUS
 10
51.301026481
 20
92.5140133506
 11
50.8286653019
 21
94.3397335438
  0
LINE
  5
33F
100
AcDbEntity
  8
0
100
AcDbLine
 62
7
  6
CONTINUOUS
 10
47.1644345889
 20
94.8834143902
 11
46.6906710731
 21
96.7287515789
  0
LINE
  5
340
100
AcDbEntity
  8
0
100
AcDbLine
 62
7
  6
CONTINUOUS
 10
41.8130163063
 20
22.4914700594
 11
42.2853774854
 21
23.7717668839
  0
LINE
  5
341
100
AcDbEntity
  8
0
100
AcDbLine
 62
7
  6
CONTINUOUS
 10
54.6456458836
 20
79.7904980043
 11
53.5959421604
 21
79.9127623561
  0
LINE
  5
342
100
AcDbEntity
  8
0
100
AcDbLine
 62
7
  6
CONTINUOUS
 10
53.5959421604
 20
79.9127623561
 11
53.5552206047
 21
79.92603064
  0
LINE
  5
343
100
AcDbEntity
  8
0
100
AcDbLine
 62
7
  6
CONTINUOUS
 10
87.6886081966
 20
59.2918751565
 11
86.7693732083
 21
59.8225837182
  0
LINE
  5
344
100
AcDbEntity
  8
0
100
AcDbLine
 62
7
  6
CONTINUOUS
 10
53.493066629
 20
79.1250600335
 11
22.0266838599
 21
97.2917736097
  0
LINE
  5
345
100
AcDbEntity
  8
0
100
AcDbLine
 62
7
  6
CONTINUOUS
 10
87.6886081966
 20
59.7817766067
 11
86.7693732083
 21
60.3124851685
  0
LINE
  5
346
100
AcDbEntity
  8
0
100
AcDbLine
 62
7
  6
CONTINUOUS
 10
22.0888175562
 20
98.0927089785
 11
25.0305224957
 21
96.3943532617
  0
LINE
  5
347
100
AcDbEntity
  8
0
100
AcDbLine
 62
7
  6
CONTINUOUS
 10
27.9859841809
 20
94.6880552638
 11
34.5765037852
 21
90.8831030757
  0
LINE
  5
348
100
AcDbEntity
  8
0
100
AcDbLine
 62
7
  6
CONTINUOUS
 10
37.5319654704
 20
89.1768050778
 11
44.1224850747
 21
85.3718528896
  0
LINE
  5
349
100
AcDbEntity
  8
0
100
AcDbLine
 62
7
  6
CONTINUOUS
 10
47.0779467599
 20
83.6655548918
 11
53.5552003252
 21
79.9259954023
  0
LINE
  5
34A
100
AcDbEntity
  8
0
100
AcDbLine
 62
7
  6
CONTINUOUS
 10
47.0270407843
 20
83.7551213969
 11
44.4056982714
 21
85.2685199647
  0
LINE
  5
34B
100
AcDbEntity
  8
0
100
AcDbLine
 62
7
  6
CONTINUOUS
 10
37.4810594948
 20
89.2663715829
 11
34.8597169819
 21
90.7797701507
  0
LINE
  5
34C
100
AcDbEntity
  8
0
100
AcDbLine
 62
7
  6
CONTINUOUS
 10
27.9350782053
 20
94.777621769
 11
25.3137356925
 21
96.2910203368
  0
LINE
  5
34D
100
AcDbEntity
  8
0
100
AcDbLine
 62
7
  6
CONTINUOUS
 10
22.0266838599
 20
98.2300448228
 11
24.9611892193
 21
96.5358456916
  0
LINE
  5
34E
100
AcDbEntity
  8
0
100
AcDbLine
 62
7
  6
CONTINUOUS
 10
27.9310500649
 20
94.8212345226
 11
34.5071705088
 21
91.0245955056
  0
LINE
  5
34F
100
AcDbEntity
  8
0
100
AcDbLine
 62
7
  6
CONTINUOUS
 10
37.4770313544
 20
89.3099843366
 11
44.0531517983
 21
85.5133453195
  0
LINE
  5
350
100
AcDbEntity
  8
0
100
AcDbLine
 62
7
  6
CONTINUOUS
 10
47.0230126439
 20
83.7987341506
 11
53.493066629
 21
80.0633312467
  0
LINE
  5
351
100
AcDbEntity
  8
0
100
AcDbLine
 62
7
  6
CONTINUOUS
 10
87.9714497315
 20
60.2716752351
 11
86.7693732083
 21
60.965678739
  0
LINE
  5
352
100
AcDbEntity
  8
0
100
AcDbLine
 62
7
  6
CONTINUOUS
 10
50.4171393246
 20
82.1256609414
 11
47.730122369
 21
83.6769758085
  0
LINE
  5
353
100
AcDbEntity
  8
0
100
AcDbLine
 62
7
  6
CONTINUOUS
 10
40.8711580351
 20
87.6369111274
 11
38.1841410795
 21
89.1882259946
  0
LINE
  5
354
100
AcDbEntity
  8
0
100
AcDbLine
 62
7
  6
CONTINUOUS
 10
31.3251767456
 20
93.1481613134
 11
28.6381597901
 21
94.6994761806
  0
LINE
  5
355
100
AcDbEntity
  8
0
100
AcDbLine
 62
7
  6
CONTINUOUS
 10
88.1835808827
 20
60.3941484813
 11
86.7693732083
 21
61.2106231917
  0
LINE
  5
356
100
AcDbEntity
  8
0
100
AcDbLine
 62
7
  6
CONTINUOUS
 10
90.6372311978
 20
59.8266548216
 11
86.7693732083
 21
62.0597131545
  0
LINE
  5
357
100
AcDbEntity
  8
0
100
AcDbLine
 62
7
  6
CONTINUOUS
 10
46.6213624373
 20
19.7154329287
 11
47.0937236164
 21
20.9957297532
  0
LINE
  5
358
100
AcDbEntity
  8
0
100
AcDbLine
 62
7
  6
CONTINUOUS
 10
47.692261829
 20
32.0007986383
 11
47.588700424
 21
31.7719150608
  0
LINE
  5
359
100
AcDbEntity
  8
0
100
AcDbLine
 62
7
  6
CONTINUOUS
 10
35.2583665482
 20
34.5390217152
 11
34.549596739
 21
33.7149969905
  0
LINE
  5
35A
100
AcDbEntity
  8
0
100
AcDbLine
 62
7
  6
CONTINUOUS
 10
33.7011433783
 20
48.738861787
 11
32.8354850315
 21
48.2390766907
  0
LINE
  5
35B
100
AcDbEntity
  8
0
100
AcDbLine
 62
7
  6
CONTINUOUS
 10
24.9611892193
 20
102.2928942989
 11
27.9310500649
 21
100.5782831299
  0
LINE
  5
35C
100
AcDbEntity
  8
0
100
AcDbLine
 62
7
  6
CONTINUOUS
 10
28.496737845
 20
100.2516905263
 11
31.4665986906
 21
98.5370793573
  0
LINE
  5
35D
100
AcDbEntity
  8
0
100
AcDbLine
 62
7
  6
CONTINUOUS
 10
34.5071705088
 20
96.7816441128
 11
37.4770313544
 21
95.0670329439
  0
LINE
  5
35E
100
AcDbEntity
  8
0
100
AcDbLine
 62
7
  6
CONTINUOUS
 10
38.0427191345
 20
94.7404403402
 11
41.0125799801
 21
93.0258291713
  0
LINE
  5
35F
100
AcDbEntity
  8
0
100
AcDbLine
 62
7
  6
CONTINUOUS
 10
44.0531517983
 20
91.2703939268
 11
47.0230126439
 21
89.5557827578
  0
LINE
  5
360
100
AcDbEntity
  8
0
100
AcDbLine
 62
7
  6
CONTINUOUS
 10
47.588700424
 20
89.2291901542
 11
50.5585612696
 21
87.5145789852
  0
LINE
  5
361
100
AcDbEntity
  8
0
100
AcDbLine
 62
7
  6
CONTINUOUS
 10
50.6893765688
 20
88.7454583131
 11
48.1296393637
 21
90.2232898444
  0
LINE
  5
362
100
AcDbEntity
  8
0
100
AcDbLine
 62
7
  6
CONTINUOUS
 10
46.7485791615
 20
91.0206272858
 11
43.276670411
 21
93.0250893905
  0
LINE
  5
363
100
AcDbEntity
  8
0
100
AcDbLine
 62
7
  6
CONTINUOUS
 10
41.9402330305
 20
93.7966644165
 11
38.46832428
 21
95.8011265212
  0
LINE
  5
364
100
AcDbEntity
  8
0
100
AcDbLine
 62
7
  6
CONTINUOUS
 10
37.1318868995
 20
96.5727015472
 11
33.659978149
 21
98.5771636519
  0
LINE
  5
365
100
AcDbEntity
  8
0
100
AcDbLine
 62
7
  6
CONTINUOUS
 10
32.3235407685
 20
99.348738678
 11
28.851632018
 21
101.3532007827
  0
LINE
  5
366
100
AcDbEntity
  8
0
100
AcDbLine
 62
7
  6
CONTINUOUS
 10
27.3901111252
 20
102.1969911745
 11
24.8303739201
 21
103.6748227059
  0
LINE
  5
367
100
AcDbEntity
  8
0
100
AcDbLine
 62
7
  6
CONTINUOUS
 10
51.3589975958
 20
16.9802198734
 11
51.8313587749
 21
18.2605166979
  0
LINE
  5
368
100
AcDbEntity
  8
0
100
AcDbLine
 62
7
  6
CONTINUOUS
 10
38.7939151739
 20
32.4978179426
 11
38.0851453647
 21
31.6737932179
  0
LINE
  5
369
100
AcDbEntity
  8
0
100
AcDbLine
 62
7
  6
CONTINUOUS
 10
25.0036154495
 20
39.2262471765
 11
24.9611892193
 21
39.2017525273
  0
LINE
  5
36A
100
AcDbEntity
  8
0
100
AcDbLine
 62
7
  6
CONTINUOUS
 10
25.1931291015
 20
37.7614411358
 11
23.688391714
 21
36.8926857858
  0
LINE
  5
36B
100
AcDbEntity
  8
0
100
AcDbLine
 62
7
  6
CONTINUOUS
 10
27.2579251791
 20
36.5693575331
 11
23.688391714
 21
34.5084987278
  0
LINE
  5
36C
100
AcDbEntity
  8
0
100
AcDbLine
 62
7
  6
CONTINUOUS
 10
28.5391640753
 20
37.1850434039
 11
28.496737845
 21
37.1605487547
  0
LINE
  5
36D
100
AcDbEntity
  8
0
100
AcDbLine
 62
7
  6
CONTINUOUS
 10
87.0708676037
 20
80.4779179974
 11
89.560482836
 21
79.9021061751
  0
LINE
  5
36E
100
AcDbEntity
  8
0
100
AcDbLine
 62
7
  6
CONTINUOUS
 10
24.6868187632
 20
109.4323942384
 11
27.5293998583
 21
107.7912664052
  0
LINE
  5
36F
100
AcDbEntity
  8
0
100
AcDbLine
 62
7
  6
CONTINUOUS
 10
28.8927192911
 20
107.0041713702
 11
32.2656326801
 21
105.0568629711
  0
LINE
  5
370
100
AcDbEntity
  8
0
100
AcDbLine
 62
7
  6
CONTINUOUS
 10
33.7010654221
 20
104.2281342395
 11
37.0739788111
 21
102.2808258404
  0
LINE
  5
371
100
AcDbEntity
  8
0
100
AcDbLine
 62
7
  6
CONTINUOUS
 10
38.5094115531
 20
101.4520971087
 11
41.8823249421
 21
99.5047887097
  0
LINE
  5
372
100
AcDbEntity
  8
0
100
AcDbLine
 62
7
  6
CONTINUOUS
 10
43.3177576841
 20
98.676059978
 11
46.6906710731
 21
96.7287515789
  0
LINE
  5
373
100
AcDbEntity
  8
0
100
AcDbLine
 62
7
  6
CONTINUOUS
 10
47.9860842068
 20
95.980861377
 11
50.8286653019
 21
94.3397335438
  0
LINE
  5
374
100
AcDbEntity
  8
0
100
AcDbLine
 62
7
  6
CONTINUOUS
 10
34.5778814813
 20
105.0759565454
 11
40.9418690076
 21
101.4017897547
  0
LINE
  5
375
100
AcDbEntity
  8
0
100
AcDbLine
 62
7
  6
CONTINUOUS
 10
47.0230126439
 20
31.6072192323
 11
44.0955780285
 21
28.2037468044
  0
LINE
  5
376
100
AcDbEntity
  8
0
100
AcDbLine
 62
7
  6
CONTINUOUS
 10
25.0204197237
 20
30.4415049723
 11
24.3247786908
 21
30.0328970433
  0
LINE
  5
377
100
AcDbEntity
  8
0
100
AcDbLine
 62
7
  6
CONTINUOUS
 10
24.9611774434
 20
29.6654803642
 11
25.6568184764
 21
30.0740882932
  0
LINE
  5
378
100
AcDbEntity
  8
0
100
AcDbLine
 62
7
  6
CONTINUOUS
 10
27.9518584227
 20
34.8764876387
 11
24.1564864694
 21
32.6852416998
  0
LINE
  5
379
100
AcDbEntity
  8
0
100
AcDbLine
 62
7
  6
CONTINUOUS
 10
29.93076426
 20
35.0262280805
 11
28.4260268725
 21
34.1574727305
  0
LINE
  5
37A
100
AcDbEntity
  8
0
100
AcDbLine
 62
7
  6
CONTINUOUS
 10
31.9955603376
 20
33.8341444778
 11
28.4260268725
 21
31.7732856725
  0
LINE
  5
37B
100
AcDbEntity
  8
0
100
AcDbLine
 62
7
  6
CONTINUOUS
 10
24.9611774434
 20
28.6851663772
 11
26.5118539227
 21
29.5804445158
  0
LINE
  5
37C
100
AcDbEntity
  8
0
100
AcDbLine
 62
7
  6
CONTINUOUS
 10
26.658305462
 20
29.495892593
 11
24.9611765811
 21
28.5160606256
  0
LINE
  5
37D
100
AcDbEntity
  8
0
100
AcDbLine
 62
7
  6
CONTINUOUS
 10
89.560482836
 20
79.9021061751
 11
89.7492181107
 21
79.8281335055
  0
LINE
  5
37E
100
AcDbEntity
  8
0
100
AcDbLine
 62
7
  6
CONTINUOUS
 10
86.9765924701
 20
80.5150650533
 11
87.0708676037
 21
80.4779179974
  0
LINE
  5
37F
100
AcDbEntity
  8
0
100
AcDbLine
 62
7
  6
CONTINUOUS
 10
53.493066629
 20
94.7202562007
 11
40.9418690076
 21
101.9665295934
  0
LINE
  5
380
100
AcDbEntity
  8
0
100
AcDbLine
 62
7
  6
CONTINUOUS
 10
34.5778814813
 20
105.6406963841
 11
22.0266838599
 21
112.8869697768
  0
LINE
  5
381
100
AcDbEntity
  8
0
100
AcDbLine
 62
7
  6
CONTINUOUS
 10
22.3802357785
 20
113.4993430623
 11
34.9314333999
 21
106.2530696696
  0
LINE
  5
382
100
AcDbEntity
  8
0
100
AcDbLine
 62
7
  6
CONTINUOUS
 10
41.2954209262
 20
102.5789028789
 11
53.8466185476
 21
95.3326294862
  0
LINE
  5
383
100
AcDbEntity
  8
0
100
AcDbLine
 62
7
  6
CONTINUOUS
 10
36.55435599
 20
106.3366761064
 11
42.1792817977
 21
103.0891971449
  0
LINE
  5
384
100
AcDbEntity
  8
0
100
AcDbLine
 62
7
  6
CONTINUOUS
 10
37.2648760627
 20
106.3346966308
 11
42.5328245752
 21
103.2933139443
  0
LINE
  5
385
100
AcDbEntity
  8
0
100
AcDbLine
 62
7
  6
CONTINUOUS
 10
37.2648760627
 20
107.6002753774
 11
43.628863589
 21
103.9261085867
  0
LINE
  5
386
100
AcDbEntity
  8
0
100
AcDbLine
 62
7
  6
CONTINUOUS
 10
86.9042863594
 20
80.574091548
 11
86.9840754886
 21
80.5280263149
  0
LINE
  5
387
100
AcDbEntity
  8
0
100
AcDbLine
 62
7
  6
CONTINUOUS
 10
79.0548703443
 20
28.5220677047
 11
79.0548703443
 21
24.9294570694
  0
LINE
  5
388
100
AcDbEntity
  8
0
100
AcDbLine
 62
7
  6
CONTINUOUS
 10
50.5585612696
 20
29.5660154597
 11
47.6311266542
 21
26.1625430318
  0
LINE
  5
389
100
AcDbEntity
  8
0
100
AcDbLine
 62
7
  6
CONTINUOUS
 10
34.549596739
 20
33.7149969905
 11
34.5071705088
 21
33.6905023412
  0
LINE
  5
38A
100
AcDbEntity
  8
0
100
AcDbLine
 62
7
  6
CONTINUOUS
 10
32.6894935812
 20
32.1412745834
 11
28.8941216279
 21
29.9500286445
  0
LINE
  5
38B
100
AcDbEntity
  8
0
100
AcDbLine
 62
7
  6
CONTINUOUS
 10
41.8187706773
 20
37.2426505276
 11
42.6397024537
 21
37.7166128805
  0
LINE
  5
38C
100
AcDbEntity
  8
0
100
AcDbLine
 62
7
  6
CONTINUOUS
 10
42.7590121334
 20
37.5405473363
 11
41.9248371361
 21
37.0589390519
  0
LINE
  5
38D
100
AcDbEntity
  8
0
100
AcDbLine
 62
7
  6
CONTINUOUS
 10
34.739110391
 20
32.2501909498
 11
33.2343730035
 21
31.3814355998
  0
LINE
  5
38E
100
AcDbEntity
  8
0
100
AcDbLine
 62
7
  6
CONTINUOUS
 10
36.8039064686
 20
31.0581073471
 11
33.2343730035
 21
28.9972485418
  0
LINE
  5
38F
100
AcDbEntity
  8
0
100
AcDbLine
 62
7
  6
CONTINUOUS
 10
38.0851453647
 20
31.6737932179
 11
38.0427191345
 21
31.6492985686
  0
LINE
  5
390
100
AcDbEntity
  8
0
100
AcDbLine
 62
7
  6
CONTINUOUS
 10
87.9714497315
 20
60.2716752351
 11
88.1835808827
 21
60.3941484813
  0
LINE
  5
391
100
AcDbEntity
  8
0
100
AcDbLine
 62
7
  6
CONTINUOUS
 10
86.7693732083
 20
58.7611577564
 11
87.6886081966
 21
59.2918751565
  0
LINE
  5
392
100
AcDbEntity
  8
0
100
AcDbLine
 62
7
  6
CONTINUOUS
 10
89.560482836
 20
79.9021061751
 11
86.7693732083
 21
81.513517615
  0
LINE
  5
393
100
AcDbEntity
  8
0
100
AcDbLine
 62
7
  6
CONTINUOUS
 10
86.7693732083
 20
81.5485755785
 11
89.7492469854
 21
79.8281835716
  0
LINE
  5
394
100
AcDbEntity
  8
0
100
AcDbLine
 62
7
  6
CONTINUOUS
 10
89.5604201506
 20
69.4229937193
 11
87.0708989464
 21
65.9728011611
  0
LINE
  5
395
100
AcDbEntity
  8
0
100
AcDbLine
 62
7
  6
CONTINUOUS
 10
37.4978397122
 20
29.3652374527
 11
33.7024677589
 21
27.1739915137
  0
LINE
  5
396
100
AcDbEntity
  8
0
100
AcDbLine
 62
7
  6
CONTINUOUS
 10
39.4767455495
 20
29.5149778945
 11
37.972008162
 21
28.6462225445
  0
LINE
  5
397
100
AcDbEntity
  8
0
100
AcDbLine
 62
7
  6
CONTINUOUS
 10
41.9248371361
 20
30.8126955608
 11
42.7590121334
 21
31.2943038453
  0
LINE
  5
398
100
AcDbEntity
  8
0
100
AcDbLine
 62
7
  6
CONTINUOUS
 10
42.7240561445
 20
31.22339054
 11
41.8937703416
 21
30.7440276696
  0
LINE
  5
399
100
AcDbEntity
  8
0
100
AcDbLine
 62
7
  6
CONTINUOUS
 10
34.5778814813
 20
25.0927329343
 11
35.7092765923
 21
25.7459403071
  0
LINE
  5
39A
100
AcDbEntity
  8
0
100
AcDbLine
 62
7
  6
CONTINUOUS
 10
35.8557281316
 20
25.6613883842
 11
34.577880619
 21
24.9236271827
  0
LINE
  5
39B
100
AcDbEntity
  8
0
100
AcDbLine
 62
7
  6
CONTINUOUS
 10
44.7532626122
 20
30.7310472154
 11
45.9199839436
 21
31.4046500693
  0
LINE
  5
39C
100
AcDbEntity
  8
0
100
AcDbLine
 62
7
  6
CONTINUOUS
 10
36.3244604647
 20
25.3907717677
 11
35.9920950437
 21
25.1988816478
  0
LINE
  5
39D
100
AcDbEntity
  8
0
100
AcDbLine
 62
7
  6
CONTINUOUS
 10
41.5415416271
 20
28.3228942918
 11
37.972008162
 21
26.2620354865
  0
LINE
  5
39E
100
AcDbEntity
  8
0
100
AcDbLine
 62
7
  6
CONTINUOUS
 10
47.9422583413
 20
31.9760406011
 11
47.588700424
 21
31.7719150608
  0
LINE
  5
39F
100
AcDbEntity
  8
0
100
AcDbLine
 62
7
  6
CONTINUOUS
 10
44.0955780285
 20
28.2037468044
 11
44.0531517983
 21
28.1792521552
  0
LINE
  5
3A0
100
AcDbEntity
  8
0
100
AcDbLine
 62
7
  6
CONTINUOUS
 10
53.493066629
 20
35.4004493693
 11
45.9906949161
 21
31.1188752687
  0
LINE
  5
3A1
100
AcDbEntity
  8
0
100
AcDbLine
 62
7
  6
CONTINUOUS
 10
86.7693732083
 20
86.6773753981
 11
86.5855262106
 21
86.7835171104
  0
LINE
  5
3A2
100
AcDbEntity
  8
0
100
AcDbLine
 62
7
  6
CONTINUOUS
 10
86.5855262106
 20
89.1840396529
 11
86.5855262106
 21
86.5712319181
  0
LINE
  5
3A3
100
AcDbEntity
  8
0
100
AcDbLine
 62
7
  6
CONTINUOUS
 10
86.7693732083
 20
86.6773753981
 11
86.7693732083
 21
80.972665447
  0
LINE
  5
3A4
100
AcDbEntity
  8
0
100
AcDbLine
 62
7
  6
CONTINUOUS
 10
86.7693732083
 20
65.12987661
 11
86.7693732083
 21
58.7611577564
  0
LINE
  5
3A5
100
AcDbEntity
  8
0
100
AcDbLine
 62
7
  6
CONTINUOUS
 10
87.6886081966
 20
59.2918751565
 11
87.6886081966
 21
59.7817766067
  0
LINE
  5
3A6
100
AcDbEntity
  8
0
100
AcDbLine
 62
7
  6
CONTINUOUS
 10
88.2542712474
 20
90.1485197325
 11
88.2542712474
 21
89.5758846343
  0
LINE
  5
3A7
100
AcDbEntity
  8
0
100
AcDbLine
 62
7
  6
CONTINUOUS
 10
90.1634716269
 20
78.9126112759
 11
90.1634716269
 21
71.1088428215
  0
LINE
  5
3A8
100
AcDbEntity
  8
0
100
AcDbLine
 62
7
  6
CONTINUOUS
 10
90.6372311978
 20
59.8266548216
 11
90.6372311978
 21
35.2091069452
  0
LINE
  5
3A9
100
AcDbEntity
  8
0
100
AcDbLine
 62
7
  6
CONTINUOUS
 10
90.6584443129
 20
101.0151190421
 11
90.6584443129
 21
91.5365583386
  0
LINE
  5
3AA
100
AcDbEntity
  8
0
100
AcDbLine
 62
7
  6
CONTINUOUS
 10
87.6886081966
 20
59.7817766067
 11
87.9714497315
 21
60.2716752351
  0
LINE
  5
3AB
100
AcDbEntity
  8
0
100
AcDbLine
 62
7
  6
CONTINUOUS
 10
42.2354748707
 20
26.6300243974
 11
38.4401029174
 21
24.4387784585
  0
LINE
  5
3AC
100
AcDbEntity
  8
0
100
AcDbLine
 62
7
  6
CONTINUOUS
 10
44.2850916805
 20
26.7389407638
 11
42.780354293
 21
25.8701854138
  0
LINE
  5
3AD
100
AcDbEntity
  8
0
100
AcDbLine
 62
7
  6
CONTINUOUS
 10
46.3498877581
 20
25.5468571611
 11
42.780354293
 21
23.4859983558
  0
LINE
  5
3AE
100
AcDbEntity
  8
0
100
AcDbLine
 62
7
  6
CONTINUOUS
 10
47.6311266542
 20
26.1625430318
 11
47.588700424
 21
26.1380483826
  0
LINE
  5
3AF
100
AcDbEntity
  8
0
100
AcDbLine
 62
7
  6
CONTINUOUS
 10
47.0438210017
 20
23.8539872667
 11
43.2484490484
 21
21.6627413277
  0
LINE
  5
3B0
100
AcDbEntity
  8
0
100
AcDbLine
 62
7
  6
CONTINUOUS
 10
49.022726839
 20
24.0037277085
 11
47.5179894515
 21
23.1349723585
  0
LINE
  5
3B1
100
AcDbEntity
  8
0
100
AcDbLine
 62
7
  6
CONTINUOUS
 10
51.0875229166
 20
22.8116441058
 11
47.5179894515
 21
20.7507853005
  0
LINE
  5
3B2
100
AcDbEntity
  8
0
100
AcDbLine
 62
7
  6
CONTINUOUS
 10
88.7804348916
 20
115.3609839152
 11
90.6584443129
 21
101.0151190421
  0
LINE
  5
3B3
100
AcDbEntity
  8
0
100
AcDbLine
 62
7
  6
CONTINUOUS
 10
51.7814561601
 20
21.1187742114
 11
47.9860842068
 21
18.9275282724
  0
LINE
  5
3B4
100
AcDbEntity
  8
0
100
AcDbLine
 62
7
  6
CONTINUOUS
 10
54.023387147
 20
13.6280120351
 11
53.3869883943
 21
13.2542020325
  0
LINE
  5
3B5
100
AcDbEntity
  8
0
100
AcDbLine
 62
7
  6
CONTINUOUS
 10
90.6372311978
 20
35.2091069452
 11
79.0548703443
 21
28.5220677047
  0
LINE
  5
3B6
100
AcDbEntity
  8
0
100
AcDbLine
 62
7
  6
CONTINUOUS
 10
54.9072743034
 20
14.58052985
 11
53.8466185476
 21
13.9681636192
  0
LINE
  5
3B7
100
AcDbEntity
  8
0
100
AcDbLine
 62
7
  6
CONTINUOUS
 10
79.0548703443
 20
24.9294570694
 11
55.260826222
 21
11.1920412916
  0
LINE
  5
3B8
100
AcDbEntity
  8
0
100
AcDbLine
 62
7
  6
CONTINUOUS
 10
88.6403904213
 20
115.420703134
 11
57.1740076523
 21
133.5874167101
  0
LINE
  5
3B9
100
AcDbEntity
  8
0
100
AcDbLine
 62
7
  6
CONTINUOUS
 10
57.2740059556
 20
133.5973222871
 11
88.7403887246
 21
115.4306087109
  0
ARC
  5
3BA
100
AcDbEntity
  8
0
100
AcDbCircle
 62
7
  6
CONTINUOUS
 10
118.4568252401
 20
199.6726064072
 40
184.8945469394
100
AcDbArc
 50
245.7889800477
 51
246.0622421348
  0
ARC
  5
3BB
100
AcDbEntity
  8
0
100
AcDbCircle
 62
7
  6
CONTINUOUS
 10
117.6135417745
 20
234.4210444985
 40
183.0822028657
100
AcDbArc
 50
245.4776542733
 51
246.0991941225
  0
ARC
  5
3BC
100
AcDbEntity
  8
0
100
AcDbCircle
 62
7
  6
CONTINUOUS
 10
109.8688849098
 20
182.0070103041
 40
165.2487846975
100
AcDbArc
 50
241.6304697079
 51
242.8688946586
  0
ARC
  5
3BD
100
AcDbEntity
  8
0
100
AcDbCircle
 62
7
  6
CONTINUOUS
 10
108.2823543053
 20
215.4516732845
 40
161.9376507137
100
AcDbArc
 50
240.9102856329
 51
242.2314687914
  0
ARC
  5
3BE
100
AcDbEntity
  8
0
100
AcDbCircle
 62
7
  6
CONTINUOUS
 10
106.4691832728
 20
175.7585575068
 40
158.1353742093
100
AcDbArc
 50
240.0039965664
 51
241.6385893834
  0
ARC
  5
3BF
100
AcDbEntity
  8
0
100
AcDbCircle
 62
7
  6
CONTINUOUS
 10
106.0901054971
 20
187.526938133
 40
157.3753096976
100
AcDbArc
 50
240.0036146267
 51
240.8995097542
  0
ARC
  5
3C0
100
AcDbEntity
  8
0
100
AcDbCircle
 62
7
  6
CONTINUOUS
 10
94.0844462179
 20
174.8671197197
 40
134.7617874525
100
AcDbArc
 50
235.2304882245
 51
235.5632842097
  0
ARC
  5
3C1
100
AcDbEntity
  8
0
100
AcDbCircle
 62
7
  6
CONTINUOUS
 10
93.1031037128
 20
173.4568162641
 40
133.0436531646
100
AcDbArc
 50
234.7273793729
 51
235.2312907736
  0
ARC
  5
3C2
100
AcDbEntity
  8
0
100
AcDbCircle
 62
7
  6
CONTINUOUS
 10
92.1813320849
 20
172.1540720808
 40
131.4477818428
100
AcDbArc
 50
234.3886229603
 51
234.7274902699
  0
ARC
  5
3C3
100
AcDbEntity
  8
0
100
AcDbCircle
 62
7
  6
CONTINUOUS
 10
-22.2701955669
 20
66.2381946055
 40
51.5525500504
100
AcDbArc
 50
358.032076472
 51
359.9848790106
  0
ARC
  5
3C4
100
AcDbEntity
  8
0
100
AcDbCircle
 62
7
  6
CONTINUOUS
 10
40.7262360914
 20
62.9904697311
 40
5.0081804409
100
AcDbArc
 50
235.6732022554
 51
239.9993329695
  0
ARC
  5
3C5
100
AcDbEntity
  8
0
100
AcDbCircle
 62
7
  6
CONTINUOUS
 10
21.6560689896
 20
74.0318952122
 40
0.2663937541
100
AcDbArc
 50
179.9597713245
 51
183.993425208
  0
ARC
  5
3C6
100
AcDbEntity
  8
0
100
AcDbCircle
 62
7
  6
CONTINUOUS
 10
29.4342759662
 20
69.5412469125
 40
0.2663937541
100
AcDbArc
 50
179.9597713245
 51
183.9934252081
  0
ARC
  5
3C7
100
AcDbEntity
  8
0
100
AcDbCircle
 62
7
  6
CONTINUOUS
 10
47.1942332297
 20
83.7924194193
 40
0.1741922513
100
AcDbArc
 50
214.733958098
 51
217.7508579454
  0
SPLINE
  5
3C8
100
AcDbEntity
  8
0
100
AcDbSpline
 62
7
  6
CONTINUOUS
 70
0
 71
3
 72
16
 73
12
 74
0
 42
0.0000001
 43
0.0000001
 44
0.0000000001
 40
0.0
 40
0.0
 40
0.0
 40
0.0
 40
0.043377596
 40
0.0879369185
 40
0.1842636558
 40
0.2946229385
 40
0.4198604174
 40
0.5577228671
 40
0.703966038
 40
0.8533027275
 40
1.0
 40
1.0
 40
1.0
 40
1.0
 10
38.1372532564
 20
58.9047292065
 30
0.0
 10
38.1272082795
 20
58.9105300574
 30
0.0
 10
38.1055432863
 20
58.9201797949
 30
0.0
 10
38.0571014444
 20
58.9306977234
 30
0.0
 10
37.9886950634
 20
58.9255346125
 30
0.0
 10
37.9049945597
 20
58.8935495911
 30
0.0
 10
37.8209911523
 20
58.8383965506
 30
0.0
 10
37.7409249299
 20
58.7630833506
 30
0.0
 10
37.6689703283
 20
58.6717088839
 30
0.0
 10
37.6091056781
 20
58.5693086338
 30
0.0
 10
37.5787749675
 20
58.4958384091
 30
0.0
 10
37.5666031679
 20
58.4585461102
 30
0.0
  0
SPLINE
  5
3C9
100
AcDbEntity
  8
0
100
AcDbSpline
 62
7
  6
CONTINUOUS
 70
0
 71
3
 72
13
 73
9
 74
0
 42
0.0000001
 43
0.0000001
 44
0.0000000001
 40
0.0
 40
0.0
 40
0.0
 40
0.0
 40
0.2676218462
 40
0.5216487735
 40
0.6443931168
 40
0.7647340442
 40
0.8831099031
 40
1.0
 40
1.0
 40
1.0
 40
1.0
 10
40.6378900176
 20
50.27644935
 30
0.0
 10
40.1372276239
 20
50.1715423126
 30
0.0
 10
39.1484020366
 20
50.0226900209
 30
0.0
 10
37.9126665013
 20
50.0005916769
 30
0.0
 10
36.9657336081
 20
50.0880776571
 30
0.0
 10
36.2838317162
 20
50.2035619126
 30
0.0
 10
35.6239678054
 20
50.3694243687
 30
0.0
 10
35.1975672275
 20
50.5141275062
 30
0.0
 10
34.9891499604
 20
50.5946319446
 30
0.0
  0
SPLINE
  5
3CA
100
AcDbEntity
  8
0
100
AcDbSpline
 62
7
  6
CONTINUOUS
 70
0
 71
3
 72
11
 73
7
 74
0
 42
0.0000001
 43
0.0000001
 44
0.0000000001
 40
0.0
 40
0.0
 40
0.0
 40
0.0
 40
0.2581555279
 40
0.5094732239
 40
0.7559641028
 40
1.0
 40
1.0
 40
1.0
 40
1.0
 10
41.6254793303
 20
57.3882121776
 30
0.0
 10
41.4078075589
 20
57.3999011859
 30
0.0
 10
40.9790224023
 20
57.4455951906
 30
0.0
 10
40.3546594023
 20
57.5850132642
 30
0.0
 10
39.7624654318
 20
57.793688711
 30
0.0
 10
39.3905068888
 20
57.9787227977
 30
0.0
 10
39.212048993
 20
58.0817503389
 30
0.0
  0
SPLINE
  5
3CB
100
AcDbEntity
  8
0
100
AcDbSpline
 62
7
  6
CONTINUOUS
 70
0
 71
3
 72
11
 73
7
 74
0
 42
0.0000001
 43
0.0000001
 44
0.0000000001
 40
0.0
 40
0.0
 40
0.0
 40
0.0
 40
0.2284612103
 40
0.4811002414
 40
0.7436818163
 40
1.0
 40
1.0
 40
1.0
 40
1.0
 10
31.4234931816
 20
70.7669434574
 30
0.0
 10
31.3847310992
 20
70.745361194
 30
0.0
 10
31.3094591664
 20
70.6882947575
 30
0.0
 10
31.213786628
 20
70.5791220525
 30
0.0
 10
31.1359411956
 20
70.4502565844
 30
0.0
 10
31.0993809376
 20
70.3556203368
 30
0.0
 10
31.0862321055
 20
70.3076134075
 30
0.0
  0
SPLINE
  5
3CC
100
AcDbEntity
  8
0
100
AcDbSpline
 62
7
  6
CONTINUOUS
 70
0
 71
3
 72
11
 73
7
 74
0
 42
0.0000001
 43
0.0000001
 44
0.0000000001
 40
0.0
 40
0.0
 40
0.0
 40
0.0
 40
0.2441874762
 40
0.4929169921
 40
0.7451998652
 40
1.0
 40
1.0
 40
1.0
 40
1.0
 10
31.0862321055
 20
70.3076134075
 30
0.0
 10
30.7320923213
 20
69.0146344166
 30
0.0
 10
29.9483830323
 20
66.4230103462
 30
0.0
 10
28.5695183202
 20
62.5695234142
 30
0.0
 10
26.9837607519
 20
58.7333852251
 30
0.0
 10
25.799481401
 20
56.2126121237
 30
0.0
 10
25.1754772999
 20
54.9606374103
 30
0.0
  0
SPLINE
  5
3CD
100
AcDbEntity
  8
0
100
AcDbSpline
 62
7
  6
CONTINUOUS
 70
0
 71
3
 72
11
 73
7
 74
0
 42
0.0000001
 43
0.0000001
 44
0.0000000001
 40
0.0
 40
0.0
 40
0.0
 40
0.0
 40
0.2664834405
 40
0.5248991788
 40
0.7706321503
 40
1.0
 40
1.0
 40
1.0
 40
1.0
 10
25.1754772999
 20
54.9606374103
 30
0.0
 10
25.1505532363
 20
54.910630852
 30
0.0
 10
25.1062420511
 20
54.8096565173
 30
0.0
 10
25.0566201352
 20
54.6555720827
 30
0.0
 10
25.0259492091
 20
54.5045334397
 30
0.0
 10
25.0183620503
 20
54.4048421869
 30
0.0
 10
25.0183620503
 20
54.3567505718
 30
0.0
  0
SPLINE
  5
3CE
100
AcDbEntity
  8
0
100
AcDbSpline
 62
7
  6
CONTINUOUS
 70
0
 71
3
 72
12
 73
8
 74
0
 42
0.0000001
 43
0.0000001
 44
0.0000000001
 40
0.0
 40
0.0
 40
0.0
 40
0.0
 40
0.2895568509
 40
0.5486620065
 40
0.7816481509
 40
0.8918530374
 40
1.0
 40
1.0
 40
1.0
 40
1.0
 10
25.0183620503
 20
54.3567505718
 30
0.0
 10
25.0183620503
 20
54.3060691825
 30
0.0
 10
25.0260534341
 20
54.2096959499
 30
0.0
 10
25.0649991439
 20
54.0773492559
 30
0.0
 10
25.1210317714
 20
53.9860616177
 30
0.0
 10
25.1775582471
 20
53.9304267202
 30
0.0
 10
25.2090819275
 20
53.9084299989
 30
0.0
 10
25.2254748936
 20
53.8989653339
 30
0.0
  0
SPLINE
  5
3CF
100
AcDbEntity
  8
0
100
AcDbSpline
 62
7
  6
CONTINUOUS
 70
0
 71
3
 72
11
 73
7
 74
0
 42
0.0000001
 43
0.0000001
 44
0.0000000001
 40
0.0
 40
0.0
 40
0.0
 40
0.0
 40
0.2548001348
 40
0.5070830079
 40
0.7558125238
 40
1.0
 40
1.0
 40
1.0
 40
1.0
 10
32.9536842765
 20
50.4699891106
 30
0.0
 10
33.5776883777
 20
51.721963824
 30
0.0
 10
34.7619677285
 20
54.2427369254
 30
0.0
 10
36.3477252968
 20
58.0788751145
 30
0.0
 10
37.7265900089
 20
61.9323620464
 30
0.0
 10
38.5102992979
 20
64.5239861169
 30
0.0
 10
38.8644390822
 20
65.8169651078
 30
0.0
  0
SPLINE
  5
3D0
100
AcDbEntity
  8
0
100
AcDbSpline
 62
7
  6
CONTINUOUS
 70
0
 71
3
 72
11
 73
7
 74
0
 42
0.0000001
 43
0.0000001
 44
0.0000000001
 40
0.0
 40
0.0
 40
0.0
 40
0.0
 40
0.2563182789
 40
0.5188998803
 40
0.7715388777
 40
1.0
 40
1.0
 40
1.0
 40
1.0
 10
38.8644390822
 20
65.8169651078
 30
0.0
 10
38.8775879191
 20
65.8649720549
 30
0.0
 10
38.9141481893
 20
65.9596083239
 30
0.0
 10
38.9919936398
 20
66.0884738011
 30
0.0
 10
39.0876661746
 20
66.1976464848
 30
0.0
 10
39.1629380908
 20
66.2547129026
 30
0.0
 10
39.2017001582
 20
66.2762951576
 30
0.0
  0
SPLINE
  5
3D1
100
AcDbEntity
  8
0
100
AcDbSpline
 62
7
  6
CONTINUOUS
 70
0
 71
3
 72
12
 73
8
 74
0
 42
0.0000001
 43
0.0000001
 44
0.0000000001
 40
0.0
 40
0.0
 40
0.0
 40
0.0
 40
0.1081469835
 40
0.2183518817
 40
0.4513380551
 40
0.7104431735
 40
1.0
 40
1.0
 40
1.0
 40
1.0
 10
33.0036818706
 20
49.4083170346
 30
0.0
 10
32.9872889015
 20
49.417781702
 30
0.0
 10
32.9557652152
 20
49.439778425
 30
0.0
 10
32.8992387338
 20
49.4954133331
 30
0.0
 10
32.843206113
 20
49.5867009761
 30
0.0
 10
32.804260402
 20
49.7190476639
 30
0.0
 10
32.7965690269
 20
49.8154208868
 30
0.0
 10
32.7965690269
 20
49.866102272
 30
0.0
  0
SPLINE
  5
3D2
100
AcDbEntity
  8
0
100
AcDbSpline
 62
7
  6
CONTINUOUS
 70
0
 71
3
 72
11
 73
7
 74
0
 42
0.0000001
 43
0.0000001
 44
0.0000000001
 40
0.0
 40
0.0
 40
0.0
 40
0.0
 40
0.2293678497
 40
0.4751008212
 40
0.7335165595
 40
1.0
 40
1.0
 40
1.0
 40
1.0
 10
32.7965690269
 20
49.866102272
 30
0.0
 10
32.7965690269
 20
49.9141938872
 30
0.0
 10
32.8041561857
 20
50.01388514
 30
0.0
 10
32.8348271118
 20
50.1649237829
 30
0.0
 10
32.8844490277
 20
50.3190082175
 30
0.0
 10
32.9287602129
 20
50.4199825523
 30
0.0
 10
32.9536842765
 20
50.4699891106
 30
0.0
  0
SPLINE
  5
3D3
100
AcDbEntity
  8
0
100
AcDbSpline
 62
7
  6
CONTINUOUS
 70
0
 71
3
 72
11
 73
7
 74
0
 42
0.0000001
 43
0.0000001
 44
0.0000000001
 40
0.0
 40
0.0
 40
0.0
 40
0.0
 40
0.2372444228
 40
0.5000010918
 40
0.7627571666
 40
1.0
 40
1.0
 40
1.0
 40
1.0
 10
50.5585612696
 20
30.0573038918
 30
0.0
 10
50.5585612696
 20
30.1152644706
 30
0.0
 10
50.5368158391
 20
30.2374964828
 30
0.0
 10
50.4610463865
 20
30.4092529971
 30
0.0
 10
50.3501851528
 20
30.5607487082
 30
0.0
 10
50.2552016882
 20
30.6406958741
 30
0.0
 10
50.205006407
 20
30.6696754776
 30
0.0
  0
SPLINE
  5
3D4
100
AcDbEntity
  8
0
100
AcDbSpline
 62
7
  6
CONTINUOUS
 70
0
 71
3
 72
11
 73
7
 74
0
 42
0.0000001
 43
0.0000001
 44
0.0000000001
 40
0.0
 40
0.0
 40
0.0
 40
0.0
 40
0.2283628443
 40
0.4746545187
 40
0.7339191451
 40
1.0
 40
1.0
 40
1.0
 40
1.0
 10
28.0017610374
 20
34.4024171833
 30
0.0
 10
28.0017610374
 20
34.5698746956
 30
0.0
 10
27.9715367561
 20
34.9182413513
 30
0.0
 10
27.8512809466
 20
35.4442328336
 30
0.0
 10
27.6580448936
 20
35.9774150549
 30
0.0
 10
27.4863767996
 20
36.3233267248
 30
0.0
 10
27.3901111252
 20
36.4930416681
 30
0.0
  0
SPLINE
  5
3D5
100
AcDbEntity
  8
0
100
AcDbSpline
 62
7
  6
CONTINUOUS
 70
0
 71
3
 72
11
 73
7
 74
0
 42
0.0000001
 43
0.0000001
 44
0.0000000001
 40
0.0
 40
0.0
 40
0.0
 40
0.0
 40
0.2283628443
 40
0.4746545187
 40
0.7339191451
 40
1.0
 40
1.0
 40
1.0
 40
1.0
 10
32.7393961959
 20
31.667204128
 30
0.0
 10
32.7393961959
 20
31.8346616403
 30
0.0
 10
32.7091719146
 20
32.1830282961
 30
0.0
 10
32.5889161051
 20
32.7090197783
 30
0.0
 10
32.3956800521
 20
33.2422019996
 30
0.0
 10
32.2240119581
 20
33.5881136695
 30
0.0
 10
32.1277462837
 20
33.7578286128
 30
0.0
  0
SPLINE
  5
3D6
100
AcDbEntity
  8
0
100
AcDbSpline
 62
7
  6
CONTINUOUS
 70
0
 71
3
 72
11
 73
7
 74
0
 42
0.0000001
 43
0.0000001
 44
0.0000000001
 40
0.0
 40
0.0
 40
0.0
 40
0.0
 40
0.2283628443
 40
0.4746545187
 40
0.7339191451
 40
1.0
 40
1.0
 40
1.0
 40
1.0
 10
37.5477423269
 20
28.8911669972
 30
0.0
 10
37.5477423269
 20
29.0586245096
 30
0.0
 10
37.5175180456
 20
29.4069911653
 30
0.0
 10
37.3972622361
 20
29.9329826475
 30
0.0
 10
37.2040261831
 20
30.4661648689
 30
0.0
 10
37.0323580891
 20
30.8120765388
 30
0.0
 10
36.9360924147
 20
30.9817914821
 30
0.0
  0
SPLINE
  5
3D7
100
AcDbEntity
  8
0
100
AcDbSpline
 62
7
  6
CONTINUOUS
 70
0
 71
3
 72
11
 73
7
 74
0
 42
0.0000001
 43
0.0000001
 44
0.0000000001
 40
0.0
 40
0.0
 40
0.0
 40
0.0
 40
0.2283628443
 40
0.4746545187
 40
0.7339191451
 40
1.0
 40
1.0
 40
1.0
 40
1.0
 10
42.2853774854
 20
26.1559539419
 30
0.0
 10
42.2853774854
 20
26.3234114543
 30
0.0
 10
42.2551532041
 20
26.67177811
 30
0.0
 10
42.1348973946
 20
27.1977695923
 30
0.0
 10
41.9416613416
 20
27.7309518136
 30
0.0
 10
41.7699932476
 20
28.0768634835
 30
0.0
 10
41.6737275731
 20
28.2465784268
 30
0.0
  0
SPLINE
  5
3D8
100
AcDbEntity
  8
0
100
AcDbSpline
 62
7
  6
CONTINUOUS
 70
0
 71
3
 72
11
 73
7
 74
0
 42
0.0000001
 43
0.0000001
 44
0.0000000001
 40
0.0
 40
0.0
 40
0.0
 40
0.0
 40
0.2283628443
 40
0.4746545187
 40
0.7339191451
 40
1.0
 40
1.0
 40
1.0
 40
1.0
 10
47.0937236164
 20
23.3799168112
 30
0.0
 10
47.0937236164
 20
23.5473743236
 30
0.0
 10
47.0634993351
 20
23.8957409793
 30
0.0
 10
46.9432435256
 20
24.4217324615
 30
0.0
 10
46.7500074726
 20
24.9549146829
 30
0.0
 10
46.5783393786
 20
25.3008263528
 30
0.0
 10
46.4820737041
 20
25.470541296
 30
0.0
  0
SPLINE
  5
3D9
100
AcDbEntity
  8
0
100
AcDbSpline
 62
7
  6
CONTINUOUS
 70
0
 71
3
 72
11
 73
7
 74
0
 42
0.0000001
 43
0.0000001
 44
0.0000000001
 40
0.0
 40
0.0
 40
0.0
 40
0.0
 40
0.2283628443
 40
0.4746545187
 40
0.7339191451
 40
1.0
 40
1.0
 40
1.0
 40
1.0
 10
51.8313587749
 20
20.6447037559
 30
0.0
 10
51.8313587749
 20
20.8121612683
 30
0.0
 10
51.8011344936
 20
21.160527924
 30
0.0
 10
51.6808786841
 20
21.6865194062
 30
0.0
 10
51.4876426311
 20
22.2197016276
 30
0.0
 10
51.3159745371
 20
22.5656132975
 30
0.0
 10
51.2197088626
 20
22.7353282407
 30
0.0
  0
SPLINE
  5
3DA
100
AcDbEntity
  8
0
100
AcDbSpline
 62
7
  6
CONTINUOUS
 70
0
 71
3
 72
9
 73
5
 74
0
 42
0.0000001
 43
0.0000001
 44
0.0000000001
 40
0.0
 40
0.0
 40
0.0
 40
0.0
 40
0.4499616491
 40
1.0
 40
1.0
 40
1.0
 40
1.0
 10
50.5171481099
 20
82.1157401023
 30
0.0
 10
50.5306576038
 20
82.1235397565
 30
0.0
 10
50.5538010325
 20
82.1528226638
 30
0.0
 10
50.5585612696
 20
82.1882443956
 30
0.0
 10
50.5585612696
 20
82.2073132739
 30
0.0
  0
SPLINE
  5
3DB
100
AcDbEntity
  8
0
100
AcDbSpline
 62
7
  6
CONTINUOUS
 70
0
 71
3
 72
9
 73
5
 74
0
 42
0.0000001
 43
0.0000001
 44
0.0000000001
 40
0.0
 40
0.0
 40
0.0
 40
0.0
 40
0.4499616491
 40
1.0
 40
1.0
 40
1.0
 40
1.0
 10
40.9711668204
 20
87.6269902883
 30
0.0
 10
40.9846763144
 20
87.6347899426
 30
0.0
 10
41.007819743
 20
87.6640728498
 30
0.0
 10
41.0125799801
 20
87.6994945817
 30
0.0
 10
41.0125799801
 20
87.7185634599
 30
0.0
  0
SPLINE
  5
3DC
100
AcDbEntity
  8
0
100
AcDbSpline
 62
7
  6
CONTINUOUS
 70
0
 71
3
 72
9
 73
5
 74
0
 42
0.0000001
 43
0.0000001
 44
0.0000000001
 40
0.0
 40
0.0
 40
0.0
 40
0.0
 40
0.4499616491
 40
1.0
 40
1.0
 40
1.0
 40
1.0
 10
31.4251855309
 20
93.1382404743
 30
0.0
 10
31.4386950249
 20
93.1460401286
 30
0.0
 10
31.4618384536
 20
93.1753230358
 30
0.0
 10
31.4665986906
 20
93.2107447677
 30
0.0
 10
31.4665986906
 20
93.2298136459
 30
0.0
  0
SPLINE
  5
3DD
100
AcDbEntity
  8
0
100
AcDbSpline
 62
7
  6
CONTINUOUS
 70
0
 71
3
 72
9
 73
5
 74
0
 42
0.0000001
 43
0.0000001
 44
0.0000000001
 40
0.0
 40
0.0
 40
0.0
 40
0.0
 40
0.7318327153
 40
1.0
 40
1.0
 40
1.0
 40
1.0
 10
47.0779464045
 20
83.6655532188
 30
0.0
 10
47.0752417009
 20
83.6671139355
 30
0.0
 10
47.0717645606
 20
83.6696390087
 30
0.0
 10
47.0685765661
 20
83.6724739205
 30
0.0
 10
47.067739137
 20
83.6732536903
 30
0.0
  0
SPLINE
  5
3DE
100
AcDbEntity
  8
0
100
AcDbSpline
 62
7
  6
CONTINUOUS
 70
0
 71
3
 72
9
 73
5
 74
0
 42
0.0000001
 43
0.0000001
 44
0.0000000001
 40
0.0
 40
0.0
 40
0.0
 40
0.0
 40
0.2301489231
 40
1.0
 40
1.0
 40
1.0
 40
1.0
 10
47.067739137
 20
83.6732536903
 30
0.0
 10
47.0667940172
 20
83.6741337358
 30
0.0
 10
47.0627870301
 20
83.6780645908
 30
0.0
 10
47.059152239
 20
83.6823619507
 30
0.0
 10
47.0565028296
 20
83.6857738507
 30
0.0
  0
SPLINE
  5
3DF
100
AcDbEntity
  8
0
100
AcDbSpline
 62
7
  6
CONTINUOUS
 70
0
 71
3
 72
9
 73
5
 74
0
 42
0.0000001
 43
0.0000001
 44
0.0000000001
 40
0.0
 40
0.0
 40
0.0
 40
0.0
 40
0.4622425142
 40
1.0
 40
1.0
 40
1.0
 40
1.0
 10
88.7403957388
 20
115.4306202089
 30
0.0
 10
88.7514028166
 20
115.4242637921
 30
0.0
 10
88.7709981322
 20
115.402874593
 30
0.0
 10
88.7785154961
 20
115.3756459228
 30
0.0
 10
88.7804348916
 20
115.3609839152
 30
0.0
  0
SPLINE
  5
3E0
100
AcDbEntity
  8
0
100
AcDbSpline
 62
7
  6
CONTINUOUS
 70
0
 71
3
 72
9
 73
5
 74
0
 42
0.0000001
 43
0.0000001
 44
0.0000000001
 40
0.0
 40
0.0
 40
0.0
 40
0.0
 40
0.4495770285
 40
1.0
 40
1.0
 40
1.0
 40
1.0
 10
57.2740129672
 20
133.5973337832
 30
0.0
 10
57.260514146
 20
133.6051291398
 30
0.0
 10
57.2235895239
 20
133.6106125026
 30
0.0
 10
57.1905354172
 20
133.5969589627
 30
0.0
 10
57.1740076523
 20
133.5874167101
 30
0.0
  0
SPLINE
  5
3E1
100
AcDbEntity
  8
0
100
AcDbSpline
 62
7
  6
CONTINUOUS
 70
0
 71
3
 72
9
 73
5
 74
0
 42
0.0000001
 43
0.0000001
 44
0.0000000001
 40
0.0
 40
0.0
 40
0.0
 40
0.0
 40
0.2412502447
 40
1.0
 40
1.0
 40
1.0
 40
1.0
 10
25.030534019
 20
96.3943446341
 30
0.0
 10
25.034727837
 20
96.3919238917
 30
0.0
 10
25.052519464
 20
96.3826038361
 30
0.0
 10
25.0716709174
 20
96.3759651731
 30
0.0
 10
25.0864638463
 20
96.3723449696
 30
0.0
  0
SPLINE
  5
3E2
100
AcDbEntity
  8
0
100
AcDbSpline
 62
7
  6
CONTINUOUS
 70
0
 71
3
 72
11
 73
7
 74
0
 42
0.0000001
 43
0.0000001
 44
0.0000000001
 40
0.0
 40
0.0
 40
0.0
 40
0.0
 40
0.2372423294
 40
0.4999983821
 40
0.7627553152
 40
1.0
 40
1.0
 40
1.0
 40
1.0
 10
22.3802357785
 20
113.4993430623
 30
0.0
 10
22.3300408415
 20
113.4703631749
 30
0.0
 10
22.2350581207
 20
113.3904154541
 30
0.0
 10
22.1241978815
 20
113.2389192593
 30
0.0
 10
22.0484291114
 20
113.0671624536
 30
0.0
 10
22.0266838599
 20
112.9449303866
 30
0.0
 10
22.0266838599
 20
112.8869697768
 30
0.0
  0
SPLINE
  5
3E3
100
AcDbEntity
  8
0
100
AcDbSpline
 62
7
  6
CONTINUOUS
 70
0
 71
3
 72
10
 73
6
 74
0
 42
0.0000001
 43
0.0000001
 44
0.0000000001
 40
0.0
 40
0.0
 40
0.0
 40
0.0
 40
0.5476348446
 40
0.7814410544
 40
1.0
 40
1.0
 40
1.0
 40
1.0
 10
22.0266838599
 20
98.2300448228
 30
0.0
 10
22.0266838599
 20
98.2013979505
 30
0.0
 10
22.0327814366
 20
98.1592137815
 30
0.0
 10
22.0603759435
 20
98.1139894768
 30
0.0
 10
22.0789229918
 20
98.0984368929
 30
0.0
 10
22.0888296934
 20
98.0927301025
 30
0.0
  0
SPLINE
  5
3E4
100
AcDbEntity
  8
0
100
AcDbSpline
 62
7
  6
CONTINUOUS
 70
0
 71
3
 72
9
 73
5
 74
0
 42
0.0000001
 43
0.0000001
 44
0.0000000001
 40
0.0
 40
0.0
 40
0.0
 40
0.0
 40
0.2412502446
 40
1.0
 40
1.0
 40
1.0
 40
1.0
 10
34.5765153085
 20
90.8830944481
 30
0.0
 10
34.5807091265
 20
90.8806737056
 30
0.0
 10
34.5985007535
 20
90.87135365
 30
0.0
 10
34.6176522069
 20
90.8647149871
 30
0.0
 10
34.6324451358
 20
90.8610947836
 30
0.0
  0
SPLINE
  5
3E5
100
AcDbEntity
  8
0
100
AcDbSpline
 62
7
  6
CONTINUOUS
 70
0
 71
3
 72
9
 73
5
 74
0
 42
0.0000001
 43
0.0000001
 44
0.0000000001
 40
0.0
 40
0.0
 40
0.0
 40
0.0
 40
0.7320349016
 40
1.0
 40
1.0
 40
1.0
 40
1.0
 10
27.9859649251
 20
94.6880644394
 30
0.0
 10
27.9832705443
 20
94.689619371
 30
0.0
 10
27.979806558
 20
94.6921325322
 30
0.0
 10
27.9766300638
 20
94.6949543203
 30
0.0
 10
27.9757962754
 20
94.6957299146
 30
0.0
  0
SPLINE
  5
3E6
100
AcDbEntity
  8
0
100
AcDbSpline
 62
7
  6
CONTINUOUS
 70
0
 71
3
 72
9
 73
5
 74
0
 42
0.0000001
 43
0.0000001
 44
0.0000000001
 40
0.0
 40
0.0
 40
0.0
 40
0.0
 40
0.2301112124
 40
1.0
 40
1.0
 40
1.0
 40
1.0
 10
27.9757962754
 20
94.6957299146
 30
0.0
 10
27.9748494029
 20
94.6966107003
 30
0.0
 10
27.9708348692
 20
94.7005463206
 30
0.0
 10
27.9671953745
 20
94.7048512998
 30
0.0
 10
27.9645424618
 20
94.7082692148
 30
0.0
  0
LINE
  5
3E7
100
AcDbEntity
  8
0
100
AcDbLine
 62
7
  6
CONTINUOUS
 10
27.9645424618
 20
94.7082692148
 11
27.9591183271
 21
94.7156708485
  0
SPLINE
  5
3E8
100
AcDbEntity
  8
0
100
AcDbSpline
 62
7
  6
CONTINUOUS
 70
0
 71
3
 72
9
 73
5
 74
0
 42
0.0000001
 43
0.0000001
 44
0.0000000001
 40
0.0
 40
0.0
 40
0.0
 40
0.0
 40
0.2412502446
 40
1.0
 40
1.0
 40
1.0
 40
1.0
 10
44.122496598
 20
85.3718442621
 30
0.0
 10
44.1266904159
 20
85.3694235196
 30
0.0
 10
44.1444820429
 20
85.360103464
 30
0.0
 10
44.1636334964
 20
85.3534648011
 30
0.0
 10
44.1784264253
 20
85.3498445976
 30
0.0
  0
SPLINE
  5
3E9
100
AcDbEntity
  8
0
100
AcDbSpline
 62
7
  6
CONTINUOUS
 70
0
 71
3
 72
9
 73
5
 74
0
 42
0.0000001
 43
0.0000001
 44
0.0000000001
 40
0.0
 40
0.0
 40
0.0
 40
0.0
 40
0.7320349016
 40
1.0
 40
1.0
 40
1.0
 40
1.0
 10
37.5319462146
 20
89.1768142534
 30
0.0
 10
37.5292518338
 20
89.178369185
 30
0.0
 10
37.5257878475
 20
89.1808823462
 30
0.0
 10
37.5226113532
 20
89.1837041343
 30
0.0
 10
37.5217775649
 20
89.1844797285
 30
0.0
  0
SPLINE
  5
3EA
100
AcDbEntity
  8
0
100
AcDbSpline
 62
7
  6
CONTINUOUS
 70
0
 71
3
 72
9
 73
5
 74
0
 42
0.0000001
 43
0.0000001
 44
0.0000000001
 40
0.0
 40
0.0
 40
0.0
 40
0.0
 40
0.2301112124
 40
1.0
 40
1.0
 40
1.0
 40
1.0
 10
37.5217775649
 20
89.1844797285
 30
0.0
 10
37.5208306924
 20
89.1853605143
 30
0.0
 10
37.5168161587
 20
89.1892961346
 30
0.0
 10
37.513176664
 20
89.1936011137
 30
0.0
 10
37.5105237513
 20
89.1970190287
 30
0.0
  0
LINE
  5
3EB
100
AcDbEntity
  8
0
100
AcDbLine
 62
7
  6
CONTINUOUS
 10
37.5105237513
 20
89.1970190287
 11
37.5050996166
 21
89.2044206625
  0
SPLINE
  5
3EC
100
AcDbEntity
  8
0
100
AcDbSpline
 62
7
  6
CONTINUOUS
 70
0
 71
3
 72
9
 73
5
 74
0
 42
0.0000001
 43
0.0000001
 44
0.0000000001
 40
0.0
 40
0.0
 40
0.0
 40
0.0
 40
0.4499631795
 40
1.0
 40
1.0
 40
1.0
 40
1.0
 10
41.8937772605
 20
30.7440156788
 30
0.0
 10
41.8836453801
 20
30.738166063
 30
0.0
 10
41.855947608
 20
30.7341150737
 30
0.0
 10
41.8311559843
 20
30.7443058129
 30
0.0
 10
41.8187706773
 20
30.7514563114
 30
0.0
  0
SPLINE
  5
3ED
100
AcDbEntity
  8
0
100
AcDbSpline
 62
7
  6
CONTINUOUS
 70
0
 71
3
 72
11
 73
7
 74
0
 42
0.0000001
 43
0.0000001
 44
0.0000000001
 40
0.0
 40
0.0
 40
0.0
 40
0.0
 40
0.2894518349
 40
0.5489688158
 40
0.7820614701
 40
1.0
 40
1.0
 40
1.0
 40
1.0
 10
86.7693732083
 20
80.972665447
 30
0.0
 10
86.7693732083
 20
80.922042139
 30
0.0
 10
86.7771223523
 20
80.8257139975
 30
0.0
 10
86.8160202815
 20
80.6933280055
 30
0.0
 10
86.8817010615
 20
80.585803858
 30
0.0
 10
86.9435130057
 20
80.5340019007
 30
0.0
 10
86.9765221079
 20
80.5149431825
 30
0.0
  0
SPLINE
  5
3EE
100
AcDbEntity
  8
0
100
AcDbSpline
 62
7
  6
CONTINUOUS
 70
0
 71
3
 72
11
 73
7
 74
0
 42
0.0000001
 43
0.0000001
 44
0.0000000001
 40
0.0
 40
0.0
 40
0.0
 40
0.0
 40
0.2277108509
 40
0.4759499745
 40
0.7366034294
 40
1.0
 40
1.0
 40
1.0
 40
1.0
 10
90.1634716269
 20
71.1088428215
 30
0.0
 10
90.1634716269
 20
70.9709987209
 30
0.0
 10
90.13231358
 20
70.6825726866
 30
0.0
 10
90.0116358382
 20
70.2516648669
 30
0.0
 10
89.8213855096
 20
69.8229920869
 30
0.0
 10
89.6537182051
 20
69.5522941859
 30
0.0
 10
89.5604201506
 20
69.4229937193
 30
0.0
  0
SPLINE
  5
3EF
100
AcDbEntity
  8
0
100
AcDbSpline
 62
7
  6
CONTINUOUS
 70
0
 71
3
 72
10
 73
6
 74
0
 42
0.0000001
 43
0.0000001
 44
0.0000000001
 40
0.0
 40
0.0
 40
0.0
 40
0.0
 40
0.5234513602
 40
0.7720801968
 40
1.0
 40
1.0
 40
1.0
 40
1.0
 10
87.0708989464
 20
65.9728011611
 30
0.0
 10
86.9783110409
 20
65.8444848801
 30
0.0
 10
86.8666477156
 20
65.6348477968
 30
0.0
 10
86.785019886
 20
65.3430246899
 30
0.0
 10
86.7693732083
 20
65.1987738739
 30
0.0
 10
86.7693732083
 20
65.12987661
 30
0.0
  0
SPLINE
  5
3F0
100
AcDbEntity
  8
0
100
AcDbSpline
 62
7
  6
CONTINUOUS
 70
0
 71
3
 72
11
 73
7
 74
0
 42
0.0000001
 43
0.0000001
 44
0.0000000001
 40
0.0
 40
0.0
 40
0.0
 40
0.0
 40
0.2177434119
 40
0.4508805377
 40
0.710457812
 40
1.0
 40
1.0
 40
1.0
 40
1.0
 10
14.5997752795
 20
63.3131945139
 30
0.0
 10
14.599775299
 20
63.2503609079
 30
0.0
 10
14.6228492245
 20
63.1193587175
 30
0.0
 10
14.7222254389
 20
62.9368018868
 30
0.0
 10
14.8792952293
 20
62.771906659
 30
0.0
 10
15.0106027351
 20
62.6813671393
 30
0.0
 10
15.0829616257
 20
62.6395916593
 30
0.0
  0
SPLINE
  5
3F1
100
AcDbEntity
  8
0
100
AcDbSpline
 62
7
  6
CONTINUOUS
 70
0
 71
3
 72
11
 73
7
 74
0
 42
0.0000001
 43
0.0000001
 44
0.0000000001
 40
0.0
 40
0.0
 40
0.0
 40
0.0
 40
0.2177438688
 40
0.4508811915
 40
0.7104582954
 40
1.0
 40
1.0
 40
1.0
 40
1.0
 10
14.5997752795
 20
64.2929974132
 30
0.0
 10
14.5997752935
 20
64.3558303416
 30
0.0
 10
14.6228486929
 20
64.4868310211
 30
0.0
 10
14.7222227571
 20
64.6693860854
 30
0.0
 10
14.8792893631
 20
64.8342800906
 30
0.0
 10
15.0105943741
 20
64.9248192649
 30
0.0
 10
15.0829519107
 20
64.9665946587
 30
0.0
  0
SPLINE
  5
3F2
100
AcDbEntity
  8
0
100
AcDbSpline
 62
7
  6
CONTINUOUS
 70
0
 71
3
 72
15
 73
11
 74
0
 42
0.0000001
 43
0.0000001
 44
0.0000000001
 40
0.0
 40
0.0
 40
0.0
 40
0.0
 40
0.0869241835
 40
0.1863937465
 40
0.3037874828
 40
0.4375979431
 40
0.5820957183
 40
0.7293802427
 40
0.871202141
 40
1.0
 40
1.0
 40
1.0
 40
1.0
 10
15.6340652336
 20
64.288915334
 30
0.0
 10
15.6340958056
 20
64.2456617001
 30
0.0
 10
15.6601325368
 20
64.1520561003
 30
0.0
 10
15.7621872499
 20
64.0360286799
 30
0.0
 10
15.9127844454
 20
63.9442758162
 30
0.0
 10
16.1008002522
 20
63.8814527094
 30
0.0
 10
16.3115468724
 20
63.8518783877
 30
0.0
 10
16.5282684956
 20
63.857808755
 30
0.0
 10
16.7331284426
 20
63.8988504137
 30
0.0
 10
16.858861859
 20
63.9506898557
 30
0.0
 10
16.9143655689
 20
63.9827347463
 30
0.0
  0
SPLINE
  5
3F3
100
AcDbEntity
  8
0
100
AcDbSpline
 62
7
  6
CONTINUOUS
 70
0
 71
3
 72
9
 73
5
 74
0
 42
0.0000001
 43
0.0000001
 44
0.0000000001
 40
0.0
 40
0.0
 40
0.0
 40
0.0
 40
0.7468094183
 40
1.0
 40
1.0
 40
1.0
 40
1.0
 10
13.0258182259
 20
83.1409401978
 30
0.0
 10
13.0256606754
 20
83.1651366304
 30
0.0
 10
13.0289393634
 20
83.197698169
 30
0.0
 10
13.0365872703
 20
83.2291915717
 30
0.0
 10
13.0387902116
 20
83.2370937354
 30
0.0
  0
SPLINE
  5
3F4
100
AcDbEntity
  8
0
100
AcDbSpline
 62
7
  6
CONTINUOUS
 70
0
 71
3
 72
9
 73
5
 74
0
 42
0.0000001
 43
0.0000001
 44
0.0000000001
 40
0.0
 40
0.0
 40
0.0
 40
0.0
 40
0.7459811436
 40
1.0
 40
1.0
 40
1.0
 40
1.0
 10
13.0387902116
 20
83.2370937354
 30
0.0
 10
13.0431018191
 20
83.252559888
 30
0.0
 10
13.0502709105
 20
83.27294011
 30
0.0
 10
13.0590794032
 20
83.2925801606
 30
0.0
 10
13.0614187437
 20
83.2975217014
 30
0.0
  0
SPLINE
  5
3F5
100
AcDbEntity
  8
0
100
AcDbSpline
 62
7
  6
CONTINUOUS
 70
0
 71
3
 72
11
 73
7
 74
0
 42
0.0000001
 43
0.0000001
 44
0.0000000001
 40
0.0
 40
0.0
 40
0.0
 40
0.0
 40
0.2655006073
 40
0.5211637246
 40
0.7650801996
 40
1.0
 40
1.0
 40
1.0
 40
1.0
 10
41.1489701447
 20
21.1298723412
 30
0.0
 10
41.1205360642
 20
21.1462799973
 30
0.0
 10
41.066987318
 20
21.1827188777
 30
0.0
 10
40.9996173824
 20
21.2502266025
 30
0.0
 10
40.9534978675
 20
21.3299162434
 30
0.0
 10
40.9418690076
 20
21.3895189164
 30
0.0
 10
40.9418690076
 20
21.4185661436
 30
0.0
  0
SPLINE
  5
3F6
100
AcDbEntity
  8
0
100
AcDbSpline
 62
7
  6
CONTINUOUS
 70
0
 71
3
 72
11
 73
7
 74
0
 42
0.0000001
 43
0.0000001
 44
0.0000000001
 40
0.0
 40
0.0
 40
0.0
 40
0.0
 40
0.2655006073
 40
0.5211637246
 40
0.7650801996
 40
1.0
 40
1.0
 40
1.0
 40
1.0
 10
53.5940895315
 20
11.985194243
 30
0.0
 10
53.5656554509
 20
12.0016018991
 30
0.0
 10
53.5121067047
 20
12.0380407795
 30
0.0
 10
53.4447367691
 20
12.1055485044
 30
0.0
 10
53.3986172542
 20
12.1852381452
 30
0.0
 10
53.3869883943
 20
12.2448408183
 30
0.0
 10
53.3869883943
 20
12.2738880454
 30
0.0
  0
SPLINE
  5
3F7
100
AcDbEntity
  8
0
100
AcDbSpline
 62
7
  6
CONTINUOUS
 70
0
 71
3
 72
11
 73
7
 74
0
 42
0.0000001
 43
0.0000001
 44
0.0000000001
 40
0.0
 40
0.0
 40
0.0
 40
0.0
 40
0.2178456863
 40
0.4509551812
 40
0.710271094
 40
1.0
 40
1.0
 40
1.0
 40
1.0
 10
89.7492322856
 20
79.828158064
 30
0.0
 10
89.8152371989
 20
79.7900793345
 30
0.0
 10
89.9387024763
 20
79.686303321
 30
0.0
 10
90.0700439521
 20
79.4714162812
 30
0.0
 10
90.1481427075
 20
79.2066694512
 30
0.0
 10
90.1634716269
 20
79.0139569571
 30
0.0
 10
90.1634716269
 20
78.9126112759
 30
0.0
  0
SPLINE
  5
3F8
100
AcDbEntity
  8
0
100
AcDbSpline
 62
7
  6
CONTINUOUS
 70
0
 71
3
 72
9
 73
5
 74
0
 42
0.0000001
 43
0.0000001
 44
0.0000000001
 40
0.0
 40
0.0
 40
0.0
 40
0.0
 40
0.2475770607
 40
1.0
 40
1.0
 40
1.0
 40
1.0
 10
21.6923576825
 20
42.2765758864
 30
0.0
 10
22.1576803381
 20
41.979311277
 30
0.0
 10
24.044113177
 20
40.7894854789
 30
0.0
 10
25.9577421813
 20
39.64283942
 30
0.0
 10
27.4110490149
 20
38.8037913102
 30
0.0
  0
SPLINE
  5
3F9
100
AcDbEntity
  8
0
100
AcDbSpline
 62
7
  6
CONTINUOUS
 70
0
 71
3
 72
11
 73
7
 74
0
 42
0.0000001
 43
0.0000001
 44
0.0000000001
 40
0.0
 40
0.0
 40
0.0
 40
0.0
 40
0.2448542128
 40
0.5076039108
 40
0.7662746638
 40
1.0
 40
1.0
 40
1.0
 40
1.0
 10
43.4369738016
 20
30.6814368803
 30
0.0
 10
43.5382237478
 20
30.6365332079
 30
0.0
 10
43.7617453619
 20
30.5733537155
 30
0.0
 10
44.1098798776
 20
30.5512451707
 30
0.0
 10
44.450456529
 20
30.5982043145
 30
0.0
 10
44.6617007844
 20
30.678184285
 30
0.0
 10
44.7532626122
 20
30.7310472154
 30
0.0
  0
SPLINE
  5
3FA
100
AcDbEntity
  8
0
100
AcDbSpline
 62
7
  6
CONTINUOUS
 70
0
 71
3
 72
13
 73
9
 74
0
 42
0.0000001
 43
0.0000001
 44
0.0000000001
 40
0.0
 40
0.0
 40
0.0
 40
0.0
 40
0.1141762243
 40
0.2375705078
 40
0.5000006893
 40
0.7624304955
 40
0.8858242827
 40
1.0
 40
1.0
 40
1.0
 40
1.0
 10
15.2243835708
 20
62.5579435084
 30
0.0
 10
15.3041984231
 20
62.5118634244
 30
0.0
 10
15.4789219461
 20
62.4306029248
 30
0.0
 10
15.8659681566
 20
62.3128483592
 30
0.0
 10
16.3911119316
 20
62.2559514903
 30
0.0
 10
16.9162550273
 20
62.3128509485
 30
0.0
 10
17.3032995471
 20
62.4306072923
 30
0.0
 10
17.4780217831
 20
62.5118686624
 30
0.0
 10
17.5578359487
 20
62.5579491174
 30
0.0
  0
SPLINE
  5
3FB
100
AcDbEntity
  8
0
100
AcDbSpline
 62
7
  6
CONTINUOUS
 70
0
 71
3
 72
9
 73
5
 74
0
 42
0.0000001
 43
0.0000001
 44
0.0000000001
 40
0.0
 40
0.0
 40
0.0
 40
0.0
 40
0.5199966399
 40
1.0
 40
1.0
 40
1.0
 40
1.0
 10
21.5158971517
 20
74.3289205242
 30
0.0
 10
21.4774929236
 20
74.287105833
 30
0.0
 10
21.4179099928
 20
74.193343123
 30
0.0
 10
21.3896753012
 20
74.084490265
 30
0.0
 10
21.3896753012
 20
74.0320822533
 30
0.0
  0
SPLINE
  5
3FC
100
AcDbEntity
  8
0
100
AcDbSpline
 62
7
  6
CONTINUOUS
 70
0
 71
3
 72
9
 73
5
 74
0
 42
0.0000001
 43
0.0000001
 44
0.0000000001
 40
0.0
 40
0.0
 40
0.0
 40
0.0
 40
0.2462126807
 40
1.0
 40
1.0
 40
1.0
 40
1.0
 10
21.3903220267
 20
74.0133430181
 30
0.0
 10
21.4093816715
 20
73.7431430223
 30
0.0
 10
21.4766774077
 20
72.6450201148
 30
0.0
 10
21.5041457116
 20
71.5445182842
 30
0.0
 10
21.5041457116
 20
70.7152376177
 30
0.0
  0
SPLINE
  5
3FD
100
AcDbEntity
  8
0
100
AcDbSpline
 62
7
  6
CONTINUOUS
 70
0
 71
3
 72
9
 73
5
 74
0
 42
0.0000001
 43
0.0000001
 44
0.0000000001
 40
0.0
 40
0.0
 40
0.0
 40
0.0
 40
0.4867729892
 40
1.0
 40
1.0
 40
1.0
 40
1.0
 10
21.5041457116
 20
70.7152376177
 30
0.0
 10
21.5041457116
 20
68.9044013951
 30
0.0
 10
21.3019725938
 20
65.1826477206
 30
0.0
 10
20.7514718003
 20
61.498090065
 30
0.0
 10
20.3908731898
 20
59.6232049329
 30
0.0
  0
SPLINE
  5
3FE
100
AcDbEntity
  8
0
100
AcDbSpline
 62
7
  6
CONTINUOUS
 70
0
 71
3
 72
9
 73
5
 74
0
 42
0.0000001
 43
0.0000001
 44
0.0000000001
 40
0.0
 40
0.0
 40
0.0
 40
0.0
 40
0.2598561321
 40
1.0
 40
1.0
 40
1.0
 40
1.0
 10
20.3908731898
 20
59.6232049329
 30
0.0
 10
20.3874163233
 20
59.6052314094
 30
0.0
 10
20.3755851039
 20
59.5357995018
 30
0.0
 10
20.3697884829
 20
59.4652605028
 30
0.0
 10
20.3697884829
 20
59.4131285563
 30
0.0
  0
SPLINE
  5
3FF
100
AcDbEntity
  8
0
100
AcDbSpline
 62
7
  6
CONTINUOUS
 70
0
 71
3
 72
11
 73
7
 74
0
 42
0.0000001
 43
0.0000001
 44
0.0000000001
 40
0.0
 40
0.0
 40
0.0
 40
0.0
 40
0.2895411595
 40
0.5491183966
 40
0.7822559144
 40
1.0
 40
1.0
 40
1.0
 40
1.0
 10
20.3697884829
 20
59.4131285563
 30
0.0
 10
20.3697884829
 20
59.3624897044
 30
0.0
 10
20.3775205244
 20
59.2661328521
 30
0.0
 10
20.4164736325
 20
59.1337216888
 30
0.0
 10
20.4821801971
 20
59.0262405519
 30
0.0
 10
20.5439485987
 20
58.9744315452
 30
0.0
 10
20.5769287794
 20
58.9553908656
 30
0.0
  0
SPLINE
  5
400
100
AcDbEntity
  8
0
100
AcDbSpline
 62
7
  6
CONTINUOUS
 70
0
 71
3
 72
9
 73
5
 74
0
 42
0.0000001
 43
0.0000001
 44
0.0000000001
 40
0.0
 40
0.0
 40
0.0
 40
0.0
 40
0.2796113279
 40
1.0
 40
1.0
 40
1.0
 40
1.0
 10
47.0230126439
 20
83.7987341506
 30
0.0
 10
47.0230126439
 20
83.7884728808
 30
0.0
 10
47.0249435803
 20
83.7519430492
 30
0.0
 10
47.0359881276
 20
83.7148759222
 30
0.0
 10
47.0510809061
 20
83.6931704765
 30
0.0
  0
SPLINE
  5
401
100
AcDbEntity
  8
0
100
AcDbSpline
 62
7
  6
CONTINUOUS
 70
0
 71
3
 72
11
 73
7
 74
0
 42
0.0000001
 43
0.0000001
 44
0.0000000001
 40
0.0
 40
0.0
 40
0.0
 40
0.0
 40
0.2176987279
 40
0.451279038
 40
0.7107373516
 40
1.0
 40
1.0
 40
1.0
 40
1.0
 10
50.6893765688
 20
88.745458313
 30
0.0
 10
50.7871619191
 20
88.8049421798
 30
0.0
 10
50.969449373
 20
88.9646250163
 30
0.0
 10
51.1632429492
 20
89.2897761164
 30
0.0
 10
51.2782713284
 20
89.6883215401
 30
0.0
 10
51.301026481
 20
89.9777445176
 30
0.0
 10
51.301026481
 20
90.1298262926
 30
0.0
  0
SPLINE
  5
402
100
AcDbEntity
  8
0
100
AcDbSpline
 62
7
  6
CONTINUOUS
 70
0
 71
3
 72
11
 73
7
 74
0
 42
0.0000001
 43
0.0000001
 44
0.0000000001
 40
0.0
 40
0.0
 40
0.0
 40
0.0
 40
0.2176987279
 40
0.451279038
 40
0.7107373516
 40
1.0
 40
1.0
 40
1.0
 40
1.0
 10
27.3901111252
 20
102.1969911745
 30
0.0
 10
27.4878964755
 20
102.2564750413
 30
0.0
 10
27.6701839294
 20
102.4161578777
 30
0.0
 10
27.8639775056
 20
102.7413089779
 30
0.0
 10
27.9790058848
 20
103.1398544016
 30
0.0
 10
28.0017610374
 20
103.429277379
 30
0.0
 10
28.0017610374
 20
103.581359154
 30
0.0
  0
SPLINE
  5
403
100
AcDbEntity
  8
0
100
AcDbSpline
 62
7
  6
CONTINUOUS
 70
0
 71
3
 72
9
 73
5
 74
0
 42
0.0000001
 43
0.0000001
 44
0.0000000001
 40
0.0
 40
0.0
 40
0.0
 40
0.0
 40
0.2796113279
 40
1.0
 40
1.0
 40
1.0
 40
1.0
 10
37.4770313544
 20
89.3099843366
 30
0.0
 10
37.4770313544
 20
89.2997230668
 30
0.0
 10
37.4789622908
 20
89.2631932352
 30
0.0
 10
37.4900068382
 20
89.2261261082
 30
0.0
 10
37.5050996166
 20
89.2044206625
 30
0.0
  0
SPLINE
  5
404
100
AcDbEntity
  8
0
100
AcDbSpline
 62
7
  6
CONTINUOUS
 70
0
 71
3
 72
9
 73
5
 74
0
 42
0.0000001
 43
0.0000001
 44
0.0000000001
 40
0.0
 40
0.0
 40
0.0
 40
0.0
 40
0.2796113279
 40
1.0
 40
1.0
 40
1.0
 40
1.0
 10
27.9310500649
 20
94.8212345226
 30
0.0
 10
27.9310500649
 20
94.8109732529
 30
0.0
 10
27.9329810013
 20
94.7744434212
 30
0.0
 10
27.9440255487
 20
94.7373762943
 30
0.0
 10
27.9591183271
 20
94.7156708485
 30
0.0
  0
SPLINE
  5
405
100
AcDbEntity
  8
0
100
AcDbSpline
 62
7
  6
CONTINUOUS
 70
0
 71
3
 72
11
 73
7
 74
0
 42
0.0000001
 43
0.0000001
 44
0.0000000001
 40
0.0
 40
0.0
 40
0.0
 40
0.0
 40
0.2372423294
 40
0.4999983821
 40
0.7627553152
 40
1.0
 40
1.0
 40
1.0
 40
1.0
 10
41.2954209262
 20
102.5789028789
 30
0.0
 10
41.2452259892
 20
102.5499229915
 30
0.0
 10
41.1502432683
 20
102.4699752706
 30
0.0
 10
41.0393830292
 20
102.3184790758
 30
0.0
 10
40.9636142591
 20
102.1467222701
 30
0.0
 10
40.9418690076
 20
102.0244902032
 30
0.0
 10
40.9418690076
 20
101.9665295934
 30
0.0
  0
LINE
  5
406
100
AcDbEntity
  8
0
100
AcDbLine
 62
7
  6
CONTINUOUS
 10
21.7520368122
 20
54.7970481736
 11
21.6642417057
 21
54.8532077732
  0
SPLINE
  5
407
100
AcDbEntity
  8
0
100
AcDbSpline
 62
7
  6
CONTINUOUS
 70
0
 71
3
 72
9
 73
5
 74
0
 42
0.0000001
 43
0.0000001
 44
0.0000000001
 40
0.0
 40
0.0
 40
0.0
 40
0.0
 40
0.252429696
 40
1.0
 40
1.0
 40
1.0
 40
1.0
 10
27.4110490149
 20
51.2309580989
 30
0.0
 10
26.9234807088
 20
51.5124494235
 30
0.0
 10
24.9980770508
 20
52.6380973905
 30
0.0
 10
23.0974199507
 20
53.8061390847
 30
0.0
 10
21.6923576825
 20
54.7037426751
 30
0.0
  0
SPLINE
  5
408
100
AcDbEntity
  8
0
100
AcDbSpline
 62
7
  6
CONTINUOUS
 70
0
 71
3
 72
9
 73
5
 74
0
 42
0.0000001
 43
0.0000001
 44
0.0000000001
 40
0.0
 40
0.0
 40
0.0
 40
0.0
 40
0.2530053151
 40
1.0
 40
1.0
 40
1.0
 40
1.0
 10
41.6256205675
 20
43.9244179759
 30
0.0
 10
40.8744508771
 20
44.2676411665
 30
0.0
 10
37.9147253716
 20
45.6443779282
 30
0.0
 10
34.9927393479
 20
47.1024708306
 30
0.0
 10
32.8354850315
 20
48.2390766907
 30
0.0
  0
SPLINE
  5
409
100
AcDbEntity
  8
0
100
AcDbSpline
 62
7
  6
CONTINUOUS
 70
0
 71
3
 72
11
 73
7
 74
0
 42
0.0000001
 43
0.0000001
 44
0.0000000001
 40
0.0
 40
0.0
 40
0.0
 40
0.0
 40
0.2893980704
 40
0.5491296536
 40
0.782314874
 40
1.0
 40
1.0
 40
1.0
 40
1.0
 10
15.8537009812
 20
64.5950958781
 30
0.0
 10
15.8208277593
 20
64.5761166279
 30
0.0
 10
15.7611671904
 20
64.5349356597
 30
0.0
 10
15.6897183961
 20
64.4600190354
 30
0.0
 10
15.6445843094
 20
64.3770051837
 30
0.0
 10
15.6340450525
 20
64.3174678252
 30
0.0
 10
15.6340652336
 20
64.288915334
 30
0.0
  0
SPLINE
  5
40A
100
AcDbEntity
  8
0
100
AcDbSpline
 62
7
  6
CONTINUOUS
 70
0
 71
3
 72
13
 73
9
 74
0
 42
0.0000001
 43
0.0000001
 44
0.0000000001
 40
0.0
 40
0.0
 40
0.0
 40
0.0
 40
0.1141757996
 40
0.2375697486
 40
0.4999996443
 40
0.7624297362
 40
0.885823858
 40
1.0
 40
1.0
 40
1.0
 40
1.0
 10
17.5578359487
 20
63.5377520179
 30
0.0
 10
17.4780217255
 20
63.4916715298
 30
0.0
 10
17.3032992722
 20
63.4104101575
 30
0.0
 10
16.9162545136
 20
63.2926536875
 30
0.0
 10
16.3911112425
 20
63.2357543908
 30
0.0
 10
15.8659676429
 20
63.2926514214
 30
0.0
 10
15.4789216713
 20
63.4104058607
 30
0.0
 10
15.3041983656
 20
63.4916663582
 30
0.0
 10
15.2243835708
 20
63.537746409
 30
0.0
  0
SPLINE
  5
40B
100
AcDbEntity
  8
0
100
AcDbSpline
 62
7
  6
CONTINUOUS
 70
0
 71
3
 72
11
 73
7
 74
0
 42
0.0000001
 43
0.0000001
 44
0.0000000001
 40
0.0
 40
0.0
 40
0.0
 40
0.0
 40
0.2895421522
 40
0.5491196247
 40
0.782256727
 40
1.0
 40
1.0
 40
1.0
 40
1.0
 10
15.0829616257
 20
63.6193945599
 30
0.0
 10
15.0106027452
 20
63.661170034
 30
0.0
 10
14.8792952651
 20
63.7517096539
 30
0.0
 10
14.7222253582
 20
63.9166048313
 30
0.0
 10
14.6228492326
 20
64.099161715
 30
0.0
 10
14.5997752655
 20
64.2301638483
 30
0.0
 10
14.5997752795
 20
64.2929974132
 30
0.0
  0
SPLINE
  5
40C
100
AcDbEntity
  8
0
100
AcDbSpline
 62
7
  6
CONTINUOUS
 70
0
 71
3
 72
11
 73
7
 74
0
 42
0.0000001
 43
0.0000001
 44
0.0000000001
 40
0.0
 40
0.0
 40
0.0
 40
0.0
 40
0.2176987279
 40
0.451279038
 40
0.7107373516
 40
1.0
 40
1.0
 40
1.0
 40
1.0
 10
29.0376767848
 20
35.54184071
 30
0.0
 10
28.9398914345
 20
35.4823568433
 30
0.0
 10
28.7576039806
 20
35.3226740068
 30
0.0
 10
28.5638104044
 20
34.9975229067
 30
0.0
 10
28.4487820252
 20
34.5989774829
 30
0.0
 10
28.4260268725
 20
34.3095545055
 30
0.0
 10
28.4260268725
 20
34.1574727305
 30
0.0
  0
SPLINE
  5
40D
100
AcDbEntity
  8
0
100
AcDbSpline
 62
7
  6
CONTINUOUS
 70
0
 71
3
 72
9
 73
5
 74
0
 42
0.0000001
 43
0.0000001
 44
0.0000000001
 40
0.0
 40
0.0
 40
0.0
 40
0.0
 40
0.2538067502
 40
1.0
 40
1.0
 40
1.0
 40
1.0
 10
29.2823526882
 20
66.224589318
 30
0.0
 10
29.2823526882
 20
66.5038146782
 30
0.0
 10
29.2730961862
 20
67.6039367318
 30
0.0
 10
29.2262926603
 20
68.7038053826
 30
0.0
 10
29.1685290033
 20
69.5226947184
 30
0.0
  0
SPLINE
  5
40E
100
AcDbEntity
  8
0
100
AcDbSpline
 62
7
  6
CONTINUOUS
 70
0
 71
3
 72
9
 73
5
 74
0
 42
0.0000001
 43
0.0000001
 44
0.0000000001
 40
0.0
 40
0.0
 40
0.0
 40
0.0
 40
0.4800022545
 40
1.0
 40
1.0
 40
1.0
 40
1.0
 10
29.1678822778
 20
69.5414339536
 30
0.0
 10
29.1678822778
 20
69.5938418448
 30
0.0
 10
29.1961169106
 20
69.7026947018
 30
0.0
 10
29.2556998184
 20
69.7964574443
 30
0.0
 10
29.2941041283
 20
69.8382722245
 30
0.0
  0
SPLINE
  5
40F
100
AcDbEntity
  8
0
100
AcDbSpline
 62
7
  6
CONTINUOUS
 70
0
 71
3
 72
11
 73
7
 74
0
 42
0.0000001
 43
0.0000001
 44
0.0000000001
 40
0.0
 40
0.0
 40
0.0
 40
0.0
 40
0.2370449797
 40
0.4999970706
 40
0.7629515519
 40
1.0
 40
1.0
 40
1.0
 40
1.0
 10
41.8187706773
 20
37.2426505276
 30
0.0
 10
41.8338156443
 20
37.2339645084
 30
0.0
 10
41.8622595195
 20
37.2099336484
 30
0.0
 10
41.8956313408
 20
37.1645522082
 30
0.0
 10
41.9182472129
 20
37.1129605292
 30
0.0
 10
41.9248371361
 20
37.0763116393
 30
0.0
 10
41.9248371361
 20
37.0589390519
 30
0.0
  0
SPLINE
  5
410
100
AcDbEntity
  8
0
100
AcDbSpline
 62
7
  6
CONTINUOUS
 70
0
 71
3
 72
9
 73
5
 74
0
 42
0.0000001
 43
0.0000001
 44
0.0000000001
 40
0.0
 40
0.0
 40
0.0
 40
0.0
 40
0.5500390311
 40
1.0
 40
1.0
 40
1.0
 40
1.0
 10
41.9248371361
 20
30.8126955608
 30
0.0
 10
41.9248371361
 20
30.79839387
 30
0.0
 10
41.9212671989
 20
30.7718274433
 30
0.0
 10
41.9039093699
 20
30.7498654268
 30
0.0
 10
41.8937772605
 20
30.7440156788
 30
0.0
  0
SPLINE
  5
411
100
AcDbEntity
  8
0
100
AcDbSpline
 62
7
  6
CONTINUOUS
 70
0
 71
3
 72
9
 73
5
 74
0
 42
0.0000001
 43
0.0000001
 44
0.0000000001
 40
0.0
 40
0.0
 40
0.0
 40
0.0
 40
0.246150169
 40
1.0
 40
1.0
 40
1.0
 40
1.0
 10
31.4392833436
 20
43.2351147662
 30
0.0
 10
32.3411295869
 20
42.7487972361
 30
0.0
 10
36.0235241966
 20
40.8077073367
 30
0.0
 10
39.7777152255
 20
39.0033488704
 30
0.0
 10
42.6397024537
 20
37.7166128805
 30
0.0
  0
SPLINE
  5
412
100
AcDbEntity
  8
0
100
AcDbSpline
 62
7
  6
CONTINUOUS
 70
0
 71
3
 72
9
 73
5
 74
0
 42
0.0000001
 43
0.0000001
 44
0.0000000001
 40
0.0
 40
0.0
 40
0.0
 40
0.0
 40
0.5077098202
 40
1.0
 40
1.0
 40
1.0
 40
1.0
 10
42.6397024537
 20
37.7166128805
 30
0.0
 10
42.6736856764
 20
37.7013341835
 30
0.0
 10
42.7301286406
 20
37.6490903784
 30
0.0
 10
42.7590121334
 20
37.5766755891
 30
0.0
 10
42.7590121334
 20
37.5405473363
 30
0.0
  0
SPLINE
  5
413
100
AcDbEntity
  8
0
100
AcDbSpline
 62
7
  6
CONTINUOUS
 70
0
 71
3
 72
9
 73
5
 74
0
 42
0.0000001
 43
0.0000001
 44
0.0000000001
 40
0.0
 40
0.0
 40
0.0
 40
0.0
 40
0.5336006745
 40
1.0
 40
1.0
 40
1.0
 40
1.0
 10
42.7590121334
 20
31.2943038453
 30
0.0
 10
42.7590121334
 20
31.2797298358
 30
0.0
 10
42.7543625916
 20
31.2516973096
 30
0.0
 10
42.735094379
 20
31.2297442797
 30
0.0
 10
42.7240618537
 20
31.2233760394
 30
0.0
  0
SPLINE
  5
414
100
AcDbEntity
  8
0
100
AcDbSpline
 62
7
  6
CONTINUOUS
 70
0
 71
3
 72
9
 73
5
 74
0
 42
0.0000001
 43
0.0000001
 44
0.0000000001
 40
0.0
 40
0.0
 40
0.0
 40
0.0
 40
0.2315249956
 40
1.0
 40
1.0
 40
1.0
 40
1.0
 10
44.0812200604
 20
85.4077816455
 30
0.0
 10
44.0836427322
 20
85.4042975176
 30
0.0
 10
44.095244196
 20
85.3900401668
 30
0.0
 10
44.1102975436
 20
85.3788857622
 30
0.0
 10
44.122496598
 20
85.3718442621
 30
0.0
  0
SPLINE
  5
415
100
AcDbEntity
  8
0
100
AcDbSpline
 62
7
  6
CONTINUOUS
 70
0
 71
3
 72
9
 73
5
 74
0
 42
0.0000001
 43
0.0000001
 44
0.0000000001
 40
0.0
 40
0.0
 40
0.0
 40
0.0
 40
0.2331422798
 40
1.0
 40
1.0
 40
1.0
 40
1.0
 10
44.0812200604
 20
85.4077816455
 30
0.0
 10
44.0781117006
 20
85.4122518851
 30
0.0
 10
44.0660736485
 20
85.4323292734
 30
0.0
 10
44.0592697258
 20
85.4552481792
 30
0.0
 10
44.0563338173
 20
85.4729147966
 30
0.0
  0
SPLINE
  5
416
100
AcDbEntity
  8
0
100
AcDbSpline
 62
7
  6
CONTINUOUS
 70
0
 71
3
 72
9
 73
5
 74
0
 42
0.0000001
 43
0.0000001
 44
0.0000000001
 40
0.0
 40
0.0
 40
0.0
 40
0.0
 40
0.2414379902
 40
1.0
 40
1.0
 40
1.0
 40
1.0
 10
44.0563338173
 20
85.4729147966
 30
0.0
 10
44.0557984041
 20
85.4761366068
 30
0.0
 10
44.0538874095
 20
85.4895311289
 30
0.0
 10
44.0531517983
 20
85.5030840498
 30
0.0
 10
44.0531517983
 20
85.5133453195
 30
0.0
  0
SPLINE
  5
417
100
AcDbEntity
  8
0
100
AcDbSpline
 62
7
  6
CONTINUOUS
 70
0
 71
3
 72
11
 73
7
 74
0
 42
0.0000001
 43
0.0000001
 44
0.0000000001
 40
0.0
 40
0.0
 40
0.0
 40
0.0
 40
0.2176987279
 40
0.451279038
 40
0.7107373516
 40
1.0
 40
1.0
 40
1.0
 40
1.0
 10
43.3920042052
 20
27.2545533933
 30
0.0
 10
43.2942188549
 20
27.1950695265
 30
0.0
 10
43.111931401
 20
27.03538669
 30
0.0
 10
42.9181378248
 20
26.7102355899
 30
0.0
 10
42.8031094457
 20
26.3116901662
 30
0.0
 10
42.780354293
 20
26.0222671887
 30
0.0
 10
42.780354293
 20
25.8701854138
 30
0.0
  0
SPLINE
  5
418
100
AcDbEntity
  8
0
100
AcDbSpline
 62
7
  6
CONTINUOUS
 70
0
 71
3
 72
11
 73
7
 74
0
 42
0.0000001
 43
0.0000001
 44
0.0000000001
 40
0.0
 40
0.0
 40
0.0
 40
0.0
 40
0.2283628443
 40
0.4746545187
 40
0.7339191451
 40
1.0
 40
1.0
 40
1.0
 40
1.0
 10
47.5179894515
 20
92.3139143292
 30
0.0
 10
47.5179894515
 20
92.1464568169
 30
0.0
 10
47.5482137328
 20
91.7980901611
 30
0.0
 10
47.6684695423
 20
91.2720986789
 30
0.0
 10
47.8617055953
 20
90.7389164576
 30
0.0
 10
48.0333736893
 20
90.3930047877
 30
0.0
 10
48.1296393637
 20
90.2232898444
 30
0.0
  0
SPLINE
  5
419
100
AcDbEntity
  8
0
100
AcDbSpline
 62
7
  6
CONTINUOUS
 70
0
 71
3
 72
11
 73
7
 74
0
 42
0.0000001
 43
0.0000001
 44
0.0000000001
 40
0.0
 40
0.0
 40
0.0
 40
0.0
 40
0.2370465658
 40
0.4999992558
 40
0.762953138
 40
1.0
 40
1.0
 40
1.0
 40
1.0
 10
28.496737845
 20
94.9444248149
 30
0.0
 10
28.496737845
 20
94.921261549
 30
0.0
 10
28.5055240625
 20
94.8723966838
 30
0.0
 10
28.5356785297
 20
94.803607924
 30
0.0
 10
28.5801744029
 20
94.7430992391
 30
0.0
 10
28.6180996748
 20
94.7110576315
 30
0.0
 10
28.6381597901
 20
94.6994761806
 30
0.0
  0
SPLINE
  5
41A
100
AcDbEntity
  8
0
100
AcDbSpline
 62
7
  6
CONTINUOUS
 70
0
 71
3
 72
9
 73
5
 74
0
 42
0.0000001
 43
0.0000001
 44
0.0000000001
 40
0.0
 40
0.0
 40
0.0
 40
0.0
 40
0.5500375009
 40
1.0
 40
1.0
 40
1.0
 40
1.0
 10
31.3251767456
 20
93.1481613134
 30
0.0
 10
31.3416905253
 20
93.1386272939
 30
0.0
 10
31.3747460108
 20
93.1250392787
 30
0.0
 10
31.4116763559
 20
93.1304410042
 30
0.0
 10
31.4251855309
 20
93.1382404743
 30
0.0
  0
SPLINE
  5
41B
100
AcDbEntity
  8
0
100
AcDbSpline
 62
7
  6
CONTINUOUS
 70
0
 71
3
 72
11
 73
7
 74
0
 42
0.0000001
 43
0.0000001
 44
0.0000000001
 40
0.0
 40
0.0
 40
0.0
 40
0.0
 40
0.2370465658
 40
0.4999992558
 40
0.762953138
 40
1.0
 40
1.0
 40
1.0
 40
1.0
 10
38.0427191345
 20
89.4331746289
 30
0.0
 10
38.0427191345
 20
89.410011363
 30
0.0
 10
38.051505352
 20
89.3611464978
 30
0.0
 10
38.0816598192
 20
89.292357738
 30
0.0
 10
38.1261556924
 20
89.2318490531
 30
0.0
 10
38.1640809643
 20
89.1998074455
 30
0.0
 10
38.1841410795
 20
89.1882259946
 30
0.0
  0
SPLINE
  5
41C
100
AcDbEntity
  8
0
100
AcDbSpline
 62
7
  6
CONTINUOUS
 70
0
 71
3
 72
9
 73
5
 74
0
 42
0.0000001
 43
0.0000001
 44
0.0000000001
 40
0.0
 40
0.0
 40
0.0
 40
0.0
 40
0.5500375009
 40
1.0
 40
1.0
 40
1.0
 40
1.0
 10
40.8711580351
 20
87.6369111274
 30
0.0
 10
40.8876718148
 20
87.6273771079
 30
0.0
 10
40.9207273003
 20
87.6137890927
 30
0.0
 10
40.9576576454
 20
87.6191908182
 30
0.0
 10
40.9711668204
 20
87.6269902883
 30
0.0
  0
SPLINE
  5
41D
100
AcDbEntity
  8
0
100
AcDbSpline
 62
7
  6
CONTINUOUS
 70
0
 71
3
 72
11
 73
7
 74
0
 42
0.0000001
 43
0.0000001
 44
0.0000000001
 40
0.0
 40
0.0
 40
0.0
 40
0.0
 40
0.2283628443
 40
0.4746545187
 40
0.7339191451
 40
1.0
 40
1.0
 40
1.0
 40
1.0
 10
24.2187240079
 20
105.7654471907
 30
0.0
 10
24.2187240079
 20
105.5979896783
 30
0.0
 10
24.2489482892
 20
105.2496230226
 30
0.0
 10
24.3692040987
 20
104.7236315404
 30
0.0
 10
24.5624401517
 20
104.190449319
 30
0.0
 10
24.7341082457
 20
103.8445376491
 30
0.0
 10
24.8303739201
 20
103.6748227059
 30
0.0
  0
SPLINE
  5
41E
100
AcDbEntity
  8
0
100
AcDbSpline
 62
7
  6
CONTINUOUS
 70
0
 71
3
 72
11
 73
7
 74
0
 42
0.0000001
 43
0.0000001
 44
0.0000000001
 40
0.0
 40
0.0
 40
0.0
 40
0.0
 40
0.2370465658
 40
0.4999992558
 40
0.762953138
 40
1.0
 40
1.0
 40
1.0
 40
1.0
 10
47.588700424
 20
83.9219244429
 30
0.0
 10
47.588700424
 20
83.8987611769
 30
0.0
 10
47.5974866415
 20
83.8498963117
 30
0.0
 10
47.6276411087
 20
83.781107552
 30
0.0
 10
47.6721369819
 20
83.7205988671
 30
0.0
 10
47.7100622538
 20
83.6885572595
 30
0.0
 10
47.730122369
 20
83.6769758085
 30
0.0
  0
SPLINE
  5
41F
100
AcDbEntity
  8
0
100
AcDbSpline
 62
7
  6
CONTINUOUS
 70
0
 71
3
 72
9
 73
5
 74
0
 42
0.0000001
 43
0.0000001
 44
0.0000000001
 40
0.0
 40
0.0
 40
0.0
 40
0.0
 40
0.5500375009
 40
1.0
 40
1.0
 40
1.0
 40
1.0
 10
50.4171393246
 20
82.1256609414
 30
0.0
 10
50.4336531043
 20
82.1161269219
 30
0.0
 10
50.4667085898
 20
82.1025389067
 30
0.0
 10
50.5036389349
 20
82.1079406322
 30
0.0
 10
50.5171481099
 20
82.1157401023
 30
0.0
  0
SPLINE
  5
420
100
AcDbEntity
  8
0
100
AcDbSpline
 62
7
  6
CONTINUOUS
 70
0
 71
3
 72
9
 73
5
 74
0
 42
0.0000001
 43
0.0000001
 44
0.0000000001
 40
0.0
 40
0.0
 40
0.0
 40
0.0
 40
0.2315249956
 40
1.0
 40
1.0
 40
1.0
 40
1.0
 10
34.535238771
 20
90.9190318315
 30
0.0
 10
34.5376614427
 20
90.9155477037
 30
0.0
 10
34.5492629066
 20
90.9012903528
 30
0.0
 10
34.5643162541
 20
90.8901359482
 30
0.0
 10
34.5765153085
 20
90.8830944481
 30
0.0
  0
SPLINE
  5
421
100
AcDbEntity
  8
0
100
AcDbSpline
 62
7
  6
CONTINUOUS
 70
0
 71
3
 72
9
 73
5
 74
0
 42
0.0000001
 43
0.0000001
 44
0.0000000001
 40
0.0
 40
0.0
 40
0.0
 40
0.0
 40
0.2331422798
 40
1.0
 40
1.0
 40
1.0
 40
1.0
 10
34.535238771
 20
90.9190318315
 30
0.0
 10
34.5321304111
 20
90.9235020711
 30
0.0
 10
34.520092359
 20
90.9435794594
 30
0.0
 10
34.5132884363
 20
90.9664983652
 30
0.0
 10
34.5103525278
 20
90.9841649826
 30
0.0
  0
SPLINE
  5
422
100
AcDbEntity
  8
0
100
AcDbSpline
 62
7
  6
CONTINUOUS
 70
0
 71
3
 72
9
 73
5
 74
0
 42
0.0000001
 43
0.0000001
 44
0.0000000001
 40
0.0
 40
0.0
 40
0.0
 40
0.0
 40
0.2414379902
 40
1.0
 40
1.0
 40
1.0
 40
1.0
 10
34.5103525278
 20
90.9841649826
 30
0.0
 10
34.5098171146
 20
90.9873867928
 30
0.0
 10
34.50790612
 20
91.0007813149
 30
0.0
 10
34.5071705088
 20
91.0143342358
 30
0.0
 10
34.5071705088
 20
91.0245955056
 30
0.0
  0
SPLINE
  5
423
100
AcDbEntity
  8
0
100
AcDbSpline
 62
7
  6
CONTINUOUS
 70
0
 71
3
 72
9
 73
5
 74
0
 42
0.0000001
 43
0.0000001
 44
0.0000000001
 40
0.0
 40
0.0
 40
0.0
 40
0.0
 40
0.2315249956
 40
1.0
 40
1.0
 40
1.0
 40
1.0
 10
24.9892574815
 20
96.4302820175
 30
0.0
 10
24.9916801532
 20
96.4267978897
 30
0.0
 10
25.0032816171
 20
96.4125405389
 30
0.0
 10
25.0183349646
 20
96.4013861342
 30
0.0
 10
25.030534019
 20
96.3943446341
 30
0.0
  0
SPLINE
  5
424
100
AcDbEntity
  8
0
100
AcDbSpline
 62
7
  6
CONTINUOUS
 70
0
 71
3
 72
9
 73
5
 74
0
 42
0.0000001
 43
0.0000001
 44
0.0000000001
 40
0.0
 40
0.0
 40
0.0
 40
0.0
 40
0.2331422798
 40
1.0
 40
1.0
 40
1.0
 40
1.0
 10
24.9892574815
 20
96.4302820175
 30
0.0
 10
24.9861491216
 20
96.4347522572
 30
0.0
 10
24.9741110695
 20
96.4548296454
 30
0.0
 10
24.9673071468
 20
96.4777485512
 30
0.0
 10
24.9643712383
 20
96.4954151686
 30
0.0
  0
SPLINE
  5
425
100
AcDbEntity
  8
0
100
AcDbSpline
 62
7
  6
CONTINUOUS
 70
0
 71
3
 72
9
 73
5
 74
0
 42
0.0000001
 43
0.0000001
 44
0.0000000001
 40
0.0
 40
0.0
 40
0.0
 40
0.0
 40
0.2414379902
 40
1.0
 40
1.0
 40
1.0
 40
1.0
 10
24.9643712383
 20
96.4954151686
 30
0.0
 10
24.9638358251
 20
96.4986369789
 30
0.0
 10
24.9619248306
 20
96.512031501
 30
0.0
 10
24.9611892193
 20
96.5255844219
 30
0.0
 10
24.9611892193
 20
96.5358456916
 30
0.0
  0
SPLINE
  5
426
100
AcDbEntity
  8
0
100
AcDbSpline
 62
7
  6
CONTINUOUS
 70
0
 71
3
 72
11
 73
7
 74
0
 42
0.0000001
 43
0.0000001
 44
0.0000000001
 40
0.0
 40
0.0
 40
0.0
 40
0.0
 40
0.2372446848
 40
0.5000016179
 40
0.7627576706
 40
1.0
 40
1.0
 40
1.0
 40
1.0
 10
34.5778814813
 20
105.6406963841
 30
0.0
 10
34.5778814813
 20
105.6986569939
 30
0.0
 10
34.5996267328
 20
105.8208890608
 30
0.0
 10
34.6753955028
 20
105.9926458665
 30
0.0
 10
34.786255742
 20
106.1441420613
 30
0.0
 10
34.8812384628
 20
106.2240897822
 30
0.0
 10
34.9314333999
 20
106.2530696696
 30
0.0
  0
SPLINE
  5
427
100
AcDbEntity
  8
0
100
AcDbSpline
 62
7
  6
CONTINUOUS
 70
0
 71
3
 72
10
 73
6
 74
0
 42
0.0000001
 43
0.0000001
 44
0.0000000001
 40
0.0
 40
0.0
 40
0.0
 40
0.0
 40
0.2185589456
 40
0.4523651554
 40
1.0
 40
1.0
 40
1.0
 40
1.0
 10
53.5552124624
 20
79.9260165263
 30
0.0
 10
53.5453057609
 20
79.9317233168
 30
0.0
 10
53.5267587126
 20
79.9472759006
 30
0.0
 10
53.4991642056
 20
79.9925002053
 30
0.0
 10
53.493066629
 20
80.0346843743
 30
0.0
 10
53.493066629
 20
80.0633312467
 30
0.0
  0
SPLINE
  5
428
100
AcDbEntity
  8
0
100
AcDbSpline
 62
7
  6
CONTINUOUS
 70
0
 71
3
 72
11
 73
7
 74
0
 42
0.0000001
 43
0.0000001
 44
0.0000000001
 40
0.0
 40
0.0
 40
0.0
 40
0.0
 40
0.2176987279
 40
0.451279038
 40
0.7107373516
 40
1.0
 40
1.0
 40
1.0
 40
1.0
 10
48.1296393637
 20
24.519340338
 30
0.0
 10
48.0318540134
 20
24.4598564712
 30
0.0
 10
47.8495665595
 20
24.3001736348
 30
0.0
 10
47.6557729833
 20
23.9750225346
 30
0.0
 10
47.5407446041
 20
23.5764771109
 30
0.0
 10
47.5179894515
 20
23.2870541334
 30
0.0
 10
47.5179894515
 20
23.1349723585
 30
0.0
  0
SPLINE
  5
429
100
AcDbEntity
  8
0
100
AcDbSpline
 62
7
  6
CONTINUOUS
 70
0
 71
3
 72
11
 73
7
 74
0
 42
0.0000001
 43
0.0000001
 44
0.0000000001
 40
0.0
 40
0.0
 40
0.0
 40
0.0
 40
0.2372446848
 40
0.5000016179
 40
0.7627576706
 40
1.0
 40
1.0
 40
1.0
 40
1.0
 10
53.493066629
 20
94.7202562007
 30
0.0
 10
53.493066629
 20
94.7782168105
 30
0.0
 10
53.5148118805
 20
94.9004488774
 30
0.0
 10
53.5905806505
 20
95.0722056831
 30
0.0
 10
53.7014408897
 20
95.2237018779
 30
0.0
 10
53.7964236105
 20
95.3036495987
 30
0.0
 10
53.8466185476
 20
95.3326294862
 30
0.0
  0
SPLINE
  5
42A
100
AcDbEntity
  8
0
100
AcDbSpline
 62
7
  6
CONTINUOUS
 70
0
 71
3
 72
9
 73
5
 74
0
 42
0.0000001
 43
0.0000001
 44
0.0000000001
 40
0.0
 40
0.0
 40
0.0
 40
0.0
 40
0.5504229886
 40
1.0
 40
1.0
 40
1.0
 40
1.0
 10
88.6403904213
 20
115.420703134
 30
0.0
 10
88.6569181954
 20
115.4302453919
 30
0.0
 10
88.6899722854
 20
115.4438991231
 30
0.0
 10
88.7268969126
 20
115.4384155719
 30
0.0
 10
88.7403957388
 20
115.4306202089
 30
0.0
  0
SPLINE
  5
42B
100
AcDbEntity
  8
0
100
AcDbSpline
 62
7
  6
CONTINUOUS
 70
0
 71
3
 72
11
 73
7
 74
0
 42
0.0000001
 43
0.0000001
 44
0.0000000001
 40
0.0
 40
0.0
 40
0.0
 40
0.0
 40
0.2176987279
 40
0.451279038
 40
0.7107373516
 40
1.0
 40
1.0
 40
1.0
 40
1.0
 10
24.3000416263
 20
38.2770537653
 30
0.0
 10
24.202256276
 20
38.2175698986
 30
0.0
 10
24.0199688221
 20
38.0578870621
 30
0.0
 10
23.8261752459
 20
37.7327359619
 30
0.0
 10
23.7111468667
 20
37.3341905382
 30
0.0
 10
23.688391714
 20
37.0447675608
 30
0.0
 10
23.688391714
 20
36.8926857858
 30
0.0
  0
SPLINE
  5
42C
100
AcDbEntity
  8
0
100
AcDbSpline
 62
7
  6
CONTINUOUS
 70
0
 71
3
 72
11
 73
7
 74
0
 42
0.0000001
 43
0.0000001
 44
0.0000000001
 40
0.0
 40
0.0
 40
0.0
 40
0.0
 40
0.2176987279
 40
0.451279038
 40
0.7107373516
 40
1.0
 40
1.0
 40
1.0
 40
1.0
 10
33.8460229158
 20
32.7658035793
 30
0.0
 10
33.7482375655
 20
32.7063197125
 30
0.0
 10
33.5659501116
 20
32.5466368761
 30
0.0
 10
33.3721565354
 20
32.2214857759
 30
0.0
 10
33.2571281562
 20
31.8229403522
 30
0.0
 10
33.2343730035
 20
31.5335173748
 30
0.0
 10
33.2343730035
 20
31.3814355998
 30
0.0
  0
SPLINE
  5
42D
100
AcDbEntity
  8
0
100
AcDbSpline
 62
7
  6
CONTINUOUS
 70
0
 71
3
 72
11
 73
7
 74
0
 42
0.0000001
 43
0.0000001
 44
0.0000000001
 40
0.0
 40
0.0
 40
0.0
 40
0.0
 40
0.2176987279
 40
0.451279038
 40
0.7107373516
 40
1.0
 40
1.0
 40
1.0
 40
1.0
 10
38.5836580742
 20
30.030590524
 30
0.0
 10
38.4858727239
 20
29.9711066572
 30
0.0
 10
38.30358527
 20
29.8114238208
 30
0.0
 10
38.1097916938
 20
29.4862727206
 30
0.0
 10
37.9947633147
 20
29.0877272969
 30
0.0
 10
37.972008162
 20
28.7983043195
 30
0.0
 10
37.972008162
 20
28.6462225445
 30
0.0
  0
SPLINE
  5
42E
100
AcDbEntity
  8
0
100
AcDbSpline
 62
7
  6
CONTINUOUS
 70
0
 71
3
 72
11
 73
7
 74
0
 42
0.0000001
 43
0.0000001
 44
0.0000000001
 40
0.0
 40
0.0
 40
0.0
 40
0.0
 40
0.2448567817
 40
0.5072230998
 40
0.7656758177
 40
1.0
 40
1.0
 40
1.0
 40
1.0
 10
43.4369738016
 20
67.0384594728
 30
0.0
 10
43.5382837592
 20
66.9936070229
 30
0.0
 10
43.7620349794
 20
66.9316953706
 30
0.0
 10
44.1100238733
 20
66.9092948005
 30
0.0
 10
44.4503281483
 20
66.9590231436
 30
0.0
 10
44.6617027913
 20
67.0392482523
 30
0.0
 10
44.7532626122
 20
67.0927169068
 30
0.0
  0
ELLIPSE
  5
42F
100
AcDbEntity
  8
0
100
AcDbEllipse
 62
7
  6
CONTINUOUS
 10
143.7515442338
 20
105.9726065987
 30
0.0
 11
164.2908333333
 21
-0.0
 31
0.0
 40
0.5773420155
 41
-2.4860787419
 42
-2.4082785904
  0
ELLIPSE
  5
430
100
AcDbEntity
  8
0
100
AcDbEllipse
 62
7
  6
CONTINUOUS
 10
143.5756190829
 20
119.3860685774
 30
0.0
 11
164.2854658469
 21
0.8146480067
 31
0.0
 40
0.5806466835
 41
-2.4889351948
 42
-2.4128207442
  0
ELLIPSE
  5
431
100
AcDbEntity
  8
0
100
AcDbEllipse
 62
7
  6
CONTINUOUS
 10
44.1703345898
 20
85.2959339743
 30
0.0
 11
0.274271676
 21
-0.0681387362
 31
0.0
 40
0.1920681329
 41
0.5887360622
 42
1.5890029139
  0
ELLIPSE
  5
432
100
AcDbEntity
  8
0
100
AcDbEllipse
 62
7
  6
CONTINUOUS
 10
34.6243533003
 20
90.8071841603
 30
0.0
 11
0.274271676
 21
-0.0681387362
 31
0.0
 40
0.1920681329
 41
0.5887360622
 42
1.5890029139
  0
ELLIPSE
  5
433
100
AcDbEntity
  8
0
100
AcDbEllipse
 62
7
  6
CONTINUOUS
 10
25.0783720108
 20
96.3184343464
 30
0.0
 11
0.274271676
 21
-0.0681387362
 31
0.0
 40
0.1920681329
 41
0.5887360622
 42
1.5890029139
  0
ELLIPSE
  5
434
100
AcDbEntity
  8
0
100
AcDbEllipse
 62
7
  6
CONTINUOUS
 10
44.0457875917
 20
67.5742307661
 30
0.0
 11
0.9999957859
 21
0.0049998054
 31
0.0
 40
0.5806465269
 41
-2.2287244708
 42
-0.7882971237
  0
ELLIPSE
  5
435
100
AcDbEntity
  8
0
100
AcDbEllipse
 62
7
  6
CONTINUOUS
 10
143.5807731354
 20
143.06803861
 30
0.0
 11
164.289307672
 21
0.8214180276
 31
0.0
 40
0.5806465269
 41
-2.2431849335
 42
-2.2292014478
  0
ELLIPSE
  5
436
100
AcDbEntity
  8
0
100
AcDbEllipse
 62
7
  6
CONTINUOUS
 10
143.5807731354
 20
143.06803861
 30
0.0
 11
164.289307672
 21
0.8214180276
 31
0.0
 40
0.5806465269
 41
-2.3408320424
 42
-2.3134265964
  0
ELLIPSE
  5
437
100
AcDbEntity
  8
0
100
AcDbEllipse
 62
7
  6
CONTINUOUS
 10
143.5666499751
 20
143.0597910362
 30
0.0
 11
164.2874424518
 21
0.8166668398
 31
0.0
 40
0.5806466372
 41
-2.4889486324
 42
-2.4108208451
  0
ELLIPSE
  5
438
100
AcDbEntity
  8
0
100
AcDbEllipse
 62
7
  6
CONTINUOUS
 10
143.5747676498
 20
141.4314998184
 30
0.0
 11
164.2874424518
 21
0.8166668398
 31
0.0
 40
0.5806466372
 41
-2.4889486324
 42
-2.4128343912
  0
ELLIPSE
  5
439
100
AcDbEntity
  8
0
100
AcDbEllipse
 62
7
  6
CONTINUOUS
 10
143.4660304748
 20
141.3680000171
 30
0.0
 11
164.2854658469
 21
0.8146480067
 31
0.0
 40
0.5806466835
 41
-2.4889351948
 42
-2.4128207442
  0
ENDSEC
  0
SECTION
  2
OBJECTS
  0
DICTIONARY
  5
C
100
AcDbDictionary
280
0
281
1
  3
ACAD_GROUP
350
D
  3
ACAD_MLINESTYLE
350
17
  3
ACAD_LAYOUT
350
1A
  3
ACAD_PLOTSETTINGS
350
19
  3
ACAD_PLOTSTYLENAME
350
E
  0
DICTIONARY
  5
D
102
{ACAD_REACTORS
330
C
102
}
100
AcDbDictionary
280
0
281
1
  0
ACDBDICTIONARYWDFLT
  5
E
102
{ACAD_REACTORS
330
C
102
}
100
AcDbDictionary
281
1
  3
Normal
350
F
100
AcDbDictionaryWithDefault
340
F
  0
DICTIONARY
  5
17
102
{ACAD_REACTORS
330
C
102
}
100
AcDbDictionary
280
0
281
1
  3
Standard
350
18
  0
DICTIONARY
  5
19
102
{ACAD_REACTORS
330
C
102
}
100
AcDbDictionary
281
1
  0
DICTIONARY
  5
1A
102
{ACAD_REACTORS
330
C
102
}
100
AcDbDictionary
281
1
  3
Model
350
43A
  3
Layout1
350
43B
  0
ACDBPLACEHOLDER
  5
F
102
{ACAD_REACTORS
330
E
102
}
  0
MLINESTYLE
  5
18
102
{ACAD_REACTORS
330
17
102
}
100
AcDbMlineStyle
  2
STANDARD
 70
0
  3

 62
256
 51
90.0
 52
90.0
 71
2
 49
0.5
 62
256
  6
BYLAYER
 49
-0.5
 62
256
  6
BYLAYER
  0
LAYOUT
  5
43A
102
{ACAD_REACTORS
330
1A
102
}
100
AcDbPlotSettings
  1

  2
none_device
  4

  6

 40
0.0
 41
0.0
 42
0.0
 43
0.0
 44
210.0
 45
297.0
 46
0.0
 47
0.0
 48
0.0
 49
0.0
140
0.0
141
0.0
142
1.0
143
1.0
 70
1024
 72
1
 73
0
 74
0
  7

 75
0
147
1.0
148
0.0
149
0.0
100
AcDbLayout
  1
Model
 70
0
 71
0
 10
0.0
 20
0.0
 11
210.0
 21
297.0
 12
0.0
 22
0.0
 32
0.0
 14
0.0
 24
0.0
 34
0.0
 15
0.0
 25
0.0
 35
0.0
146
0.0
 13
0.0
 23
0.0
 33
0.0
 16
1.0
 26
0.0
 36
0.0
 17
0.0
 27
1.0
 37
0.0
 76
0
330
211
345
0
346
0
  0
LAYOUT
  5
43B
102
{ACAD_REACTORS
330
1A
102
}
100
AcDbPlotSettings
  1

  2
none_device
  4

  6

 40
0.0
 41
0.0
 42
0.0
 43
0.0
 44
210.0
 45
297.0
 46
0.0
 47
0.0
 48
0.0
 49
0.0
140
0.0
141
0.0
142
1.0
143
1.0
 70
0
 72
1
 73
0
 74
0
  7

 75
0
147
1.0
148
0.0
149
0.0
100
AcDbLayout
  1
Layout1
 70
0
 71
1
 10
0.0
 20
0.0
 11
210.0
 21
297.0
 12
0.0
 22
0.0
 32
0.0
 14
0.0
 24
0.0
 34
0.0
 15
0.0
 25
0.0
 35
0.0
146
0.0
 13
0.0
 23
0.0
 33
0.0
 16
1.0
 26
0.0
 36
0.0
 17
0.0
 27
1.0
 37
0.0
 76
0
330
212
345
0
346
0
  0
ENDSEC
  0
EOF
