999
DXF file: C:\Users\sesa63760\Dev\_Creo\CAD\MCADPD0005318_3D-CAD\drw0001_7.dxf
999
Pro/ENGINEER 2019471 by Parametric Technology Corporation
  0
SECTION
  2
HEADER
  9
$ACADVER
  1
AC1024
  9
$DWGCODEPAGE
  3
ANSI_1252
  9
$EXTMAX
 10
75.8437769379
 20
107.2647702407
 30
0.0
  9
$EXTMIN
 10
0.0
 20
0.0
 30
0.0
  9
$LIMMIN
 10
0.0
 20
0.0
  9
$LIMMAX
 10
75.8437769379
 20
107.2647702407
  9
$VIEWCTR
 10
37.9218884689
 20
53.6323851204
  9
$VIEWSIZE
 40
107.2647702407
  9
$CLAYER
  8
0
  9
$LTSCALE
 40
6.992073912
  9
$CELTYPE
  6
BYLAYER
  9
$DIMSCALE
 40
1.0
  9
$DIMASZ
 40
0.9029021064
  9
$DIMEXO
 40
1.0
  9
$DIMDLI
 40
4.8308874301
  9
$DIMEXE
 40
1.0
  9
$DIMCEN
 40
1.1441575492
  9
$DIMLFAC
 40
1.0
  9
$DIMBLK
  1
_FILLED
  9
$DIMALT
 70
0
  9
$DIMALTF
 40
0.0393700787
  9
$DIMTXT
 40
1.264062949
  9
$DIMTOL
 70
1
  9
$DIMLIM
 70
0
  9
$DIMTFAC
 40
1.0
  9
$DIMTP
 40
0.01
  9
$DIMTM
 40
0.01
  9
$DIMGAP
 40
0.625
  9
$DIMDSEP
 70
46
  9
$AUNITS
 70
0
  9
$PDMODE
 70
3
  9
$PDSIZE
 40
0.3125
  9
$HANDSEED
  5
26D
  9
$TILEMODE
 70
1
  9
$MEASUREMENT
 70
1
  9
$INSUNITS
 70
4
  0
ENDSEC
  0
SECTION
  2
CLASSES
  0
CLASS
  1
ACDBDICTIONARYWDFLT
  2
AcDbDictionaryWithDefault
  3
AutoCAD 2000
 90
0
 91
1
280
0
281
0
  0
CLASS
  1
ACDBPLACEHOLDER
  2
AcDbPlaceHolder
  3
AutoCAD 2000
 90
0
 91
1
280
0
281
0
  0
CLASS
  1
LAYOUT
  2
AcDbLayout
  3
AutoCAD 2000
 90
0
 91
0
280
0
281
0
  0
ENDSEC
  0
SECTION
  2
TABLES
  0
TABLE
  2
VPORT
  5
8
100
AcDbSymbolTable
 70
2
  0
VPORT
  5
1F4
100
AcDbSymbolTableRecord
100
AcDbViewportTableRecord
  2
*ACTIVE
 70
0
 10
0.0
 20
0.0
 11
1.0
 21
1.0
 12
37.9218884689
 22
53.6323851204
 13
0.0
 23
0.0
 14
1.0
 24
1.0
 15
0.0
 25
0.0
 16
0.0
 26
0.0
 36
1.0
 17
0.0
 27
0.0
 37
0.0
 40
107.2647702407
 41
0.7070707071
 42
50.0
 43
0.0
 44
0.0
 50
0.0
 51
0.0
 71
0
 72
100
 73
1
 74
1
 75
0
 76
0
 77
0
 78
0
  0
ENDTAB
  0
TABLE
  2
LTYPE
  5
5
100
AcDbSymbolTable
 70
6
  0
LTYPE
  5
14
100
AcDbSymbolTableRecord
100
AcDbLinetypeTableRecord
  2
BYBLOCK
 70
0
  3

 72
65
 73
0
 40
0.0
  0
LTYPE
  5
15
100
AcDbSymbolTableRecord
100
AcDbLinetypeTableRecord
  2
BYLAYER
 70
0
  3

 72
65
 73
0
 40
0.0
  0
LTYPE
  5
16
100
AcDbSymbolTableRecord
100
AcDbLinetypeTableRecord
  2
CONTINUOUS
 70
64
  3
Solid line
 72
65
 73
0
 40
0.0
  0
LTYPE
  5
1F5
100
AcDbSymbolTableRecord
100
AcDbLinetypeTableRecord
  2
CENTER
 70
64
  3
____ _ ____ _ ____ _ ____ _ ____ _ ____ _ ____
 72
65
 73
4
 40
0.6
 49
0.375
 74
0
 49
-0.075
 74
0
 49
0.075
 74
0
 49
-0.075
 74
0
  0
LTYPE
  5
1F6
100
AcDbSymbolTableRecord
100
AcDbLinetypeTableRecord
  2
HIDDEN
 70
64
  3
- - - - - - - - - - - - - - - - - - - -
 72
65
 73
2
 40
0.2
 49
0.1
 74
0
 49
-0.1
 74
0
  0
LTYPE
  5
1F7
100
AcDbSymbolTableRecord
100
AcDbLinetypeTableRecord
  2
PHANTOM
 70
64
  3
_____ _ _ _____ _ _ _____ _ _ _____
 72
65
 73
6
 40
0.8
 49
0.45
 74
0
 49
-0.05
 74
0
 49
0.1
 74
0
 49
-0.05
 74
0
 49
0.1
 74
0
 49
-0.05
 74
0
  0
LTYPE
  5
1F8
100
AcDbSymbolTableRecord
100
AcDbLinetypeTableRecord
  2
DOT
 70
64
  3
. . . . . . . . . . . . . . . . . . . .
 72
65
 73
2
 40
0.2
 49
0.1
 74
0
 49
-0.1
 74
0
  0
LTYPE
  5
1F9
100
AcDbSymbolTableRecord
100
AcDbLinetypeTableRecord
  2
DASHED
 70
64
  3
- - - - - - - - - - - - - - - - - - - -
 72
65
 73
2
 40
0.2
 49
0.1
 74
0
 49
-0.1
 74
0
  0
ENDTAB
  0
TABLE
  2
LAYER
  5
2
100
AcDbSymbolTable
 70
36
  0
LAYER
  5
10
100
AcDbSymbolTableRecord
100
AcDbLayerTableRecord
  2
0
 70
0
 62
7
  6
CONTINUOUS
370
-3
390
F
  0
LAYER
  5
1FA
100
AcDbSymbolTableRecord
100
AcDbLayerTableRecord
  2
DEFAULT_1
 70
0
 62
7
  6
CENTER
370
-3
390
F
  0
LAYER
  5
1FB
100
AcDbSymbolTableRecord
100
AcDbLayerTableRecord
  2
DEFAULT_2
 70
0
 62
7
  6
HIDDEN
370
-3
390
F
  0
LAYER
  5
1FC
100
AcDbSymbolTableRecord
100
AcDbLayerTableRecord
  2
DEFAULT_3
 70
0
 62
7
  6
PHANTOM
370
-3
390
F
  0
LAYER
  5
1FD
100
AcDbSymbolTableRecord
100
AcDbLayerTableRecord
  2
00_COMPONENTS
 70
0
 62
7
  6
CONTINUOUS
370
-3
390
F
  0
LAYER
  5
1FE
100
AcDbSymbolTableRecord
100
AcDbLayerTableRecord
  2
01_1_DEFAULT_DATUMS
 70
0
 62
7
  6
CONTINUOUS
370
-3
390
F
  0
LAYER
  5
1FF
100
AcDbSymbolTableRecord
100
AcDbLayerTableRecord
  2
01_PLANES
 70
0
 62
7
  6
CONTINUOUS
370
-3
390
F
  0
LAYER
  5
200
100
AcDbSymbolTableRecord
100
AcDbLayerTableRecord
  2
02_COORD_SYS
 70
0
 62
7
  6
CONTINUOUS
370
-3
390
F
  0
LAYER
  5
201
100
AcDbSymbolTableRecord
100
AcDbLayerTableRecord
  2
03_AXES
 70
0
 62
7
  6
CONTINUOUS
370
-3
390
F
  0
LAYER
  5
202
100
AcDbSymbolTableRecord
100
AcDbLayerTableRecord
  2
04_POINTS
 70
0
 62
7
  6
CONTINUOUS
370
-3
390
F
  0
LAYER
  5
203
100
AcDbSymbolTableRecord
100
AcDbLayerTableRecord
  2
05_CURVES
 70
0
 62
7
  6
CONTINUOUS
370
-3
390
F
  0
LAYER
  5
204
100
AcDbSymbolTableRecord
100
AcDbLayerTableRecord
  2
06_SURFS
 70
0
 62
7
  6
CONTINUOUS
370
-3
390
F
  0
LAYER
  5
205
100
AcDbSymbolTableRecord
100
AcDbLayerTableRecord
  2
07_COSMETICS
 70
0
 62
7
  6
CONTINUOUS
370
-3
390
F
  0
LAYER
  5
206
100
AcDbSymbolTableRecord
100
AcDbLayerTableRecord
  2
10_NOTES
 70
0
 62
7
  6
CONTINUOUS
370
-3
390
F
  0
LAYER
  5
207
100
AcDbSymbolTableRecord
100
AcDbLayerTableRecord
  2
11_NOTES_PUB
 70
0
 62
7
  6
CONTINUOUS
370
-3
390
F
  0
LAYER
  5
208
100
AcDbSymbolTableRecord
100
AcDbLayerTableRecord
  2
13_REF_GTOL
 70
0
 62
7
  6
CONTINUOUS
370
-3
390
F
  0
LAYER
  5
209
100
AcDbSymbolTableRecord
100
AcDbLayerTableRecord
  2
16_MISC
 70
0
 62
7
  6
CONTINUOUS
370
-3
390
F
  0
LAYER
  5
20A
100
AcDbSymbolTableRecord
100
AcDbLayerTableRecord
  2
17_NO_PRINT
 70
0
 62
7
  6
CONTINUOUS
370
-3
390
F
  0
LAYER
  5
20B
100
AcDbSymbolTableRecord
100
AcDbLayerTableRecord
  2
18_DATUM_CAMS_JOINTS
 70
0
 62
7
  6
CONTINUOUS
370
-3
390
F
  0
LAYER
  5
20C
100
AcDbSymbolTableRecord
100
AcDbLayerTableRecord
  2
19_DATUM_FUNCTIONAL
 70
0
 62
7
  6
CONTINUOUS
370
-3
390
F
  0
LAYER
  5
20D
100
AcDbSymbolTableRecord
100
AcDbLayerTableRecord
  2
20_DATUM_KINEMATIC_SCHEME
 70
0
 62
7
  6
CONTINUOUS
370
-3
390
F
  0
ENDTAB
  0
TABLE
  2
STYLE
  5
3
100
AcDbSymbolTable
 70
1
  0
STYLE
  5
11
100
AcDbSymbolTableRecord
100
AcDbTextStyleTableRecord
  2
STANDARD
 70
0
 40
0.0
 41
1.0
 50
0.0
 71
0
 42
0.2
  3
ARIAL.TTF
  4

  0
STYLE
  5
20E
100
AcDbSymbolTableRecord
100
AcDbTextStyleTableRecord
  2
TEXTSTYLE_1
 70
0
 40
0.0
 41
0.8
 50
0.0
 71
0
 42
0.2
  3
gdt
  4

  0
ENDTAB
  0
TABLE
  2
VIEW
  5
6
100
AcDbSymbolTable
 70
0
  0
ENDTAB
  0
TABLE
  2
UCS
  5
7
100
AcDbSymbolTable
 70
0
  0
ENDTAB
  0
TABLE
  2
APPID
  5
9
100
AcDbSymbolTable
 70
1
  0
APPID
  5
20F
100
AcDbSymbolTableRecord
100
AcDbRegAppTableRecord
  2
ACAD
 70
0
  0
ENDTAB
  0
TABLE
  2
BLOCK_RECORD
  5
1
100
AcDbSymbolTable
 70
0
  0
BLOCK_RECORD
  5
210
100
AcDbSymbolTableRecord
100
AcDbBlockTableRecord
  2
*Model_Space
  0
BLOCK_RECORD
  5
211
100
AcDbSymbolTableRecord
100
AcDbBlockTableRecord
  2
*Paper_Space
  0
BLOCK_RECORD
  5
212
100
AcDbSymbolTableRecord
100
AcDbBlockTableRecord
  2
_FILLED
  0
ENDTAB
  0
TABLE
  2
DIMSTYLE
  5
A
100
AcDbSymbolTable
 70
1
100
AcDbDimStyleTable
 71
0
  0
DIMSTYLE
105
213
100
AcDbSymbolTableRecord
100
AcDbDimStyleTableRecord
  2
STANDARD
 70
0
  3

  4

 40
1.0
 41
0.9029021064
 42
1.0
 43
0.38
 44
1.0
 45
0.0
 46
0.0
 47
0.01
 48
0.01
140
1.264062949
141
0.09
142
0.0
143
25.4
144
1.0
145
0.0
146
1.0
147
0.625
 71
1
 72
0
 73
0
 74
0
 75
0
 76
0
 77
1
 78
8
 79
2
170
0
171
1
172
0
173
0
174
0
175
0
176
0
177
0
178
0
270
2
179
2
271
2
272
2
273
2
274
2
275
0
280
0
281
0
282
0
283
1
284
8
285
0
286
0
287
3
288
0
340
11
278
46
341
212
342
212
343
212
344
212
  0
ENDTAB
  0
ENDSEC
  0
SECTION
  2
BLOCKS
  0
BLOCK
  5
20
100
AcDbEntity
  8
0
100
AcDbBlockBegin
  2
*Model_Space
 70
0
 10
0.0
 20
0.0
 30
0.0
  3
*Model_Space
  1

  0
ENDBLK
  5
21
100
AcDbEntity
  8
0
100
AcDbBlockEnd
  0
BLOCK
  5
1C
100
AcDbEntity
  8
0
100
AcDbBlockBegin
  2
*Paper_Space
 70
0
 10
0.0
 20
0.0
 30
0.0
  3
*Paper_Space
  1

  0
ENDBLK
  5
1D
100
AcDbEntity
  8
0
100
AcDbBlockEnd
  0
BLOCK
  5
214
100
AcDbEntity
  8
0
100
AcDbBlockBegin
  2
_FILLED
 70
64
 10
0.0
 20
0.0
  3
_FILLED
  1

  0
SOLID
  5
215
100
AcDbEntity
  8
0
  6
BYBLOCK
 62
0
100
AcDbTrace
 10
0.0
 20
0.0
 11
-1.0
 21
0.25
 12
-1.0
 22
-0.25
 13
-1.0
 23
-0.25
  0
ENDBLK
  5
216
100
AcDbEntity
  8
0
  6
BYBLOCK
 62
0
100
AcDbBlockEnd
  0
ENDSEC
  0
SECTION
  2
ENTITIES
  0
LINE
  5
217
100
AcDbEntity
  8
0
100
AcDbLine
 62
7
  6
BYLAYER
 10
8.0531794974
 20
27.2949671673
 11
8.0531794974
 21
81.2949671959
  0
LINE
  5
218
100
AcDbEntity
  8
0
100
AcDbLine
 62
7
  6
BYLAYER
 10
9.0531794974
 20
81.2949671772
 11
9.0531794974
 21
27.2949671772
  0
LINE
  5
219
100
AcDbEntity
  8
0
100
AcDbLine
 62
7
  6
BYLAYER
 10
53.0531794974
 20
23.2949671772
 11
23.0531794974
 21
23.2949671772
  0
LINE
  5
21A
100
AcDbEntity
  8
0
100
AcDbLine
 62
7
  6
BYLAYER
 10
23.0531794974
 20
23.3949671772
 11
53.0531794974
 21
23.3949671772
  0
LINE
  5
21B
100
AcDbEntity
  8
0
100
AcDbLine
 62
7
  6
BYLAYER
 10
65.0531795073
 20
24.2949671772
 11
11.0531794787
 21
24.2949671772
  0
LINE
  5
21C
100
AcDbEntity
  8
0
100
AcDbLine
 62
7
  6
BYLAYER
 10
11.0531794974
 20
25.2949671772
 11
65.0531794974
 21
25.2949671772
  0
LINE
  5
21D
100
AcDbEntity
  8
0
100
AcDbLine
 62
7
  6
BYLAYER
 10
11.0531794974
 20
84.2949671772
 11
11.0531794974
 21
83.2949671772
  0
LINE
  5
21E
100
AcDbEntity
  8
0
100
AcDbLine
 62
7
  6
BYLAYER
 10
11.0531794974
 20
25.2949671772
 11
11.0531794974
 21
24.2949671772
  0
LINE
  5
21F
100
AcDbEntity
  8
0
100
AcDbLine
 62
7
  6
BYLAYER
 10
8.0531794974
 20
27.2949671772
 11
9.0531794974
 21
27.2949671772
  0
LINE
  5
220
100
AcDbEntity
  8
0
100
AcDbLine
 62
7
  6
BYLAYER
 10
67.0531794974
 20
27.2949671772
 11
68.0531794974
 21
27.2949671772
  0
LINE
  5
221
100
AcDbEntity
  8
0
100
AcDbLine
 62
7
  6
BYLAYER
 10
18.3618108299
 20
60.2949671772
 11
18.3618108299
 21
58.2949671772
  0
LINE
  5
222
100
AcDbEntity
  8
0
100
AcDbLine
 62
7
  6
BYLAYER
 10
18.3618108299
 20
50.2949671772
 11
18.3618108299
 21
48.2949671772
  0
LINE
  5
223
100
AcDbEntity
  8
0
100
AcDbLine
 62
7
  6
BYLAYER
 10
46.7709773797
 20
36.2949671754
 11
29.335381616
 21
36.2949671741
  0
LINE
  5
224
100
AcDbEntity
  8
0
100
AcDbLine
 62
7
  6
BYLAYER
 10
23.0531794974
 20
24.2949671772
 11
23.0531794974
 21
23.2949671772
  0
LINE
  5
225
100
AcDbEntity
  8
0
100
AcDbLine
 62
7
  6
BYLAYER
 10
23.3531794974
 20
56.0590626763
 11
23.3531794974
 21
52.5217307033
  0
LINE
  5
226
100
AcDbEntity
  8
0
100
AcDbLine
 62
7
  6
BYLAYER
 10
24.1531794974
 20
48.2949671772
 11
24.1531794974
 21
52.5949671772
  0
LINE
  5
227
100
AcDbEntity
  8
0
100
AcDbLine
 62
7
  6
BYLAYER
 10
24.1531794974
 20
55.9949671772
 11
24.1531794974
 21
60.2949671772
  0
LINE
  5
228
100
AcDbEntity
  8
0
100
AcDbLine
 62
7
  6
BYLAYER
 10
24.5531794974
 20
48.2949671772
 11
24.5531794974
 21
52.3949671772
  0
LINE
  5
229
100
AcDbEntity
  8
0
100
AcDbLine
 62
7
  6
BYLAYER
 10
24.5531794974
 20
56.1949671772
 11
24.5531794974
 21
60.2949671772
  0
LINE
  5
22A
100
AcDbEntity
  8
0
100
AcDbLine
 62
7
  6
BYLAYER
 10
22.6191999872
 20
56.5009377591
 11
19.2859448588
 21
54.735928976
  0
LINE
  5
22B
100
AcDbEntity
  8
0
100
AcDbLine
 62
7
  6
BYLAYER
 10
19.2851885876
 20
53.8525800968
 11
22.618443716
 21
52.0802569068
  0
LINE
  5
22C
100
AcDbEntity
  8
0
100
AcDbLine
 62
7
  6
BYLAYER
 10
18.3618108101
 20
48.2949671772
 11
57.7445481846
 21
48.2949671772
  0
LINE
  5
22D
100
AcDbEntity
  8
0
100
AcDbLine
 62
7
  6
BYLAYER
 10
18.3618108299
 20
50.2949671772
 11
24.1531794974
 21
50.2949671772
  0
LINE
  5
22E
100
AcDbEntity
  8
0
100
AcDbLine
 62
7
  6
BYLAYER
 10
24.5531794974
 20
50.2949671772
 11
57.7445481649
 21
50.2949671772
  0
LINE
  5
22F
100
AcDbEntity
  8
0
100
AcDbLine
 62
7
  6
BYLAYER
 10
29.3353761921
 20
36.2949698014
 11
28.245650779
 21
34.0449701294
  0
LINE
  5
230
100
AcDbEntity
  8
0
100
AcDbLine
 62
7
  6
BYLAYER
 10
46.7709770908
 20
72.2949673195
 11
47.86070179
 21
74.5449673373
  0
LINE
  5
231
100
AcDbEntity
  8
0
100
AcDbLine
 62
7
  6
BYLAYER
 10
54.7531794974
 20
52.3949671772
 11
24.5531794974
 21
52.3949671772
  0
LINE
  5
232
100
AcDbEntity
  8
0
100
AcDbLine
 62
7
  6
BYLAYER
 10
24.1531794974
 20
52.5949671772
 11
54.7531794974
 21
52.5949671772
  0
LINE
  5
233
100
AcDbEntity
  8
0
100
AcDbLine
 62
7
  6
BYLAYER
 10
28.2456568978
 20
74.5449671886
 11
29.3353816311
 21
72.2949671873
  0
LINE
  5
234
100
AcDbEntity
  8
0
100
AcDbLine
 62
7
  6
BYLAYER
 10
47.8607021376
 20
34.0449671856
 11
46.7709773998
 21
36.2949671847
  0
LINE
  5
235
100
AcDbEntity
  8
0
100
AcDbLine
 62
7
  6
BYLAYER
 10
60.2059692483
 20
58.2324671772
 11
58.2368323816
 21
57.8824671772
  0
LINE
  5
236
100
AcDbEntity
  8
0
100
AcDbLine
 62
7
  6
BYLAYER
 10
15.9003897464
 20
50.3574671772
 11
17.8695266132
 21
50.7074671772
  0
LINE
  5
237
100
AcDbEntity
  8
0
100
AcDbLine
 62
7
  6
BYLAYER
 10
54.7531794974
 20
55.9949671772
 11
24.1531794974
 21
55.9949671772
  0
LINE
  5
238
100
AcDbEntity
  8
0
100
AcDbLine
 62
7
  6
BYLAYER
 10
24.5531794974
 20
56.1949671772
 11
54.7531794974
 21
56.1949671772
  0
LINE
  5
239
100
AcDbEntity
  8
0
100
AcDbLine
 62
7
  6
BYLAYER
 10
17.8695266132
 20
57.8824671772
 11
15.9003897464
 21
58.2324671772
  0
LINE
  5
23A
100
AcDbEntity
  8
0
100
AcDbLine
 62
7
  6
BYLAYER
 10
58.2368323816
 20
50.7074671772
 11
60.2059692483
 21
50.3574671772
  0
LINE
  5
23B
100
AcDbEntity
  8
0
100
AcDbLine
 62
7
  6
BYLAYER
 10
57.7445481649
 20
58.2949671772
 11
24.5531794974
 21
58.2949671772
  0
LINE
  5
23C
100
AcDbEntity
  8
0
100
AcDbLine
 62
7
  6
BYLAYER
 10
24.1531794974
 20
58.2949671772
 11
18.3618108299
 21
58.2949671772
  0
LINE
  5
23D
100
AcDbEntity
  8
0
100
AcDbLine
 62
7
  6
BYLAYER
 10
18.3618108101
 20
60.2949671772
 11
57.7445481846
 21
60.2949671772
  0
LINE
  5
23E
100
AcDbEntity
  8
0
100
AcDbLine
 62
7
  6
BYLAYER
 10
53.0531794974
 20
23.2949671772
 11
53.0531794974
 21
24.2949671772
  0
LINE
  5
23F
100
AcDbEntity
  8
0
100
AcDbLine
 62
7
  6
BYLAYER
 10
57.7445481649
 20
48.2949671772
 11
57.7445481649
 21
50.2949671772
  0
LINE
  5
240
100
AcDbEntity
  8
0
100
AcDbLine
 62
7
  6
BYLAYER
 10
57.7445481649
 20
58.2949671772
 11
57.7445481649
 21
60.2949671772
  0
LINE
  5
241
100
AcDbEntity
  8
0
100
AcDbLine
 62
7
  6
BYLAYER
 10
29.3353816061
 20
72.2949671757
 11
46.7709773913
 21
72.2949671738
  0
LINE
  5
242
100
AcDbEntity
  8
0
100
AcDbLine
 62
7
  6
BYLAYER
 10
65.0531794974
 20
24.2949671772
 11
65.0531794974
 21
25.2949671772
  0
LINE
  5
243
100
AcDbEntity
  8
0
100
AcDbLine
 62
7
  6
BYLAYER
 10
65.0531794974
 20
83.2949671772
 11
65.0531794974
 21
84.2949671772
  0
LINE
  5
244
100
AcDbEntity
  8
0
100
AcDbLine
 62
7
  6
BYLAYER
 10
68.0531794974
 20
81.2949671772
 11
67.0531794974
 21
81.2949671772
  0
LINE
  5
245
100
AcDbEntity
  8
0
100
AcDbLine
 62
7
  6
BYLAYER
 10
9.0531794974
 20
81.2949671772
 11
8.0531794974
 21
81.2949671772
  0
LINE
  5
246
100
AcDbEntity
  8
0
100
AcDbLine
 62
7
  6
BYLAYER
 10
67.0531794974
 20
27.2949671772
 11
67.0531794974
 21
81.2949671772
  0
LINE
  5
247
100
AcDbEntity
  8
0
100
AcDbLine
 62
7
  6
BYLAYER
 10
68.0531794974
 20
81.2949671872
 11
68.0531794974
 21
27.2949671586
  0
LINE
  5
248
100
AcDbEntity
  8
0
100
AcDbLine
 62
7
  6
BYLAYER
 10
29.5197674728
 20
84.2949671772
 11
30.6997674728
 21
84.4949671772
  0
LINE
  5
249
100
AcDbEntity
  8
0
100
AcDbLine
 62
7
  6
BYLAYER
 10
65.0531794974
 20
83.2949671772
 11
11.0531794974
 21
83.2949671772
  0
LINE
  5
24A
100
AcDbEntity
  8
0
100
AcDbLine
 62
7
  6
BYLAYER
 10
11.0531794874
 20
84.2949671772
 11
65.053179516
 21
84.2949671772
  0
LINE
  5
24B
100
AcDbEntity
  8
0
100
AcDbLine
 62
7
  6
BYLAYER
 10
30.6997674728
 20
84.4949671772
 11
45.406591522
 21
84.4949671772
  0
LINE
  5
24C
100
AcDbEntity
  8
0
100
AcDbLine
 62
7
  6
BYLAYER
 10
45.406591522
 20
84.4949671772
 11
46.586591522
 21
84.2949671772
  0
ARC
  5
24D
100
AcDbEntity
  8
0
100
AcDbCircle
 62
7
  6
BYLAYER
 10
11.0531794974
 20
27.2949671772
 40
3.0
100
AcDbArc
 50
180.0000000917
 51
269.9999997288
  0
ARC
  5
24E
100
AcDbEntity
  8
0
100
AcDbCircle
 62
7
  6
BYLAYER
 10
18.3618108299
 20
50.7949671772
 40
2.5
100
AcDbArc
 50
190.0786581077
 51
269.9999997738
  0
ARC
  5
24F
100
AcDbEntity
  8
0
100
AcDbCircle
 62
7
  6
BYLAYER
 10
11.0531794974
 20
27.2949671772
 40
2.0
100
AcDbArc
 50
180.0
 51
270.0
  0
ARC
  5
250
100
AcDbEntity
  8
0
100
AcDbCircle
 62
7
  6
BYLAYER
 10
19.519924369
 20
54.2940538932
 40
0.5
100
AcDbArc
 50
117.9018934879
 51
241.9999999998
  0
ARC
  5
251
100
AcDbEntity
  8
0
100
AcDbCircle
 62
7
  6
BYLAYER
 10
22.8531794974
 20
52.5217307033
 40
0.5
100
AcDbArc
 50
241.9999999998
 51
360.0
  0
ARC
  5
252
100
AcDbEntity
  8
0
100
AcDbCircle
 62
7
  6
BYLAYER
 10
18.3618108299
 20
50.7949671772
 40
0.5
100
AcDbArc
 50
190.0786581095
 51
269.9999999991
  0
ARC
  5
253
100
AcDbEntity
  8
0
100
AcDbCircle
 62
7
  6
BYLAYER
 10
11.0531794974
 20
81.2949671772
 40
3.0
100
AcDbArc
 50
90.0000000949
 51
179.999999728
  0
ARC
  5
254
100
AcDbEntity
  8
0
100
AcDbCircle
 62
7
  6
BYLAYER
 10
18.3618108299
 20
57.7949671772
 40
2.5
100
AcDbArc
 50
90.0000002194
 51
169.9213418921
  0
ARC
  5
255
100
AcDbEntity
  8
0
100
AcDbCircle
 62
7
  6
BYLAYER
 10
11.0531794974
 20
81.2949671772
 40
2.0
100
AcDbArc
 50
90.0
 51
180.0
  0
ARC
  5
256
100
AcDbEntity
  8
0
100
AcDbCircle
 62
7
  6
BYLAYER
 10
22.8531794974
 20
56.0590626763
 40
0.5
100
AcDbArc
 50
0.0
 51
117.9018934883
  0
ARC
  5
257
100
AcDbEntity
  8
0
100
AcDbCircle
 62
7
  6
BYLAYER
 10
18.3618108299
 20
57.7949671773
 40
0.5
100
AcDbArc
 50
90.0000000001
 51
169.921341891
  0
ARC
  5
258
100
AcDbEntity
  8
0
100
AcDbCircle
 62
7
  6
BYLAYER
 10
65.0531794974
 20
27.2949671772
 40
3.0
100
AcDbArc
 50
270.0000000949
 51
360.0
  0
ARC
  5
259
100
AcDbEntity
  8
0
100
AcDbCircle
 62
7
  6
BYLAYER
 10
57.7445481649
 20
50.7949671772
 40
2.5
100
AcDbArc
 50
270.0000002113
 51
349.9213418921
  0
ARC
  5
25A
100
AcDbEntity
  8
0
100
AcDbCircle
 62
7
  6
BYLAYER
 10
65.0531794974
 20
27.2949671772
 40
2.0
100
AcDbArc
 50
270.0
 51
360.0
  0
ARC
  5
25B
100
AcDbEntity
  8
0
100
AcDbCircle
 62
7
  6
BYLAYER
 10
57.7445481649
 20
50.7949671772
 40
0.5
100
AcDbArc
 50
270.0000000001
 51
349.921341891
  0
CIRCLE
  5
25C
100
AcDbEntity
  8
0
100
AcDbCircle
 62
7
  6
BYLAYER
 10
38.0531794974
 20
54.2949671772
 40
22.5
  0
ARC
  5
25D
100
AcDbEntity
  8
0
100
AcDbCircle
 62
7
  6
BYLAYER
 10
38.0531794974
 20
54.2949671772
 40
20.5
100
AcDbArc
 50
169.9213418922
 51
190.0786581078
  0
ARC
  5
25E
100
AcDbEntity
  8
0
100
AcDbCircle
 62
7
  6
BYLAYER
 10
38.0531794974
 20
54.2949671772
 40
20.5
100
AcDbArc
 50
349.9213418922
 51
10.0786581078
  0
ARC
  5
25F
100
AcDbEntity
  8
0
100
AcDbCircle
 62
7
  6
BYLAYER
 10
38.0531794974
 20
54.2949671772
 40
20.0
100
AcDbArc
 50
244.1580672555
 51
295.8419327486
  0
ARC
  5
260
100
AcDbEntity
  8
0
100
AcDbCircle
 62
7
  6
BYLAYER
 10
38.0531794974
 20
54.2949671772
 40
20.0
100
AcDbArc
 50
64.1580672149
 51
115.8419327759
  0
ARC
  5
261
100
AcDbEntity
  8
0
100
AcDbCircle
 62
7
  6
BYLAYER
 10
65.0531794974
 20
81.2949671772
 40
3.0
100
AcDbArc
 50
0.0
 51
89.9999997288
  0
ARC
  5
262
100
AcDbEntity
  8
0
100
AcDbCircle
 62
7
  6
BYLAYER
 10
57.7445481649
 20
57.7949671772
 40
2.5
100
AcDbArc
 50
10.0786581077
 51
89.9999997738
  0
ARC
  5
263
100
AcDbEntity
  8
0
100
AcDbCircle
 62
7
  6
BYLAYER
 10
65.0531794974
 20
81.2949671772
 40
2.0
100
AcDbArc
 50
0.0
 51
90.0
  0
ARC
  5
264
100
AcDbEntity
  8
0
100
AcDbCircle
 62
7
  6
BYLAYER
 10
54.7531794974
 20
54.2949671772
 40
1.9
100
AcDbArc
 50
270.0
 51
90.0
  0
ARC
  5
265
100
AcDbEntity
  8
0
100
AcDbCircle
 62
7
  6
BYLAYER
 10
54.7531794974
 20
54.2949671772
 40
1.7
100
AcDbArc
 50
270.0
 51
90.0
  0
ARC
  5
266
100
AcDbEntity
  8
0
100
AcDbCircle
 62
7
  6
BYLAYER
 10
57.7445481649
 20
57.7949671772
 40
0.5
100
AcDbArc
 50
10.0786581095
 51
89.9999999991
  0
SPLINE
  5
267
100
AcDbEntity
  8
0
100
AcDbSpline
 62
7
  6
BYLAYER
 70
0
 71
3
 72
34
 73
30
 74
0
 42
0.0000001
 43
0.0000001
 44
0.0000000001
 40
0.0
 40
0.0
 40
0.0
 40
0.0
 40
0.0867637642
 40
0.1734757093
 40
0.2599752517
 40
0.3461016789
 40
0.4314004335
 40
0.515138659
 40
0.596282467
 40
0.6735728304
 40
0.7453639114
 40
0.8101683077
 40
0.8667084912
 40
0.89155605
 40
0.9139990718
 40
0.9339399731
 40
0.9513176581
 40
0.9661037359
 40
0.9782643974
 40
0.9833481794
 40
0.9877617768
 40
0.9915016694
 40
0.9945643916
 40
0.996946578
 40
0.9986451371
 40
0.9992373616
 40
0.9996582069
 40
0.9999088356
 40
1.0
 40
1.0
 40
1.0
 40
1.0
 10
29.3353816046
 20
72.2949671747
 30
0.0
 10
28.8853094173
 20
72.1027496893
 30
0.0
 10
27.992035833
 20
71.7025207746
 30
0.0
 10
26.686357921
 20
71.0328573822
 30
0.0
 10
25.4363826813
 20
70.2698794431
 30
0.0
 10
24.2601779891
 20
69.4109527844
 30
0.0
 10
23.1659086838
 20
68.4738960324
 30
0.0
 10
22.166333804
 20
67.4757705151
 30
0.0
 10
21.2777000562
 20
66.4364008191
 30
0.0
 10
20.5148659381
 20
65.3837666433
 30
0.0
 10
19.885589283
 20
64.3529040404
 30
0.0
 10
19.3925201971
 20
63.3803828996
 30
0.0
 10
19.0693123977
 20
62.6211209384
 30
0.0
 10
18.8651915728
 20
62.0721014913
 30
0.0
 10
18.7429665319
 20
61.7130618466
 30
0.0
 10
18.6424925491
 20
61.3912577029
 30
0.0
 10
18.5613794064
 20
61.1087468017
 30
0.0
 10
18.4971230819
 20
60.8671152109
 30
0.0
 10
18.4533119443
 20
60.6918316936
 30
0.0
 10
18.4241560559
 20
60.5731996665
 30
0.0
 10
18.4064214341
 20
60.5006652011
 30
0.0
 10
18.3915703526
 20
60.4391809291
 30
0.0
 10
18.3796413938
 20
60.3887251763
 30
0.0
 10
18.3706891901
 20
60.3495396182
 30
0.0
 10
18.3652058679
 20
60.3235461251
 30
0.0
 10
18.362447063
 20
60.3087792309
 30
0.0
 10
18.361433093
 20
60.3012657195
 30
0.0
 10
18.3610468007
 20
60.2977851396
 30
0.0
 10
18.3612966082
 20
60.2949671772
 30
0.0
 10
18.3618108305
 20
60.2949671772
 30
0.0
  0
SPLINE
  5
268
100
AcDbEntity
  8
0
100
AcDbSpline
 62
7
  6
BYLAYER
 70
0
 71
3
 72
22
 73
18
 74
0
 42
0.0000001
 43
0.0000001
 44
0.0000000001
 40
0.0
 40
0.0
 40
0.0
 40
0.0
 40
0.0013334951
 40
0.0053163771
 40
0.011930833
 40
0.0211598066
 40
0.032979545
 40
0.0473385148
 40
0.0834592616
 40
0.1290617909
 40
0.1834395506
 40
0.2458412306
 40
0.3151994531
 40
0.4702951544
 40
0.6399976675
 40
0.8176818309
 40
1.0
 40
1.0
 40
1.0
 40
1.0
 10
57.7445313395
 20
48.2949671773
 30
0.0
 10
57.7425004441
 20
48.2877286657
 30
0.0
 10
57.7376633242
 20
48.2580766559
 30
0.0
 10
57.7221102828
 20
48.1926518697
 30
0.0
 10
57.6980436414
 20
48.0834818495
 30
0.0
 10
57.6617265276
 20
47.9318078585
 30
0.0
 10
57.6137996889
 20
47.7380187202
 30
0.0
 10
57.523660122
 20
47.3985298039
 30
0.0
 10
57.3682907534
 20
46.8794098762
 30
0.0
 10
57.1137506963
 20
46.1551697345
 30
0.0
 10
56.7600167383
 20
45.3101293897
 30
0.0
 10
56.2908053422
 20
44.3704682598
 30
0.0
 10
55.4655591176
 20
42.9781166731
 30
0.0
 10
54.1046587164
 20
41.2083836127
 30
0.0
 10
52.0345856042
 20
39.2567946964
 30
0.0
 10
49.5578158251
 20
37.5683765288
 30
0.0
 10
47.7250491073
 20
36.6774351705
 30
0.0
 10
46.7709711335
 20
36.2949827542
 30
0.0
  0
SPLINE
  5
269
100
AcDbEntity
  8
0
100
AcDbSpline
 62
7
  6
BYLAYER
 70
0
 71
3
 72
23
 73
19
 74
0
 42
0.0000001
 43
0.0000001
 44
0.0000000001
 40
0.0
 40
0.0
 40
0.0
 40
0.0
 40
0.1823945322
 40
0.3601659153
 40
0.5298867044
 40
0.6098441082
 40
0.6850814722
 40
0.7544253798
 40
0.8168031591
 40
0.8711394887
 40
0.9166889806
 40
0.9527544324
 40
0.967087951
 40
0.9788853868
 40
0.98809628
 40
0.994697133
 40
0.9986709515
 40
1.0
 40
1.0
 40
1.0
 40
1.0
 10
29.3353728919
 20
36.2949454073
 30
0.0
 10
28.3807858127
 20
36.6776261899
 30
0.0
 10
26.5469415438
 20
37.569317748
 30
0.0
 10
24.0695713482
 20
39.2584573169
 30
0.0
 10
22.3074337545
 20
40.9199038004
 30
0.0
 10
21.1381544367
 20
42.332378444
 30
0.0
 10
20.4086950452
 20
43.368866273
 30
0.0
 10
19.8135879476
 20
44.3739509183
 30
0.0
 10
19.3447525554
 20
45.313393273
 30
0.0
 10
18.9914394638
 20
46.1580214195
 30
0.0
 10
18.7373569777
 20
46.8816200888
 30
0.0
 10
18.5822054386
 20
47.4000937888
 30
0.0
 10
18.4923535813
 20
47.7390959777
 30
0.0
 10
18.4442873455
 20
47.9325034614
 30
0.0
 10
18.4086431979
 20
48.0840245146
 30
0.0
 10
18.3832258278
 20
48.1926965231
 30
0.0
 10
18.3701344854
 20
48.258479011
 30
0.0
 10
18.3627693297
 20
48.2875379239
 30
0.0
 10
18.3617873218
 20
48.2949671774
 30
0.0
  0
SPLINE
  5
26A
100
AcDbEntity
  8
0
100
AcDbSpline
 62
7
  6
BYLAYER
 70
0
 71
3
 72
24
 73
20
 74
0
 42
0.0000001
 43
0.0000001
 44
0.0000000001
 40
0.0
 40
0.0
 40
0.0
 40
0.0
 40
0.182432711
 40
0.3602484552
 40
0.5300052623
 40
0.6099725349
 40
0.6852062329
 40
0.7545282123
 40
0.816875704
 40
0.8711848215
 40
0.9167136501
 40
0.9527659436
 40
0.9670952354
 40
0.978889671
 40
0.9880985555
 40
0.9946981717
 40
0.9970141602
 40
0.9986713149
 40
1.0
 40
1.0
 40
1.0
 40
1.0
 10
46.7709839786
 20
72.2949836089
 30
0.0
 10
47.7257669488
 20
71.912219282
 30
0.0
 10
49.5600119005
 20
71.0202902517
 30
0.0
 10
52.0378627284
 20
69.3306587651
 30
0.0
 10
53.8001619402
 20
67.6686365157
 30
0.0
 10
54.9694127489
 20
66.2558362447
 30
0.0
 10
55.6987134913
 20
65.2193495108
 30
0.0
 10
56.2935662406
 20
64.2144840267
 30
0.0
 10
56.7621031473
 20
63.2753955501
 30
0.0
 10
57.1151665562
 20
62.4311458998
 30
0.0
 10
57.3691200921
 20
61.7078653125
 30
0.0
 10
57.524164496
 20
61.1895923519
 30
0.0
 10
57.6140785528
 20
60.8507181922
 30
0.0
 10
57.6619726051
 20
60.6573367094
 30
0.0
 10
57.698042028
 20
60.5059198663
 30
0.0
 10
57.7204200226
 20
60.4062259033
 30
0.0
 10
57.7335658358
 20
60.3480489465
 30
0.0
 10
57.7391511809
 20
60.3187190217
 30
0.0
 10
57.7439026915
 20
60.3024295708
 30
0.0
 10
57.7445659135
 20
60.2949671772
 30
0.0
  0
ENDSEC
  0
SECTION
  2
OBJECTS
  0
DICTIONARY
  5
C
100
AcDbDictionary
280
0
281
1
  3
ACAD_GROUP
350
D
  3
ACAD_MLINESTYLE
350
17
  3
ACAD_LAYOUT
350
1A
  3
ACAD_PLOTSETTINGS
350
19
  3
ACAD_PLOTSTYLENAME
350
E
  0
DICTIONARY
  5
D
102
{ACAD_REACTORS
330
C
102
}
100
AcDbDictionary
280
0
281
1
  0
ACDBDICTIONARYWDFLT
  5
E
102
{ACAD_REACTORS
330
C
102
}
100
AcDbDictionary
281
1
  3
Normal
350
F
100
AcDbDictionaryWithDefault
340
F
  0
DICTIONARY
  5
17
102
{ACAD_REACTORS
330
C
102
}
100
AcDbDictionary
280
0
281
1
  3
Standard
350
18
  0
DICTIONARY
  5
19
102
{ACAD_REACTORS
330
C
102
}
100
AcDbDictionary
281
1
  0
DICTIONARY
  5
1A
102
{ACAD_REACTORS
330
C
102
}
100
AcDbDictionary
281
1
  3
Model
350
26B
  3
Layout1
350
26C
  0
ACDBPLACEHOLDER
  5
F
102
{ACAD_REACTORS
330
E
102
}
  0
MLINESTYLE
  5
18
102
{ACAD_REACTORS
330
17
102
}
100
AcDbMlineStyle
  2
STANDARD
 70
0
  3

 62
256
 51
90.0
 52
90.0
 71
2
 49
0.5
 62
256
  6
BYLAYER
 49
-0.5
 62
256
  6
BYLAYER
  0
LAYOUT
  5
26B
102
{ACAD_REACTORS
330
1A
102
}
100
AcDbPlotSettings
  1

  2
none_device
  4

  6

 40
0.0
 41
0.0
 42
0.0
 43
0.0
 44
210.0
 45
297.0
 46
0.0
 47
0.0
 48
0.0
 49
0.0
140
0.0
141
0.0
142
1.0
143
1.0
 70
1024
 72
1
 73
0
 74
0
  7

 75
0
147
1.0
148
0.0
149
0.0
100
AcDbLayout
  1
Model
 70
0
 71
0
 10
0.0
 20
0.0
 11
210.0
 21
297.0
 12
0.0
 22
0.0
 32
0.0
 14
0.0
 24
0.0
 34
0.0
 15
0.0
 25
0.0
 35
0.0
146
0.0
 13
0.0
 23
0.0
 33
0.0
 16
1.0
 26
0.0
 36
0.0
 17
0.0
 27
1.0
 37
0.0
 76
0
330
210
345
0
346
0
  0
LAYOUT
  5
26C
102
{ACAD_REACTORS
330
1A
102
}
100
AcDbPlotSettings
  1

  2
none_device
  4

  6

 40
0.0
 41
0.0
 42
0.0
 43
0.0
 44
210.0
 45
297.0
 46
0.0
 47
0.0
 48
0.0
 49
0.0
140
0.0
141
0.0
142
1.0
143
1.0
 70
0
 72
1
 73
0
 74
0
  7

 75
0
147
1.0
148
0.0
149
0.0
100
AcDbLayout
  1
Layout1
 70
0
 71
1
 10
0.0
 20
0.0
 11
210.0
 21
297.0
 12
0.0
 22
0.0
 32
0.0
 14
0.0
 24
0.0
 34
0.0
 15
0.0
 25
0.0
 35
0.0
146
0.0
 13
0.0
 23
0.0
 33
0.0
 16
1.0
 26
0.0
 36
0.0
 17
0.0
 27
1.0
 37
0.0
 76
0
330
211
345
0
346
0
  0
ENDSEC
  0
EOF
